ISO-10303-21;
HEADER;
FILE_DESCRIPTION (( 'STEP AP214' ),
    '1' );
FILE_NAME ('81361.STEP',
    '2023-06-23T00:35:05',
    ( '' ),
    ( '' ),
    'SwSTEP 2.0',
    'SolidWorks 2023',
    '' );
FILE_SCHEMA (( 'AUTOMOTIVE_DESIGN' ));
ENDSEC;

DATA;
#1 = DIRECTION ( 'NONE',  ( 0.000000000000000000, 0.000000000000000000, 1.000000000000000000 ) ) ;
#2 = CARTESIAN_POINT ( 'NONE',  ( 0.000000000000000000, 0.7499999999999998890, 0.000000000000000000 ) ) ;
#3 = ADVANCED_BREP_SHAPE_REPRESENTATION ( '81361', ( #60, #265, #166 ), #210 ) ;
#4 = CIRCLE ( 'NONE', #47, 0.06250000000000000000 ) ;
#5 = CYLINDRICAL_SURFACE ( 'NONE', #150, 0.06249999999999985428 ) ;
#6 = SURFACE_STYLE_FILL_AREA ( #121 ) ;
#7 = LINE ( 'NONE', #50, #178 ) ;
#8 = ORIENTED_EDGE ( 'NONE', *, *, #153, .F. ) ;
#9 = SURFACE_STYLE_USAGE ( .BOTH. , #31 ) ;
#10 = ORIENTED_EDGE ( 'NONE', *, *, #153, .T. ) ;
#11 = LENGTH_MEASURE_WITH_UNIT ( LENGTH_MEASURE( 0.02539999999999999897 ), #14 );
#12 = ORIENTED_EDGE ( 'NONE', *, *, #284, .F. ) ;
#13 = PRESENTATION_STYLE_ASSIGNMENT (( #230 ) ) ;
#14 =( LENGTH_UNIT ( ) NAMED_UNIT ( * ) SI_UNIT ( $, .METRE. ) );
#15 = AXIS2_PLACEMENT_3D ( 'NONE', #197, #45, #193 ) ;
#16 = PRESENTATION_LAYER_ASSIGNMENT (  '', '', ( #137 ) ) ;
#17 = FACE_OUTER_BOUND ( 'NONE', #274, .T. ) ;
#18 = FILL_AREA_STYLE ('',( #235 ) ) ;
#19 = COLOUR_RGB ( '',1.000000000000000000, 0.000000000000000000, 0.000000000000000000 ) ;
#20 =( NAMED_UNIT ( * ) SI_UNIT ( $, .STERADIAN. ) SOLID_ANGLE_UNIT ( ) );
#21 = PRODUCT_DEFINITION ( 'UNKNOWN', '', #120, #85 ) ;
#22 = CARTESIAN_POINT ( 'NONE',  ( 9.564794532282252639E-34, 0.7500000000000001110, 0.000000000000000000 ) ) ;
#23 = LINE ( 'NONE', #217, #64 ) ;
#24 =( LENGTH_UNIT ( ) NAMED_UNIT ( * ) SI_UNIT ( $, .METRE. ) );
#25 = MECHANICAL_DESIGN_GEOMETRIC_PRESENTATION_REPRESENTATION (  '', ( #113 ), #238 ) ;
#26 = PRODUCT_CONTEXT ( 'NONE', #279, 'mechanical' ) ;
#27 = DIRECTION ( 'NONE',  ( 1.749495427353361372E-16, 1.000000000000000000, -0.000000000000000000 ) ) ;
#28 = FILL_AREA_STYLE_COLOUR ( '', #110 ) ;
#29 = UNCERTAINTY_MEASURE_WITH_UNIT (LENGTH_MEASURE( 1.000000000000000082E-05 ), #308, 'distance_accuracy_value', 'NONE');
#30 = ORIENTED_EDGE ( 'NONE', *, *, #97, .F. ) ;
#31 = SURFACE_SIDE_STYLE ('',( #78 ) ) ;
#32 = ORIENTED_EDGE ( 'NONE', *, *, #190, .T. ) ;
#33 = PRESENTATION_STYLE_ASSIGNMENT (( #229 ) ) ;
#34 = EDGE_LOOP ( 'NONE', ( #103, #56, #154, #128 ) ) ;
#35 = MECHANICAL_DESIGN_GEOMETRIC_PRESENTATION_REPRESENTATION (  '', ( #137 ), #278 ) ;
#36 = CARTESIAN_POINT ( 'NONE',  ( 0.000000000000000000, 0.000000000000000000, 0.000000000000000000 ) ) ;
#37 = ORIENTED_EDGE ( 'NONE', *, *, #272, .T. ) ;
#38 =( NAMED_UNIT ( * ) SI_UNIT ( $, .STERADIAN. ) SOLID_ANGLE_UNIT ( ) );
#39 = AXIS2_PLACEMENT_3D ( 'NONE', #61, #168, #234 ) ;
#40 = DIRECTION ( 'NONE',  ( -0.000000000000000000, -1.000000000000000000, -0.000000000000000000 ) ) ;
#41 = EDGE_CURVE ( 'NONE', #275, #270, #263, .T. ) ;
#42 = DIRECTION ( 'NONE',  ( -1.000000000000000000, 1.749495427353361372E-16, 0.000000000000000000 ) ) ;
#43 = ADVANCED_FACE ( 'NONE', ( #273 ), #55, .T. ) ;
#44 = FACE_OUTER_BOUND ( 'NONE', #198, .T. ) ;
#45 = DIRECTION ( 'NONE',  ( -0.000000000000000000, -1.000000000000000000, -0.000000000000000000 ) ) ;
#46 = DIMENSIONAL_EXPONENTS ( 1.000000000000000000, 0.000000000000000000, 0.000000000000000000, 0.000000000000000000, 0.000000000000000000, 0.000000000000000000, 0.000000000000000000 ) ;
#47 = AXIS2_PLACEMENT_3D ( 'NONE', #2, #176, #288 ) ;
#48 = EDGE_CURVE ( 'NONE', #247, #275, #7, .T. ) ;
#49 = DIRECTION ( 'NONE',  ( 1.749495427353361372E-16, 1.000000000000000000, -0.000000000000000000 ) ) ;
#50 = CARTESIAN_POINT ( 'NONE',  ( -0.06249999999999954897, 2.500000000000000000, 0.000000000000000000 ) ) ;
#51 = AXIS2_PLACEMENT_3D ( 'NONE', #22, #254, #42 ) ;
#52 = AXIS2_PLACEMENT_3D ( 'NONE', #36, #298, #231 ) ;
#53 = VERTEX_POINT ( 'NONE', #144 ) ;
#54 = PRESENTATION_STYLE_ASSIGNMENT (( #9 ) ) ;
#55 = CYLINDRICAL_SURFACE ( 'NONE', #268, 0.06250000000000001388 ) ;
#56 = ORIENTED_EDGE ( 'NONE', *, *, #163, .T. ) ;
#57 = PRESENTATION_LAYER_ASSIGNMENT (  '', '', ( #161 ) ) ;
#58 = AXIS2_PLACEMENT_3D ( 'NONE', #299, #117, #111 ) ;
#59 = FILL_AREA_STYLE ('',( #106 ) ) ;
#60 = MANIFOLD_SOLID_BREP ( 'Revolve - Cutting Edge', #88 ) ;
#61 = CARTESIAN_POINT ( 'NONE',  ( 3.061616997868383141E-16, 2.500000000000000000, 0.000000000000000000 ) ) ;
#62 =( CONVERSION_BASED_UNIT ( 'INCH', #280 ) LENGTH_UNIT ( ) NAMED_UNIT ( #262 ) );
#63 = CARTESIAN_POINT ( 'NONE',  ( 0.000000000000000000, 0.000000000000000000, 0.000000000000000000 ) ) ;
#64 = VECTOR ( 'NONE', #40, 39.37007874015748143 ) ;
#65 =( GEOMETRIC_REPRESENTATION_CONTEXT ( 3 ) GLOBAL_UNCERTAINTY_ASSIGNED_CONTEXT ( ( #92 ) ) GLOBAL_UNIT_ASSIGNED_CONTEXT ( ( #152, #146, #69 ) ) REPRESENTATION_CONTEXT ( 'NONE', 'WORKASPACE' ) );
#66 = DIRECTION ( 'NONE',  ( -0.000000000000000000, -1.000000000000000000, -0.000000000000000000 ) ) ;
#67 = CYLINDRICAL_SURFACE ( 'NONE', #136, 0.06249999999999985428 ) ;
#68 = DIMENSIONAL_EXPONENTS ( 1.000000000000000000, 0.000000000000000000, 0.000000000000000000, 0.000000000000000000, 0.000000000000000000, 0.000000000000000000, 0.000000000000000000 ) ;
#69 =( NAMED_UNIT ( * ) SI_UNIT ( $, .STERADIAN. ) SOLID_ANGLE_UNIT ( ) );
#70 = DIRECTION ( 'NONE',  ( 0.000000000000000000, 0.000000000000000000, -1.000000000000000000 ) ) ;
#71 = CLOSED_SHELL ( 'NONE', ( #297, #241, #158, #134 ) ) ;
#72 = EDGE_CURVE ( 'NONE', #53, #247, #4, .T. ) ;
#73 = ADVANCED_FACE ( 'NONE', ( #201 ), #98, .T. ) ;
#74 =( NAMED_UNIT ( * ) SI_UNIT ( $, .STERADIAN. ) SOLID_ANGLE_UNIT ( ) );
#75 = LENGTH_MEASURE_WITH_UNIT ( LENGTH_MEASURE( 0.02539999999999999897 ), #173 );
#76 = ORIENTED_EDGE ( 'NONE', *, *, #167, .T. ) ;
#77 =( GEOMETRIC_REPRESENTATION_CONTEXT ( 3 ) GLOBAL_UNCERTAINTY_ASSIGNED_CONTEXT ( ( #302 ) ) GLOBAL_UNIT_ASSIGNED_CONTEXT ( ( #62, #281, #20 ) ) REPRESENTATION_CONTEXT ( 'NONE', 'WORKASPACE' ) );
#78 = SURFACE_STYLE_FILL_AREA ( #59 ) ;
#79 = SURFACE_STYLE_FILL_AREA ( #228 ) ;
#80 =( LENGTH_UNIT ( ) NAMED_UNIT ( * ) SI_UNIT ( $, .METRE. ) );
#81 = CIRCLE ( 'NONE', #15, 0.06250000000000001388 ) ;
#82 =( LENGTH_UNIT ( ) NAMED_UNIT ( * ) SI_UNIT ( $, .METRE. ) );
#83 = CARTESIAN_POINT ( 'NONE',  ( 0.000000000000000000, 0.7500000000000001110, 0.000000000000000000 ) ) ;
#84 = FACE_OUTER_BOUND ( 'NONE', #295, .T. ) ;
#85 = PRODUCT_DEFINITION_CONTEXT ( 'detailed design', #107, 'design' ) ;
#86 = SURFACE_SIDE_STYLE ('',( #213 ) ) ;
#87 = AXIS2_PLACEMENT_3D ( 'NONE', #260, #290, #94 ) ;
#88 = CLOSED_SHELL ( 'NONE', ( #73, #91, #43, #109 ) ) ;
#89 = DIRECTION ( 'NONE',  ( 1.749495427353361372E-16, 1.000000000000000000, -0.000000000000000000 ) ) ;
#90 = AXIS2_PLACEMENT_3D ( 'NONE', #300, #89, #212 ) ;
#91 = ADVANCED_FACE ( 'NONE', ( #232 ), #188, .T. ) ;
#92 = UNCERTAINTY_MEASURE_WITH_UNIT (LENGTH_MEASURE( 1.000000000000000082E-05 ), #152, 'distance_accuracy_value', 'NONE');
#93 = PRODUCT_DEFINITION_SHAPE ( 'NONE', 'NONE',  #21 ) ;
#94 = DIRECTION ( 'NONE',  ( 0.000000000000000000, 0.000000000000000000, -1.000000000000000000 ) ) ;
#95 = SURFACE_STYLE_USAGE ( .BOTH. , #222 ) ;
#96 = COLOUR_RGB ( '',0.7921568627450980005, 0.8196078431372548767, 0.9333333333333333481 ) ;
#97 = EDGE_CURVE ( 'NONE', #225, #131, #227, .T. ) ;
#98 = CYLINDRICAL_SURFACE ( 'NONE', #52, 0.06250000000000001388 ) ;
#99 = ORIENTED_EDGE ( 'NONE', *, *, #194, .T. ) ;
#100 = LENGTH_MEASURE_WITH_UNIT ( LENGTH_MEASURE( 0.02539999999999999897 ), #82 );
#101 = COLOUR_RGB ( '',1.000000000000000000, 0.000000000000000000, 0.000000000000000000 ) ;
#102 = EDGE_LOOP ( 'NONE', ( #30, #12 ) ) ;
#103 = ORIENTED_EDGE ( 'NONE', *, *, #97, .T. ) ;
#104 =( NAMED_UNIT ( * ) SI_UNIT ( $, .STERADIAN. ) SOLID_ANGLE_UNIT ( ) );
#105 = ORIENTED_EDGE ( 'NONE', *, *, #72, .T. ) ;
#106 = FILL_AREA_STYLE_COLOUR ( '', #101 ) ;
#107 = APPLICATION_CONTEXT ( 'automotive_design' ) ;
#108 = PRODUCT_RELATED_PRODUCT_CATEGORY ( 'part', '', ( #255 ) ) ;
#109 = ADVANCED_FACE ( 'NONE', ( #135 ), #246, .T. ) ;
#110 = COLOUR_RGB ( '',0.7921568627450980005, 0.8196078431372548767, 0.9333333333333333481 ) ;
#111 = DIRECTION ( 'NONE',  ( 1.000000000000000000, -1.749495427353361372E-16, 0.000000000000000000 ) ) ;
#112 = CARTESIAN_POINT ( 'NONE',  ( 0.000000000000000000, 0.7500000000000001110, -0.06250000000000000000 ) ) ;
#113 = STYLED_ITEM ( 'NONE', ( #269 ), #73 ) ;
#114 = CIRCLE ( 'NONE', #257, 0.06250000000000001388 ) ;
#115 = CARTESIAN_POINT ( 'NONE',  ( -0.06250000000000000000, 0.7499999999999998890, 0.000000000000000000 ) ) ;
#116 = DIRECTION ( 'NONE',  ( -1.000000000000000000, 0.000000000000000000, 0.000000000000000000 ) ) ;
#117 = DIRECTION ( 'NONE',  ( -1.749495427353361372E-16, -1.000000000000000000, 0.000000000000000000 ) ) ;
#118 = STYLED_ITEM ( 'NONE', ( #127 ), #60 ) ;
#119 = CARTESIAN_POINT ( 'NONE',  ( -0.06249999999999940326, 2.500000000000000000, 0.000000000000000000 ) ) ;
#120 = PRODUCT_DEFINITION_FORMATION_WITH_SPECIFIED_SOURCE ( 'ANY', '', #255, .NOT_KNOWN. ) ;
#121 = FILL_AREA_STYLE ('',( #289 ) ) ;
#122 = DIMENSIONAL_EXPONENTS ( 1.000000000000000000, 0.000000000000000000, 0.000000000000000000, 0.000000000000000000, 0.000000000000000000, 0.000000000000000000, 0.000000000000000000 ) ;
#123 = SURFACE_STYLE_FILL_AREA ( #240 ) ;
#124 = CARTESIAN_POINT ( 'NONE',  ( 3.061616997868383141E-16, 2.500000000000000000, 0.000000000000000000 ) ) ;
#125 =( NAMED_UNIT ( * ) PLANE_ANGLE_UNIT ( ) SI_UNIT ( $, .RADIAN. ) );
#126 =( GEOMETRIC_REPRESENTATION_CONTEXT ( 3 ) GLOBAL_UNCERTAINTY_ASSIGNED_CONTEXT ( ( #264 ) ) GLOBAL_UNIT_ASSIGNED_CONTEXT ( ( #291, #199, #74 ) ) REPRESENTATION_CONTEXT ( 'NONE', 'WORKASPACE' ) );
#127 = PRESENTATION_STYLE_ASSIGNMENT (( #95 ) ) ;
#128 = ORIENTED_EDGE ( 'NONE', *, *, #167, .F. ) ;
#129 = ORIENTED_EDGE ( 'NONE', *, *, #41, .T. ) ;
#130 = AXIS2_PLACEMENT_3D ( 'NONE', #83, #155, #159 ) ;
#131 = VERTEX_POINT ( 'NONE', #277 ) ;
#132 =( CONVERSION_BASED_UNIT ( 'INCH', #100 ) LENGTH_UNIT ( ) NAMED_UNIT ( #46 ) );
#133 = ORIENTED_EDGE ( 'NONE', *, *, #194, .F. ) ;
#134 = ADVANCED_FACE ( 'NONE', ( #17 ), #237, .F. ) ;
#135 = FACE_OUTER_BOUND ( 'NONE', #245, .T. ) ;
#136 = AXIS2_PLACEMENT_3D ( 'NONE', #256, #164, #116 ) ;
#137 = STYLED_ITEM ( 'NONE', ( #54 ), #91 ) ;
#138 = LINE ( 'NONE', #285, #140 ) ;
#139 = LINE ( 'NONE', #218, #242 ) ;
#140 = VECTOR ( 'NONE', #236, 39.37007874015748143 ) ;
#141 = FACE_OUTER_BOUND ( 'NONE', #151, .T. ) ;
#142 = DIMENSIONAL_EXPONENTS ( 1.000000000000000000, 0.000000000000000000, 0.000000000000000000, 0.000000000000000000, 0.000000000000000000, 0.000000000000000000, 0.000000000000000000 ) ;
#143 = MECHANICAL_DESIGN_GEOMETRIC_PRESENTATION_REPRESENTATION (  '', ( #118 ), #126 ) ;
#144 = CARTESIAN_POINT ( 'NONE',  ( 0.06250000000000000000, 0.7499999999999998890, 7.654042494670948300E-18 ) ) ;
#145 =( NAMED_UNIT ( * ) SI_UNIT ( $, .STERADIAN. ) SOLID_ANGLE_UNIT ( ) );
#146 =( NAMED_UNIT ( * ) PLANE_ANGLE_UNIT ( ) SI_UNIT ( $, .RADIAN. ) );
#147 = SHAPE_DEFINITION_REPRESENTATION ( #93, #3 ) ;
#148 =( LENGTH_UNIT ( ) NAMED_UNIT ( * ) SI_UNIT ( $, .METRE. ) );
#149 = UNCERTAINTY_MEASURE_WITH_UNIT (LENGTH_MEASURE( 1.000000000000000082E-05 ), #160, 'distance_accuracy_value', 'NONE');
#150 = AXIS2_PLACEMENT_3D ( 'NONE', #124, #49, #239 ) ;
#151 = EDGE_LOOP ( 'NONE', ( #206, #99, #184, #292 ) ) ;
#152 =( CONVERSION_BASED_UNIT ( 'INCH', #172 ) LENGTH_UNIT ( ) NAMED_UNIT ( #68 ) );
#153 = EDGE_CURVE ( 'NONE', #270, #275, #267, .T. ) ;
#154 = ORIENTED_EDGE ( 'NONE', *, *, #190, .F. ) ;
#155 = DIRECTION ( 'NONE',  ( -0.000000000000000000, -1.000000000000000000, -0.000000000000000000 ) ) ;
#156 = FILL_AREA_STYLE_COLOUR ( '', #215 ) ;
#157 = DIRECTION ( 'NONE',  ( 1.749495427353361372E-16, 1.000000000000000000, -0.000000000000000000 ) ) ;
#158 = ADVANCED_FACE ( 'NONE', ( #44 ), #67, .T. ) ;
#159 = DIRECTION ( 'NONE',  ( 0.000000000000000000, 0.000000000000000000, -1.000000000000000000 ) ) ;
#160 =( CONVERSION_BASED_UNIT ( 'INCH', #11 ) LENGTH_UNIT ( ) NAMED_UNIT ( #142 ) );
#161 = STYLED_ITEM ( 'NONE', ( #13 ), #43 ) ;
#162 = DIRECTION ( 'NONE',  ( 0.000000000000000000, 0.000000000000000000, -1.000000000000000000 ) ) ;
#163 = EDGE_CURVE ( 'NONE', #131, #226, #23, .T. ) ;
#164 = DIRECTION ( 'NONE',  ( 1.749495427353361372E-16, 1.000000000000000000, -0.000000000000000000 ) ) ;
#165 = CARTESIAN_POINT ( 'NONE',  ( 0.06250000000000001388, 2.500000000000000000, 7.654042494670949841E-18 ) ) ;
#166 = AXIS2_PLACEMENT_3D ( 'NONE', #223, #1, #175 ) ;
#167 = EDGE_CURVE ( 'NONE', #225, #204, #139, .T. ) ;
#168 = DIRECTION ( 'NONE',  ( 1.749495427353361372E-16, 1.000000000000000000, -0.000000000000000000 ) ) ;
#169 = DIMENSIONAL_EXPONENTS ( 1.000000000000000000, 0.000000000000000000, 0.000000000000000000, 0.000000000000000000, 0.000000000000000000, 0.000000000000000000, 0.000000000000000000 ) ;
#170 = LENGTH_MEASURE_WITH_UNIT ( LENGTH_MEASURE( 0.02539999999999999897 ), #24 );
#171 = APPLICATION_PROTOCOL_DEFINITION ( 'draft international standard', 'automotive_design', 1998, #279 ) ;
#172 = LENGTH_MEASURE_WITH_UNIT ( LENGTH_MEASURE( 0.02539999999999999897 ), #80 );
#173 =( LENGTH_UNIT ( ) NAMED_UNIT ( * ) SI_UNIT ( $, .METRE. ) );
#174 = LENGTH_MEASURE_WITH_UNIT ( LENGTH_MEASURE( 0.02539999999999999897 ), #148 );
#175 = DIRECTION ( 'NONE',  ( 1.000000000000000000, 0.000000000000000000, 0.000000000000000000 ) ) ;
#176 = DIRECTION ( 'NONE',  ( 1.749495427353361372E-16, 1.000000000000000000, -0.000000000000000000 ) ) ;
#177 = MECHANICAL_DESIGN_GEOMETRIC_PRESENTATION_REPRESENTATION (  '', ( #283 ), #77 ) ;
#178 = VECTOR ( 'NONE', #27, 39.37007874015748143 ) ;
#179 = DIRECTION ( 'NONE',  ( -0.000000000000000000, -1.000000000000000000, -0.000000000000000000 ) ) ;
#180 = ORIENTED_EDGE ( 'NONE', *, *, #224, .F. ) ;
#181 = DIRECTION ( 'NONE',  ( 0.000000000000000000, 1.000000000000000000, 0.000000000000000000 ) ) ;
#182 = DIRECTION ( 'NONE',  ( -1.000000000000000000, 0.000000000000000000, 0.000000000000000000 ) ) ;
#183 =( NAMED_UNIT ( * ) PLANE_ANGLE_UNIT ( ) SI_UNIT ( $, .RADIAN. ) );
#184 = ORIENTED_EDGE ( 'NONE', *, *, #41, .F. ) ;
#185 = SURFACE_SIDE_STYLE ('',( #276 ) ) ;
#186 = STYLED_ITEM ( 'NONE', ( #33 ), #109 ) ;
#187 = ORIENTED_EDGE ( 'NONE', *, *, #284, .T. ) ;
#188 = PLANE ( 'NONE',  #214 ) ;
#189 = FILL_AREA_STYLE ('',( #211 ) ) ;
#190 = EDGE_CURVE ( 'NONE', #204, #226, #81, .T. ) ;
#191 = PLANE ( 'NONE',  #51 ) ;
#192 =( LENGTH_UNIT ( ) NAMED_UNIT ( * ) SI_UNIT ( $, .METRE. ) );
#193 = DIRECTION ( 'NONE',  ( 0.000000000000000000, 0.000000000000000000, -1.000000000000000000 ) ) ;
#194 = EDGE_CURVE ( 'NONE', #53, #270, #138, .T. ) ;
#195 = PRESENTATION_STYLE_ASSIGNMENT (( #258 ) ) ;
#196 = CIRCLE ( 'NONE', #90, 0.06250000000000000000 ) ;
#197 = CARTESIAN_POINT ( 'NONE',  ( 0.000000000000000000, 0.000000000000000000, 0.000000000000000000 ) ) ;
#198 = EDGE_LOOP ( 'NONE', ( #133, #105, #307, #8 ) ) ;
#199 =( NAMED_UNIT ( * ) PLANE_ANGLE_UNIT ( ) SI_UNIT ( $, .RADIAN. ) );
#200 = MECHANICAL_DESIGN_GEOMETRIC_PRESENTATION_REPRESENTATION (  '', ( #186 ), #293 ) ;
#201 = FACE_OUTER_BOUND ( 'NONE', #34, .T. ) ;
#202 = APPLICATION_PROTOCOL_DEFINITION ( 'draft international standard', 'automotive_design', 1998, #107 ) ;
#203 =( CONVERSION_BASED_UNIT ( 'INCH', #174 ) LENGTH_UNIT ( ) NAMED_UNIT ( #122 ) );
#204 = VERTEX_POINT ( 'NONE', #303 ) ;
#205 =( NAMED_UNIT ( * ) PLANE_ANGLE_UNIT ( ) SI_UNIT ( $, .RADIAN. ) );
#206 = ORIENTED_EDGE ( 'NONE', *, *, #224, .T. ) ;
#207 = CARTESIAN_POINT ( 'NONE',  ( 0.000000000000000000, 0.7500000000000001110, 0.000000000000000000 ) ) ;
#208 = CARTESIAN_POINT ( 'NONE',  ( 3.061616997868383141E-16, 2.500000000000000000, 0.000000000000000000 ) ) ;
#209 = CARTESIAN_POINT ( 'NONE',  ( 0.000000000000000000, 0.000000000000000000, 0.000000000000000000 ) ) ;
#210 =( GEOMETRIC_REPRESENTATION_CONTEXT ( 3 ) GLOBAL_UNCERTAINTY_ASSIGNED_CONTEXT ( ( #29 ) ) GLOBAL_UNIT_ASSIGNED_CONTEXT ( ( #308, #125, #145 ) ) REPRESENTATION_CONTEXT ( 'NONE', 'WORKASPACE' ) );
#211 = FILL_AREA_STYLE_COLOUR ( '', #19 ) ;
#212 = DIRECTION ( 'NONE',  ( -1.000000000000000000, 0.000000000000000000, 0.000000000000000000 ) ) ;
#213 = SURFACE_STYLE_FILL_AREA ( #18 ) ;
#214 = AXIS2_PLACEMENT_3D ( 'NONE', #207, #181, #271 ) ;
#215 = COLOUR_RGB ( '',1.000000000000000000, 0.000000000000000000, 0.000000000000000000 ) ;
#216 = UNCERTAINTY_MEASURE_WITH_UNIT (LENGTH_MEASURE( 1.000000000000000082E-05 ), #132, 'distance_accuracy_value', 'NONE');
#217 = CARTESIAN_POINT ( 'NONE',  ( 7.654042494670959086E-18, 0.000000000000000000, 0.06250000000000001388 ) ) ;
#218 = CARTESIAN_POINT ( 'NONE',  ( 0.000000000000000000, 0.000000000000000000, -0.06250000000000001388 ) ) ;
#219 = AXIS2_PLACEMENT_3D ( 'NONE', #208, #157, #182 ) ;
#220 = PRESENTATION_LAYER_ASSIGNMENT (  '', '', ( #283 ) ) ;
#221 = SURFACE_SIDE_STYLE ('',( #6 ) ) ;
#222 = SURFACE_SIDE_STYLE ('',( #123 ) ) ;
#223 = CARTESIAN_POINT ( 'NONE',  ( 0.000000000000000000, 0.000000000000000000, 0.000000000000000000 ) ) ;
#224 = EDGE_CURVE ( 'NONE', #247, #53, #196, .T. ) ;
#225 = VERTEX_POINT ( 'NONE', #112 ) ;
#226 = VERTEX_POINT ( 'NONE', #251 ) ;
#227 = CIRCLE ( 'NONE', #130, 0.06250000000000000000 ) ;
#228 = FILL_AREA_STYLE ('',( #156 ) ) ;
#229 = SURFACE_STYLE_USAGE ( .BOTH. , #185 ) ;
#230 = SURFACE_STYLE_USAGE ( .BOTH. , #249 ) ;
#231 = DIRECTION ( 'NONE',  ( 0.000000000000000000, 0.000000000000000000, -1.000000000000000000 ) ) ;
#232 = FACE_OUTER_BOUND ( 'NONE', #102, .T. ) ;
#233 = MECHANICAL_DESIGN_GEOMETRIC_PRESENTATION_REPRESENTATION (  '', ( #161 ), #65 ) ;
#234 = DIRECTION ( 'NONE',  ( -1.000000000000000000, 0.000000000000000000, 0.000000000000000000 ) ) ;
#235 = FILL_AREA_STYLE_COLOUR ( '', #96 ) ;
#236 = DIRECTION ( 'NONE',  ( 1.749495427353361372E-16, 1.000000000000000000, -0.000000000000000000 ) ) ;
#237 = PLANE ( 'NONE',  #58 ) ;
#238 =( GEOMETRIC_REPRESENTATION_CONTEXT ( 3 ) GLOBAL_UNCERTAINTY_ASSIGNED_CONTEXT ( ( #287 ) ) GLOBAL_UNIT_ASSIGNED_CONTEXT ( ( #203, #243, #250 ) ) REPRESENTATION_CONTEXT ( 'NONE', 'WORKASPACE' ) );
#239 = DIRECTION ( 'NONE',  ( -1.000000000000000000, 0.000000000000000000, 0.000000000000000000 ) ) ;
#240 = FILL_AREA_STYLE ('',( #28 ) ) ;
#241 = ADVANCED_FACE ( 'NONE', ( #84 ), #191, .F. ) ;
#242 = VECTOR ( 'NONE', #305, 39.37007874015748143 ) ;
#243 =( NAMED_UNIT ( * ) PLANE_ANGLE_UNIT ( ) SI_UNIT ( $, .RADIAN. ) );
#244 = ORIENTED_EDGE ( 'NONE', *, *, #272, .F. ) ;
#245 = EDGE_LOOP ( 'NONE', ( #32, #37 ) ) ;
#246 = PLANE ( 'NONE',  #306 ) ;
#247 = VERTEX_POINT ( 'NONE', #115 ) ;
#248 = COLOUR_RGB ( '',1.000000000000000000, 0.000000000000000000, 0.000000000000000000 ) ;
#249 = SURFACE_SIDE_STYLE ('',( #79 ) ) ;
#250 =( NAMED_UNIT ( * ) SI_UNIT ( $, .STERADIAN. ) SOLID_ANGLE_UNIT ( ) );
#251 = CARTESIAN_POINT ( 'NONE',  ( 7.654042494670960626E-18, 0.000000000000000000, 0.06250000000000002776 ) ) ;
#252 = PRESENTATION_LAYER_ASSIGNMENT (  '', '', ( #118 ) ) ;
#253 = CIRCLE ( 'NONE', #87, 0.06250000000000000000 ) ;
#254 = DIRECTION ( 'NONE',  ( 1.749495427353361372E-16, 1.000000000000000000, -0.000000000000000000 ) ) ;
#255 = PRODUCT ( '81361', '81361', '', ( #26 ) ) ;
#256 = CARTESIAN_POINT ( 'NONE',  ( 3.061616997868383141E-16, 2.500000000000000000, 0.000000000000000000 ) ) ;
#257 = AXIS2_PLACEMENT_3D ( 'NONE', #63, #66, #70 ) ;
#258 = SURFACE_STYLE_USAGE ( .BOTH. , #86 ) ;
#259 = ORIENTED_EDGE ( 'NONE', *, *, #72, .F. ) ;
#260 = CARTESIAN_POINT ( 'NONE',  ( 0.000000000000000000, 0.7500000000000001110, 0.000000000000000000 ) ) ;
#261 = DIRECTION ( 'NONE',  ( 0.000000000000000000, 0.000000000000000000, -1.000000000000000000 ) ) ;
#262 = DIMENSIONAL_EXPONENTS ( 1.000000000000000000, 0.000000000000000000, 0.000000000000000000, 0.000000000000000000, 0.000000000000000000, 0.000000000000000000, 0.000000000000000000 ) ;
#263 = CIRCLE ( 'NONE', #219, 0.06249999999999970857 ) ;
#264 = UNCERTAINTY_MEASURE_WITH_UNIT (LENGTH_MEASURE( 1.000000000000000082E-05 ), #291, 'distance_accuracy_value', 'NONE');
#265 = MANIFOLD_SOLID_BREP ( 'Revolve - Tool Body (Straight Shanked)', #71 ) ;
#266 = CARTESIAN_POINT ( 'NONE',  ( 0.000000000000000000, 0.000000000000000000, 0.000000000000000000 ) ) ;
#267 = CIRCLE ( 'NONE', #39, 0.06249999999999970857 ) ;
#268 = AXIS2_PLACEMENT_3D ( 'NONE', #266, #179, #261 ) ;
#269 = PRESENTATION_STYLE_ASSIGNMENT (( #309 ) ) ;
#270 = VERTEX_POINT ( 'NONE', #165 ) ;
#271 = DIRECTION ( 'NONE',  ( 0.000000000000000000, -0.000000000000000000, 1.000000000000000000 ) ) ;
#272 = EDGE_CURVE ( 'NONE', #226, #204, #114, .T. ) ;
#273 = FACE_OUTER_BOUND ( 'NONE', #286, .T. ) ;
#274 = EDGE_LOOP ( 'NONE', ( #129, #10 ) ) ;
#275 = VERTEX_POINT ( 'NONE', #119 ) ;
#276 = SURFACE_STYLE_FILL_AREA ( #189 ) ;
#277 = CARTESIAN_POINT ( 'NONE',  ( 7.654042494670959086E-18, 0.7500000000000001110, 0.06250000000000000000 ) ) ;
#278 =( GEOMETRIC_REPRESENTATION_CONTEXT ( 3 ) GLOBAL_UNCERTAINTY_ASSIGNED_CONTEXT ( ( #216 ) ) GLOBAL_UNIT_ASSIGNED_CONTEXT ( ( #132, #205, #104 ) ) REPRESENTATION_CONTEXT ( 'NONE', 'WORKASPACE' ) );
#279 = APPLICATION_CONTEXT ( 'automotive_design' ) ;
#280 = LENGTH_MEASURE_WITH_UNIT ( LENGTH_MEASURE( 0.02539999999999999897 ), #192 );
#281 =( NAMED_UNIT ( * ) PLANE_ANGLE_UNIT ( ) SI_UNIT ( $, .RADIAN. ) );
#282 = PRESENTATION_LAYER_ASSIGNMENT (  '', '', ( #113 ) ) ;
#283 = STYLED_ITEM ( 'NONE', ( #195 ), #265 ) ;
#284 = EDGE_CURVE ( 'NONE', #131, #225, #253, .T. ) ;
#285 = CARTESIAN_POINT ( 'NONE',  ( 0.06250000000000016653, 2.500000000000000000, 7.654042494670939056E-18 ) ) ;
#286 = EDGE_LOOP ( 'NONE', ( #294, #187, #76, #244 ) ) ;
#287 = UNCERTAINTY_MEASURE_WITH_UNIT (LENGTH_MEASURE( 1.000000000000000082E-05 ), #203, 'distance_accuracy_value', 'NONE');
#288 = DIRECTION ( 'NONE',  ( -1.000000000000000000, 0.000000000000000000, 0.000000000000000000 ) ) ;
#289 = FILL_AREA_STYLE_COLOUR ( '', #248 ) ;
#290 = DIRECTION ( 'NONE',  ( -0.000000000000000000, -1.000000000000000000, -0.000000000000000000 ) ) ;
#291 =( CONVERSION_BASED_UNIT ( 'INCH', #75 ) LENGTH_UNIT ( ) NAMED_UNIT ( #169 ) );
#292 = ORIENTED_EDGE ( 'NONE', *, *, #48, .F. ) ;
#293 =( GEOMETRIC_REPRESENTATION_CONTEXT ( 3 ) GLOBAL_UNCERTAINTY_ASSIGNED_CONTEXT ( ( #149 ) ) GLOBAL_UNIT_ASSIGNED_CONTEXT ( ( #160, #183, #38 ) ) REPRESENTATION_CONTEXT ( 'NONE', 'WORKASPACE' ) );
#294 = ORIENTED_EDGE ( 'NONE', *, *, #163, .F. ) ;
#295 = EDGE_LOOP ( 'NONE', ( #180, #259 ) ) ;
#296 = DIRECTION ( 'NONE',  ( 0.000000000000000000, -1.000000000000000000, -0.000000000000000000 ) ) ;
#297 = ADVANCED_FACE ( 'NONE', ( #141 ), #5, .T. ) ;
#298 = DIRECTION ( 'NONE',  ( -0.000000000000000000, -1.000000000000000000, -0.000000000000000000 ) ) ;
#299 = CARTESIAN_POINT ( 'NONE',  ( 0.06250000000000001388, 2.500000000000000000, 0.000000000000000000 ) ) ;
#300 = CARTESIAN_POINT ( 'NONE',  ( 0.000000000000000000, 0.7499999999999998890, 0.000000000000000000 ) ) ;
#301 = PRESENTATION_LAYER_ASSIGNMENT (  '', '', ( #186 ) ) ;
#302 = UNCERTAINTY_MEASURE_WITH_UNIT (LENGTH_MEASURE( 1.000000000000000082E-05 ), #62, 'distance_accuracy_value', 'NONE');
#303 = CARTESIAN_POINT ( 'NONE',  ( 0.000000000000000000, 0.000000000000000000, -0.06250000000000001388 ) ) ;
#304 = DIMENSIONAL_EXPONENTS ( 1.000000000000000000, 0.000000000000000000, 0.000000000000000000, 0.000000000000000000, 0.000000000000000000, 0.000000000000000000, 0.000000000000000000 ) ;
#305 = DIRECTION ( 'NONE',  ( -0.000000000000000000, -1.000000000000000000, -0.000000000000000000 ) ) ;
#306 = AXIS2_PLACEMENT_3D ( 'NONE', #209, #296, #162 ) ;
#307 = ORIENTED_EDGE ( 'NONE', *, *, #48, .T. ) ;
#308 =( CONVERSION_BASED_UNIT ( 'INCH', #170 ) LENGTH_UNIT ( ) NAMED_UNIT ( #304 ) );
#309 = SURFACE_STYLE_USAGE ( .BOTH. , #221 ) ;
ENDSEC;
END-ISO-10303-21;
