ISO-10303-21;
HEADER;
FILE_DESCRIPTION (( 'STEP AP214' ),
    '1' );
FILE_NAME ('Micro_SPD-312-120.STEP',
    '2021-09-03T21:20:48',
    ( '' ),
    ( '' ),
    'SwSTEP 2.0',
    'SolidWorks 2020',
    '' );
FILE_SCHEMA (( 'AUTOMOTIVE_DESIGN' ));
ENDSEC;

DATA;
#1 =( CONVERSION_BASED_UNIT ( 'INCH', #23 ) LENGTH_UNIT ( ) NAMED_UNIT ( #42 ) );
#2 = CIRCLE ( 'NONE', #264, 0.1412499999999994871 ) ;
#3 = ORIENTED_EDGE ( 'NONE', *, *, #245, .T. ) ;
#4 = ORIENTED_EDGE ( 'NONE', *, *, #221, .F. ) ;
#5 = CARTESIAN_POINT ( 'NONE',  ( 0.0000000000000000000, 0.0000000000000000000, 0.0000000000000000000 ) ) ;
#6 = EDGE_LOOP ( 'NONE', ( #314, #118, #338, #349 ) ) ;
#7 = ADVANCED_FACE ( 'NONE', ( #196 ), #62, .T. ) ;
#8 = ORIENTED_EDGE ( 'NONE', *, *, #260, .F. ) ;
#9 =( GEOMETRIC_REPRESENTATION_CONTEXT ( 3 ) GLOBAL_UNCERTAINTY_ASSIGNED_CONTEXT ( ( #90 ) ) GLOBAL_UNIT_ASSIGNED_CONTEXT ( ( #163, #243, #189 ) ) REPRESENTATION_CONTEXT ( 'NONE', 'WORKASPACE' ) );
#10 = CYLINDRICAL_SURFACE ( 'NONE', #297, 0.1562500000000000000 ) ;
#11 = LINE ( 'NONE', #283, #336 ) ;
#12 = DIRECTION ( 'NONE',  ( 1.000000000000000000, 0.0000000000000000000, 0.0000000000000000000 ) ) ;
#13 = DIRECTION ( 'NONE',  ( 0.0000000000000000000, 0.0000000000000000000, -1.000000000000000000 ) ) ;
#14 = VECTOR ( 'NONE', #184, 39.37007874015748854 ) ;
#15 = FACE_OUTER_BOUND ( 'NONE', #186, .T. ) ;
#16 = DIRECTION ( 'NONE',  ( -0.0000000000000000000, -0.0000000000000000000, -1.000000000000000000 ) ) ;
#17 = CARTESIAN_POINT ( 'NONE',  ( 0.0000000000000000000, 0.0000000000000000000, 0.0000000000000000000 ) ) ;
#18 = CIRCLE ( 'NONE', #182, 0.1562500000000000000 ) ;
#19 = CIRCLE ( 'NONE', #128, 0.1562000000000000333 ) ;
#20 = DIRECTION ( 'NONE',  ( -0.7071067811865490160, 8.659560562354951347E-17, 0.7071067811865459074 ) ) ;
#21 = PLANE ( 'NONE',  #96 ) ;
#22 = CARTESIAN_POINT ( 'NONE',  ( 0.1412499999999994871, 1.729813603795630110E-17, 2.500000000000000000 ) ) ;
#23 = LENGTH_MEASURE_WITH_UNIT ( LENGTH_MEASURE( 0.02539999999999999897 ), #251 );
#24 = ORIENTED_EDGE ( 'NONE', *, *, #53, .F. ) ;
#25 = VERTEX_POINT ( 'NONE', #68 ) ;
#26 = SURFACE_SIDE_STYLE ('',( #272 ) ) ;
#27 = VECTOR ( 'NONE', #256, 39.37007874015748143 ) ;
#28 = ORIENTED_EDGE ( 'NONE', *, *, #225, .F. ) ;
#29 =( NAMED_UNIT ( * ) SI_UNIT ( $, .STERADIAN. ) SOLID_ANGLE_UNIT ( ) );
#30 = ORIENTED_EDGE ( 'NONE', *, *, #221, .T. ) ;
#31 = ORIENTED_EDGE ( 'NONE', *, *, #339, .F. ) ;
#32 =( GEOMETRIC_REPRESENTATION_CONTEXT ( 3 ) GLOBAL_UNCERTAINTY_ASSIGNED_CONTEXT ( ( #290 ) ) GLOBAL_UNIT_ASSIGNED_CONTEXT ( ( #144, #224, #116 ) ) REPRESENTATION_CONTEXT ( 'NONE', 'WORKASPACE' ) );
#33 = CARTESIAN_POINT ( 'NONE',  ( 0.0000000000000000000, 0.0000000000000000000, 0.7500499999999999945 ) ) ;
#34 = AXIS2_PLACEMENT_3D ( 'NONE', #223, #229, #333 ) ;
#35 = CARTESIAN_POINT ( 'NONE',  ( 0.0000000000000000000, 0.0000000000000000000, 2.500000000000000000 ) ) ;
#36 = DIRECTION ( 'NONE',  ( 0.0000000000000000000, 0.0000000000000000000, 1.000000000000000000 ) ) ;
#37 = CARTESIAN_POINT ( 'NONE',  ( 0.1562500000000000000, 1.913510623667739463E-17, 0.7500499999999999945 ) ) ;
#38 = DIRECTION ( 'NONE',  ( -0.0000000000000000000, -0.0000000000000000000, -1.000000000000000000 ) ) ;
#39 = AXIS2_PLACEMENT_3D ( 'NONE', #87, #171, #191 ) ;
#40 = DIRECTION ( 'NONE',  ( -1.000000000000000000, 0.0000000000000000000, 0.0000000000000000000 ) ) ;
#41 = EDGE_CURVE ( 'NONE', #253, #54, #138, .T. ) ;
#42 = DIMENSIONAL_EXPONENTS ( 1.000000000000000000, 0.0000000000000000000, 0.0000000000000000000, 0.0000000000000000000, 0.0000000000000000000, 0.0000000000000000000, 0.0000000000000000000 ) ;
#43 = APPLICATION_CONTEXT ( 'automotive_design' ) ;
#44 = DIRECTION ( 'NONE',  ( 1.000000000000000000, 0.0000000000000000000, 0.0000000000000000000 ) ) ;
#45 = FACE_OUTER_BOUND ( 'NONE', #83, .T. ) ;
#46 = EDGE_CURVE ( 'NONE', #91, #273, #58, .T. ) ;
#47 = EDGE_CURVE ( 'NONE', #108, #54, #173, .T. ) ;
#48 = DIRECTION ( 'NONE',  ( -1.000000000000000000, 0.0000000000000000000, 0.0000000000000000000 ) ) ;
#49 = CARTESIAN_POINT ( 'NONE',  ( -0.1412499999999994871, 0.0000000000000000000, 2.500000000000000000 ) ) ;
#50 = DIRECTION ( 'NONE',  ( 1.000000000000000000, 0.0000000000000000000, 0.0000000000000000000 ) ) ;
#51 = CIRCLE ( 'NONE', #215, 0.02350000000000000352 ) ;
#52 = APPLICATION_PROTOCOL_DEFINITION ( 'draft international standard', 'automotive_design', 1998, #66 ) ;
#53 = EDGE_CURVE ( 'NONE', #54, #253, #145, .T. ) ;
#54 = VERTEX_POINT ( 'NONE', #166 ) ;
#55 = EDGE_LOOP ( 'NONE', ( #136, #3, #177, #187 ) ) ;
#56 = SURFACE_STYLE_USAGE ( .BOTH. , #26 ) ;
#57 = ORIENTED_EDGE ( 'NONE', *, *, #179, .F. ) ;
#58 = CIRCLE ( 'NONE', #99, 0.1562500000000000000 ) ;
#59 = ORIENTED_EDGE ( 'NONE', *, *, #142, .F. ) ;
#60 = ORIENTED_EDGE ( 'NONE', *, *, #339, .T. ) ;
#61 = CYLINDRICAL_SURFACE ( 'NONE', #39, 0.1562500000000000000 ) ;
#62 = PLANE ( 'NONE',  #161 ) ;
#63 = VECTOR ( 'NONE', #208, 39.37007874015748143 ) ;
#64 = DIRECTION ( 'NONE',  ( -0.0000000000000000000, -0.0000000000000000000, -1.000000000000000000 ) ) ;
#65 = EDGE_CURVE ( 'NONE', #273, #91, #18, .T. ) ;
#66 = APPLICATION_CONTEXT ( 'automotive_design' ) ;
#67 = CARTESIAN_POINT ( 'NONE',  ( 0.1562500000000000000, 1.913510623667739463E-17, 2.500000000000000000 ) ) ;
#68 = CARTESIAN_POINT ( 'NONE',  ( 0.1562000000000000333, 0.0000000000000000000, 0.7500000000000001110 ) ) ;
#69 = AXIS2_PLACEMENT_3D ( 'NONE', #120, #204, #286 ) ;
#70 = DIMENSIONAL_EXPONENTS ( 1.000000000000000000, 0.0000000000000000000, 0.0000000000000000000, 0.0000000000000000000, 0.0000000000000000000, 0.0000000000000000000, 0.0000000000000000000 ) ;
#71 = CARTESIAN_POINT ( 'NONE',  ( 0.02350000000000000352, 0.0000000000000000000, 0.0000000000000000000 ) ) ;
#72 = DIRECTION ( 'NONE',  ( -0.0000000000000000000, -0.0000000000000000000, -1.000000000000000000 ) ) ;
#73 = CARTESIAN_POINT ( 'NONE',  ( 0.0000000000000000000, 0.0000000000000000000, 2.484999999999999432 ) ) ;
#74 = EDGE_CURVE ( 'NONE', #25, #253, #230, .T. ) ;
#75 = CIRCLE ( 'NONE', #240, 0.1562500000000000000 ) ;
#76 = DIRECTION ( 'NONE',  ( 0.0000000000000000000, 0.0000000000000000000, 1.000000000000000000 ) ) ;
#77 = CARTESIAN_POINT ( 'NONE',  ( 0.0000000000000000000, 0.0000000000000000000, 0.7500000000000001110 ) ) ;
#78 = DIRECTION ( 'NONE',  ( -0.0000000000000000000, -0.0000000000000000000, -1.000000000000000000 ) ) ;
#79 = AXIS2_PLACEMENT_3D ( 'NONE', #17, #72, #340 ) ;
#80 = FACE_OUTER_BOUND ( 'NONE', #276, .T. ) ;
#81 = EDGE_LOOP ( 'NONE', ( #306, #335 ) ) ;
#82 = ORIENTED_EDGE ( 'NONE', *, *, #270, .T. ) ;
#83 = EDGE_LOOP ( 'NONE', ( #302, #30, #160, #135 ) ) ;
#84 = ADVANCED_FACE ( 'NONE', ( #222 ), #61, .T. ) ;
#85 = COLOUR_RGB ( '',0.7921568627450980005, 0.8196078431372548767, 0.9333333333333333481 ) ;
#86 = PRODUCT_CONTEXT ( 'NONE', #66, 'mechanical' ) ;
#87 = CARTESIAN_POINT ( 'NONE',  ( 0.0000000000000000000, 0.0000000000000000000, 2.500000000000000000 ) ) ;
#88 = ADVANCED_FACE ( 'NONE', ( #15 ), #10, .T. ) ;
#89 = CARTESIAN_POINT ( 'NONE',  ( -0.02350000000000000352, 1.100345149033896824E-17, 0.0000000000000000000 ) ) ;
#90 = UNCERTAINTY_MEASURE_WITH_UNIT (LENGTH_MEASURE( 1.000000000000000082E-05 ), #163, 'distance_accuracy_value', 'NONE');
#91 = VERTEX_POINT ( 'NONE', #37 ) ;
#92 = CONICAL_SURFACE ( 'NONE', #254, 0.1562000000000000333, 0.7853981633974504994 ) ;
#93 = FACE_OUTER_BOUND ( 'NONE', #94, .T. ) ;
#94 = EDGE_LOOP ( 'NONE', ( #141, #4, #218, #247 ) ) ;
#95 = CARTESIAN_POINT ( 'NONE',  ( 0.0000000000000000000, 0.0000000000000000000, 2.484999999999999432 ) ) ;
#96 = AXIS2_PLACEMENT_3D ( 'NONE', #101, #153, #175 ) ;
#97 = CARTESIAN_POINT ( 'NONE',  ( -0.1562000000000000333, 1.912898300268165973E-17, 0.7500000000000001110 ) ) ;
#98 = DIRECTION ( 'NONE',  ( 0.7071067811865410224, 8.659560562354852739E-17, -0.7071067811865539010 ) ) ;
#99 = AXIS2_PLACEMENT_3D ( 'NONE', #33, #332, #199 ) ;
#100 = AXIS2_PLACEMENT_3D ( 'NONE', #5, #78, #296 ) ;
#101 = CARTESIAN_POINT ( 'NONE',  ( 0.0000000000000000000, 0.0000000000000000000, 0.0000000000000000000 ) ) ;
#102 = ADVANCED_FACE ( 'NONE', ( #143 ), #139, .T. ) ;
#103 = SURFACE_STYLE_FILL_AREA ( #348 ) ;
#104 = VECTOR ( 'NONE', #20, 39.37007874015748854 ) ;
#105 = ADVANCED_FACE ( 'NONE', ( #93 ), #342, .T. ) ;
#106 = ORIENTED_EDGE ( 'NONE', *, *, #293, .T. ) ;
#107 =( LENGTH_UNIT ( ) NAMED_UNIT ( * ) SI_UNIT ( $, .METRE. ) );
#108 = VERTEX_POINT ( 'NONE', #89 ) ;
#109 = CARTESIAN_POINT ( 'NONE',  ( -0.1412499999999994871, 0.0000000000000000000, 2.500000000000000000 ) ) ;
#110 = ORIENTED_EDGE ( 'NONE', *, *, #130, .T. ) ;
#111 = ADVANCED_BREP_SHAPE_REPRESENTATION ( 'Micro_SPD-312-120', ( #318, #232 ), #9 ) ;
#112 = VECTOR ( 'NONE', #291, 39.37007874015748854 ) ;
#113 = VERTEX_POINT ( 'NONE', #308 ) ;
#114 = PRODUCT_DEFINITION ( 'UNKNOWN', '', #207, #257 ) ;
#115 = DIRECTION ( 'NONE',  ( -1.000000000000000000, 0.0000000000000000000, 0.0000000000000000000 ) ) ;
#116 =( NAMED_UNIT ( * ) SI_UNIT ( $, .STERADIAN. ) SOLID_ANGLE_UNIT ( ) );
#117 = CARTESIAN_POINT ( 'NONE',  ( -0.1562000000000000333, 1.913204461967952718E-17, 0.7500000000000001110 ) ) ;
#118 = ORIENTED_EDGE ( 'NONE', *, *, #203, .F. ) ;
#119 = CARTESIAN_POINT ( 'NONE',  ( -0.02350000000000000352, 2.877919977996280598E-18, 0.0000000000000000000 ) ) ;
#120 = CARTESIAN_POINT ( 'NONE',  ( 0.0000000000000000000, 0.0000000000000000000, 2.500000000000000000 ) ) ;
#121 = DIMENSIONAL_EXPONENTS ( 1.000000000000000000, 0.0000000000000000000, 0.0000000000000000000, 0.0000000000000000000, 0.0000000000000000000, 0.0000000000000000000, 0.0000000000000000000 ) ;
#122 = LINE ( 'NONE', #97, #104 ) ;
#123 = VECTOR ( 'NONE', #16, 39.37007874015748143 ) ;
#124 = PRODUCT ( 'Micro_SPD-312-120', 'Micro_SPD-312-120', '', ( #86 ) ) ;
#125 = LINE ( 'NONE', #49, #112 ) ;
#126 = DIRECTION ( 'NONE',  ( -1.000000000000000000, 0.0000000000000000000, 0.0000000000000000000 ) ) ;
#127 = DIRECTION ( 'NONE',  ( -0.0000000000000000000, -0.0000000000000000000, -1.000000000000000000 ) ) ;
#128 = AXIS2_PLACEMENT_3D ( 'NONE', #176, #127, #322 ) ;
#129 = PRESENTATION_LAYER_ASSIGNMENT (  '', '', ( #268 ) ) ;
#130 = EDGE_CURVE ( 'NONE', #185, #91, #312, .T. ) ;
#131 = ORIENTED_EDGE ( 'NONE', *, *, #47, .T. ) ;
#132 = FILL_AREA_STYLE ('',( #249 ) ) ;
#133 = EDGE_LOOP ( 'NONE', ( #147, #28, #217, #244 ) ) ;
#134 = AXIS2_PLACEMENT_3D ( 'NONE', #255, #13, #115 ) ;
#135 = ORIENTED_EDGE ( 'NONE', *, *, #41, .F. ) ;
#136 = ORIENTED_EDGE ( 'NONE', *, *, #214, .F. ) ;
#137 = ORIENTED_EDGE ( 'NONE', *, *, #197, .F. ) ;
#138 = CIRCLE ( 'NONE', #209, 0.1562000000000000055 ) ;
#139 = CONICAL_SURFACE ( 'NONE', #134, 0.1412499999999994871, 0.7853981633974391752 ) ;
#140 = DIRECTION ( 'NONE',  ( 0.0000000000000000000, 0.0000000000000000000, 1.000000000000000000 ) ) ;
#141 = ORIENTED_EDGE ( 'NONE', *, *, #245, .F. ) ;
#142 = EDGE_CURVE ( 'NONE', #164, #54, #11, .T. ) ;
#143 = FACE_OUTER_BOUND ( 'NONE', #6, .T. ) ;
#144 =( CONVERSION_BASED_UNIT ( 'INCH', #278 ) LENGTH_UNIT ( ) NAMED_UNIT ( #121 ) );
#145 = CIRCLE ( 'NONE', #172, 0.1562000000000000055 ) ;
#146 = CONICAL_SURFACE ( 'NONE', #346, 0.02350000000000000352, 1.047197551196600518 ) ;
#147 = ORIENTED_EDGE ( 'NONE', *, *, #47, .F. ) ;
#148 = DIRECTION ( 'NONE',  ( -0.0000000000000000000, -0.0000000000000000000, -1.000000000000000000 ) ) ;
#149 = LINE ( 'NONE', #71, #63 ) ;
#150 = CARTESIAN_POINT ( 'NONE',  ( 0.0000000000000000000, 0.0000000000000000000, 0.0000000000000000000 ) ) ;
#151 = CIRCLE ( 'NONE', #100, 0.02350000000000000352 ) ;
#152 = CARTESIAN_POINT ( 'NONE',  ( 0.0000000000000000000, 0.0000000000000000000, 0.7500000000000001110 ) ) ;
#153 = DIRECTION ( 'NONE',  ( 0.0000000000000000000, 0.0000000000000000000, 1.000000000000000000 ) ) ;
#154 = FACE_OUTER_BOUND ( 'NONE', #133, .T. ) ;
#155 =( GEOMETRIC_REPRESENTATION_CONTEXT ( 3 ) GLOBAL_UNCERTAINTY_ASSIGNED_CONTEXT ( ( #192 ) ) GLOBAL_UNIT_ASSIGNED_CONTEXT ( ( #1, #303, #29 ) ) REPRESENTATION_CONTEXT ( 'NONE', 'WORKASPACE' ) );
#156 = FILL_AREA_STYLE_COLOUR ( '', #85 ) ;
#157 = ORIENTED_EDGE ( 'NONE', *, *, #260, .T. ) ;
#158 = ORIENTED_EDGE ( 'NONE', *, *, #203, .T. ) ;
#159 = CARTESIAN_POINT ( 'NONE',  ( 0.1562000000000000333, 0.0000000000000000000, 0.7500000000000001110 ) ) ;
#160 = ORIENTED_EDGE ( 'NONE', *, *, #142, .T. ) ;
#161 = AXIS2_PLACEMENT_3D ( 'NONE', #285, #140, #310 ) ;
#162 = AXIS2_PLACEMENT_3D ( 'NONE', #150, #265, #246 ) ;
#163 =( CONVERSION_BASED_UNIT ( 'INCH', #328 ) LENGTH_UNIT ( ) NAMED_UNIT ( #70 ) );
#164 = VERTEX_POINT ( 'NONE', #117 ) ;
#165 = VERTEX_POINT ( 'NONE', #226 ) ;
#166 = CARTESIAN_POINT ( 'NONE',  ( -0.1562000000000000055, 0.0000000000000000000, 0.07661438072146284362 ) ) ;
#167 = VECTOR ( 'NONE', #337, 39.37007874015748143 ) ;
#168 = CARTESIAN_POINT ( 'NONE',  ( 0.1562000000000000333, 1.912898300268165973E-17, 0.0000000000000000000 ) ) ;
#169 = DIRECTION ( 'NONE',  ( -1.000000000000000000, 0.0000000000000000000, 0.0000000000000000000 ) ) ;
#170 = CARTESIAN_POINT ( 'NONE',  ( 0.0000000000000000000, 0.0000000000000000000, 0.0000000000000000000 ) ) ;
#171 = DIRECTION ( 'NONE',  ( -0.0000000000000000000, -0.0000000000000000000, -1.000000000000000000 ) ) ;
#172 = AXIS2_PLACEMENT_3D ( 'NONE', #261, #64, #40 ) ;
#173 = LINE ( 'NONE', #119, #167 ) ;
#174 = DIRECTION ( 'NONE',  ( 0.0000000000000000000, 0.0000000000000000000, 1.000000000000000000 ) ) ;
#175 = DIRECTION ( 'NONE',  ( 1.000000000000000000, 0.0000000000000000000, -0.0000000000000000000 ) ) ;
#176 = CARTESIAN_POINT ( 'NONE',  ( 0.0000000000000000000, 0.0000000000000000000, 0.7500000000000001110 ) ) ;
#177 = ORIENTED_EDGE ( 'NONE', *, *, #65, .T. ) ;
#178 = DIRECTION ( 'NONE',  ( 1.000000000000000000, 0.0000000000000000000, 0.0000000000000000000 ) ) ;
#179 = EDGE_CURVE ( 'NONE', #165, #253, #149, .T. ) ;
#180 = CARTESIAN_POINT ( 'NONE',  ( 0.0000000000000000000, 0.0000000000000000000, 2.500000000000000000 ) ) ;
#181 = LINE ( 'NONE', #274, #331 ) ;
#182 = AXIS2_PLACEMENT_3D ( 'NONE', #279, #281, #262 ) ;
#183 = CIRCLE ( 'NONE', #69, 0.1412499999999994871 ) ;
#184 = DIRECTION ( 'NONE',  ( 0.7071067811865490160, 0.0000000000000000000, 0.7071067811865459074 ) ) ;
#185 = VERTEX_POINT ( 'NONE', #205 ) ;
#186 = EDGE_LOOP ( 'NONE', ( #299, #106, #60, #292 ) ) ;
#187 = ORIENTED_EDGE ( 'NONE', *, *, #334, .F. ) ;
#188 = CONICAL_SURFACE ( 'NONE', #211, 0.1412499999999994871, 0.7853981633974391752 ) ;
#189 =( NAMED_UNIT ( * ) SI_UNIT ( $, .STERADIAN. ) SOLID_ANGLE_UNIT ( ) );
#190 = VERTEX_POINT ( 'NONE', #202 ) ;
#191 = DIRECTION ( 'NONE',  ( -1.000000000000000000, 0.0000000000000000000, 0.0000000000000000000 ) ) ;
#192 = UNCERTAINTY_MEASURE_WITH_UNIT (LENGTH_MEASURE( 1.000000000000000082E-05 ), #1, 'distance_accuracy_value', 'NONE');
#193 = CARTESIAN_POINT ( 'NONE',  ( 0.0000000000000000000, 0.0000000000000000000, 0.07661438072146284362 ) ) ;
#194 = SURFACE_STYLE_USAGE ( .BOTH. , #298 ) ;
#195 = CIRCLE ( 'NONE', #309, 0.1562500000000000000 ) ;
#196 = FACE_OUTER_BOUND ( 'NONE', #304, .T. ) ;
#197 = EDGE_CURVE ( 'NONE', #320, #113, #125, .T. ) ;
#198 = PRESENTATION_STYLE_ASSIGNMENT (( #194 ) ) ;
#199 = DIRECTION ( 'NONE',  ( 1.000000000000000000, 0.0000000000000000000, 0.0000000000000000000 ) ) ;
#200 = PRODUCT_DEFINITION_SHAPE ( 'NONE', 'NONE',  #114 ) ;
#201 = EDGE_LOOP ( 'NONE', ( #330, #82, #8, #137 ) ) ;
#202 = CARTESIAN_POINT ( 'NONE',  ( 0.1412499999999994871, 1.821662113731684786E-17, 2.500000000000000000 ) ) ;
#203 = EDGE_CURVE ( 'NONE', #320, #190, #183, .T. ) ;
#204 = DIRECTION ( 'NONE',  ( 0.0000000000000000000, 0.0000000000000000000, 1.000000000000000000 ) ) ;
#205 = CARTESIAN_POINT ( 'NONE',  ( 0.1562500000000000000, 1.913510623667739463E-17, 2.484999999999999432 ) ) ;
#206 = ADVANCED_FACE ( 'NONE', ( #317 ), #188, .T. ) ;
#207 = PRODUCT_DEFINITION_FORMATION_WITH_SPECIFIED_SOURCE ( 'ANY', '', #124, .NOT_KNOWN. ) ;
#208 = DIRECTION ( 'NONE',  ( 0.8660254037844400399, 0.0000000000000000000, 0.4999999999999976685 ) ) ;
#209 = AXIS2_PLACEMENT_3D ( 'NONE', #193, #148, #169 ) ;
#210 = STYLED_ITEM ( 'NONE', ( #305 ), #318 ) ;
#211 = AXIS2_PLACEMENT_3D ( 'NONE', #263, #237, #126 ) ;
#212 = CARTESIAN_POINT ( 'NONE',  ( 0.1562000000000000055, 1.912898300268165665E-17, 0.07661438072146284362 ) ) ;
#213 = CARTESIAN_POINT ( 'NONE',  ( 0.0000000000000000000, 0.0000000000000000000, 0.0000000000000000000 ) ) ;
#214 = EDGE_CURVE ( 'NONE', #164, #25, #321, .T. ) ;
#215 = AXIS2_PLACEMENT_3D ( 'NONE', #266, #231, #48 ) ;
#216 = DIRECTION ( 'NONE',  ( 0.0000000000000000000, 0.0000000000000000000, 1.000000000000000000 ) ) ;
#217 = ORIENTED_EDGE ( 'NONE', *, *, #179, .T. ) ;
#218 = ORIENTED_EDGE ( 'NONE', *, *, #334, .T. ) ;
#219 = LINE ( 'NONE', #159, #14 ) ;
#220 = ORIENTED_EDGE ( 'NONE', *, *, #228, .T. ) ;
#221 = EDGE_CURVE ( 'NONE', #25, #164, #19, .T. ) ;
#222 = FACE_OUTER_BOUND ( 'NONE', #250, .T. ) ;
#223 = CARTESIAN_POINT ( 'NONE',  ( 0.0000000000000000000, 0.0000000000000000000, 0.7500000000000001110 ) ) ;
#224 =( NAMED_UNIT ( * ) PLANE_ANGLE_UNIT ( ) SI_UNIT ( $, .RADIAN. ) );
#225 = EDGE_CURVE ( 'NONE', #165, #108, #51, .T. ) ;
#226 = CARTESIAN_POINT ( 'NONE',  ( 0.02350000000000000352, 0.0000000000000000000, 0.0000000000000000000 ) ) ;
#227 = AXIS2_PLACEMENT_3D ( 'NONE', #347, #174, #345 ) ;
#228 = EDGE_CURVE ( 'NONE', #190, #320, #2, .T. ) ;
#229 = DIRECTION ( 'NONE',  ( 0.0000000000000000000, 0.0000000000000000000, 1.000000000000000000 ) ) ;
#230 = LINE ( 'NONE', #168, #123 ) ;
#231 = DIRECTION ( 'NONE',  ( -0.0000000000000000000, -0.0000000000000000000, -1.000000000000000000 ) ) ;
#232 = AXIS2_PLACEMENT_3D ( 'NONE', #170, #36, #12 ) ;
#233 = AXIS2_PLACEMENT_3D ( 'NONE', #152, #269, #344 ) ;
#234 = CYLINDRICAL_SURFACE ( 'NONE', #79, 0.1562000000000000333 ) ;
#235 = ADVANCED_FACE ( 'NONE', ( #154 ), #248, .T. ) ;
#236 = PRODUCT_RELATED_PRODUCT_CATEGORY ( 'part', '', ( #124 ) ) ;
#237 = DIRECTION ( 'NONE',  ( 0.0000000000000000000, 0.0000000000000000000, -1.000000000000000000 ) ) ;
#238 = LINE ( 'NONE', #22, #315 ) ;
#239 = DIRECTION ( 'NONE',  ( 1.000000000000000000, 0.0000000000000000000, 0.0000000000000000000 ) ) ;
#240 = AXIS2_PLACEMENT_3D ( 'NONE', #73, #267, #178 ) ;
#241 = ADVANCED_FACE ( 'NONE', ( #319 ), #21, .F. ) ;
#242 = MECHANICAL_DESIGN_GEOMETRIC_PRESENTATION_REPRESENTATION (  '', ( #268 ), #32 ) ;
#243 =( NAMED_UNIT ( * ) PLANE_ANGLE_UNIT ( ) SI_UNIT ( $, .RADIAN. ) );
#244 = ORIENTED_EDGE ( 'NONE', *, *, #41, .T. ) ;
#245 = EDGE_CURVE ( 'NONE', #164, #273, #122, .T. ) ;
#246 = DIRECTION ( 'NONE',  ( -1.000000000000000000, 0.0000000000000000000, 0.0000000000000000000 ) ) ;
#247 = ORIENTED_EDGE ( 'NONE', *, *, #46, .T. ) ;
#248 = CONICAL_SURFACE ( 'NONE', #227, 0.02350000000000000352, 1.047197551196600518 ) ;
#249 = FILL_AREA_STYLE_COLOUR ( '', #284 ) ;
#250 = EDGE_LOOP ( 'NONE', ( #157, #110, #329, #31 ) ) ;
#251 =( LENGTH_UNIT ( ) NAMED_UNIT ( * ) SI_UNIT ( $, .METRE. ) );
#252 = ORIENTED_EDGE ( 'NONE', *, *, #311, .F. ) ;
#253 = VERTEX_POINT ( 'NONE', #212 ) ;
#254 = AXIS2_PLACEMENT_3D ( 'NONE', #77, #295, #50 ) ;
#255 = CARTESIAN_POINT ( 'NONE',  ( 0.0000000000000000000, 0.0000000000000000000, 2.500000000000000000 ) ) ;
#256 = DIRECTION ( 'NONE',  ( -0.0000000000000000000, -0.0000000000000000000, -1.000000000000000000 ) ) ;
#257 = PRODUCT_DEFINITION_CONTEXT ( 'detailed design', #43, 'design' ) ;
#258 = DIRECTION ( 'NONE',  ( -1.000000000000000000, 0.0000000000000000000, 0.0000000000000000000 ) ) ;
#259 = APPLICATION_PROTOCOL_DEFINITION ( 'draft international standard', 'automotive_design', 1998, #43 ) ;
#260 = EDGE_CURVE ( 'NONE', #113, #185, #75, .T. ) ;
#261 = CARTESIAN_POINT ( 'NONE',  ( 0.0000000000000000000, 0.0000000000000000000, 0.07661438072146284362 ) ) ;
#262 = DIRECTION ( 'NONE',  ( 1.000000000000000000, 0.0000000000000000000, 0.0000000000000000000 ) ) ;
#263 = CARTESIAN_POINT ( 'NONE',  ( 0.0000000000000000000, 0.0000000000000000000, 2.500000000000000000 ) ) ;
#264 = AXIS2_PLACEMENT_3D ( 'NONE', #180, #76, #239 ) ;
#265 = DIRECTION ( 'NONE',  ( -0.0000000000000000000, -0.0000000000000000000, -1.000000000000000000 ) ) ;
#266 = CARTESIAN_POINT ( 'NONE',  ( 0.0000000000000000000, 0.0000000000000000000, 0.0000000000000000000 ) ) ;
#267 = DIRECTION ( 'NONE',  ( 0.0000000000000000000, 0.0000000000000000000, -1.000000000000000000 ) ) ;
#268 = STYLED_ITEM ( 'NONE', ( #198 ), #111 ) ;
#269 = DIRECTION ( 'NONE',  ( -0.0000000000000000000, -0.0000000000000000000, -1.000000000000000000 ) ) ;
#270 = EDGE_CURVE ( 'NONE', #190, #185, #238, .T. ) ;
#271 = ORIENTED_EDGE ( 'NONE', *, *, #214, .T. ) ;
#272 = SURFACE_STYLE_FILL_AREA ( #132 ) ;
#273 = VERTEX_POINT ( 'NONE', #288 ) ;
#274 = CARTESIAN_POINT ( 'NONE',  ( -0.1562500000000000000, 0.0000000000000000000, 2.500000000000000000 ) ) ;
#275 = ORIENTED_EDGE ( 'NONE', *, *, #74, .T. ) ;
#276 = EDGE_LOOP ( 'NONE', ( #252, #131, #277, #57 ) ) ;
#277 = ORIENTED_EDGE ( 'NONE', *, *, #53, .T. ) ;
#278 = LENGTH_MEASURE_WITH_UNIT ( LENGTH_MEASURE( 0.02539999999999999897 ), #280 );
#279 = CARTESIAN_POINT ( 'NONE',  ( 0.0000000000000000000, 0.0000000000000000000, 0.7500499999999999945 ) ) ;
#280 =( LENGTH_UNIT ( ) NAMED_UNIT ( * ) SI_UNIT ( $, .METRE. ) );
#281 = DIRECTION ( 'NONE',  ( -0.0000000000000000000, -0.0000000000000000000, -1.000000000000000000 ) ) ;
#282 = ADVANCED_FACE ( 'NONE', ( #294 ), #234, .T. ) ;
#283 = CARTESIAN_POINT ( 'NONE',  ( -0.1562000000000000333, 0.0000000000000000000, 0.0000000000000000000 ) ) ;
#284 = COLOUR_RGB ( '',0.7921568627450980005, 0.8196078431372548767, 0.9333333333333333481 ) ;
#285 = CARTESIAN_POINT ( 'NONE',  ( 0.0000000000000000000, 0.0000000000000000000, 2.500000000000000000 ) ) ;
#286 = DIRECTION ( 'NONE',  ( 1.000000000000000000, 0.0000000000000000000, 0.0000000000000000000 ) ) ;
#287 = ADVANCED_FACE ( 'NONE', ( #323 ), #92, .T. ) ;
#288 = CARTESIAN_POINT ( 'NONE',  ( -0.1562500000000000000, 0.0000000000000000000, 0.7500499999999999945 ) ) ;
#289 = MECHANICAL_DESIGN_GEOMETRIC_PRESENTATION_REPRESENTATION (  '', ( #210 ), #155 ) ;
#290 = UNCERTAINTY_MEASURE_WITH_UNIT (LENGTH_MEASURE( 1.000000000000000082E-05 ), #144, 'distance_accuracy_value', 'NONE');
#291 = DIRECTION ( 'NONE',  ( -0.7071067811865410224, 0.0000000000000000000, -0.7071067811865539010 ) ) ;
#292 = ORIENTED_EDGE ( 'NONE', *, *, #46, .F. ) ;
#293 = EDGE_CURVE ( 'NONE', #185, #113, #195, .T. ) ;
#294 = FACE_OUTER_BOUND ( 'NONE', #327, .T. ) ;
#295 = DIRECTION ( 'NONE',  ( 0.0000000000000000000, 0.0000000000000000000, 1.000000000000000000 ) ) ;
#296 = DIRECTION ( 'NONE',  ( -1.000000000000000000, 0.0000000000000000000, 0.0000000000000000000 ) ) ;
#297 = AXIS2_PLACEMENT_3D ( 'NONE', #35, #307, #258 ) ;
#298 = SURFACE_SIDE_STYLE ('',( #103 ) ) ;
#299 = ORIENTED_EDGE ( 'NONE', *, *, #130, .F. ) ;
#300 = ADVANCED_FACE ( 'NONE', ( #45 ), #343, .T. ) ;
#301 = DIRECTION ( 'NONE',  ( 1.000000000000000000, 0.0000000000000000000, 0.0000000000000000000 ) ) ;
#302 = ORIENTED_EDGE ( 'NONE', *, *, #74, .F. ) ;
#303 =( NAMED_UNIT ( * ) PLANE_ANGLE_UNIT ( ) SI_UNIT ( $, .RADIAN. ) );
#304 = EDGE_LOOP ( 'NONE', ( #158, #220 ) ) ;
#305 = PRESENTATION_STYLE_ASSIGNMENT (( #56 ) ) ;
#306 = ORIENTED_EDGE ( 'NONE', *, *, #225, .T. ) ;
#307 = DIRECTION ( 'NONE',  ( -0.0000000000000000000, -0.0000000000000000000, -1.000000000000000000 ) ) ;
#308 = CARTESIAN_POINT ( 'NONE',  ( -0.1562500000000000000, 0.0000000000000000000, 2.484999999999999432 ) ) ;
#309 = AXIS2_PLACEMENT_3D ( 'NONE', #95, #316, #44 ) ;
#310 = DIRECTION ( 'NONE',  ( 1.000000000000000000, 0.0000000000000000000, -0.0000000000000000000 ) ) ;
#311 = EDGE_CURVE ( 'NONE', #108, #165, #151, .T. ) ;
#312 = LINE ( 'NONE', #67, #27 ) ;
#313 = SHAPE_DEFINITION_REPRESENTATION ( #200, #111 ) ;
#314 = ORIENTED_EDGE ( 'NONE', *, *, #270, .F. ) ;
#315 = VECTOR ( 'NONE', #98, 39.37007874015748854 ) ;
#316 = DIRECTION ( 'NONE',  ( 0.0000000000000000000, 0.0000000000000000000, -1.000000000000000000 ) ) ;
#317 = FACE_OUTER_BOUND ( 'NONE', #201, .T. ) ;
#318 = MANIFOLD_SOLID_BREP ( 'Cut-Revolve2', #341 ) ;
#319 = FACE_OUTER_BOUND ( 'NONE', #81, .T. ) ;
#320 = VERTEX_POINT ( 'NONE', #109 ) ;
#321 = CIRCLE ( 'NONE', #233, 0.1562000000000000333 ) ;
#322 = DIRECTION ( 'NONE',  ( -1.000000000000000000, 0.0000000000000000000, 0.0000000000000000000 ) ) ;
#323 = FACE_OUTER_BOUND ( 'NONE', #55, .T. ) ;
#324 = DIRECTION ( 'NONE',  ( -0.0000000000000000000, -0.0000000000000000000, -1.000000000000000000 ) ) ;
#325 = ADVANCED_FACE ( 'NONE', ( #80 ), #146, .T. ) ;
#326 = PRESENTATION_LAYER_ASSIGNMENT (  '', '', ( #210 ) ) ;
#327 = EDGE_LOOP ( 'NONE', ( #271, #275, #24, #59 ) ) ;
#328 = LENGTH_MEASURE_WITH_UNIT ( LENGTH_MEASURE( 0.02539999999999999897 ), #107 );
#329 = ORIENTED_EDGE ( 'NONE', *, *, #65, .F. ) ;
#330 = ORIENTED_EDGE ( 'NONE', *, *, #228, .F. ) ;
#331 = VECTOR ( 'NONE', #324, 39.37007874015748143 ) ;
#332 = DIRECTION ( 'NONE',  ( -0.0000000000000000000, -0.0000000000000000000, -1.000000000000000000 ) ) ;
#333 = DIRECTION ( 'NONE',  ( 1.000000000000000000, 0.0000000000000000000, 0.0000000000000000000 ) ) ;
#334 = EDGE_CURVE ( 'NONE', #25, #91, #219, .T. ) ;
#335 = ORIENTED_EDGE ( 'NONE', *, *, #311, .T. ) ;
#336 = VECTOR ( 'NONE', #38, 39.37007874015748143 ) ;
#337 = DIRECTION ( 'NONE',  ( -0.8660254037844400399, 1.060575238724908640E-16, 0.4999999999999976685 ) ) ;
#338 = ORIENTED_EDGE ( 'NONE', *, *, #197, .T. ) ;
#339 = EDGE_CURVE ( 'NONE', #113, #273, #181, .T. ) ;
#340 = DIRECTION ( 'NONE',  ( -1.000000000000000000, 0.0000000000000000000, 0.0000000000000000000 ) ) ;
#341 = CLOSED_SHELL ( 'NONE', ( #325, #282, #287, #206, #84, #88, #7, #102, #105, #300, #235, #241 ) ) ;
#342 = CONICAL_SURFACE ( 'NONE', #34, 0.1562000000000000333, 0.7853981633974504994 ) ;
#343 = CYLINDRICAL_SURFACE ( 'NONE', #162, 0.1562000000000000333 ) ;
#344 = DIRECTION ( 'NONE',  ( -1.000000000000000000, 0.0000000000000000000, 0.0000000000000000000 ) ) ;
#345 = DIRECTION ( 'NONE',  ( 1.000000000000000000, 0.0000000000000000000, 0.0000000000000000000 ) ) ;
#346 = AXIS2_PLACEMENT_3D ( 'NONE', #213, #216, #301 ) ;
#347 = CARTESIAN_POINT ( 'NONE',  ( 0.0000000000000000000, 0.0000000000000000000, 0.0000000000000000000 ) ) ;
#348 = FILL_AREA_STYLE ('',( #156 ) ) ;
#349 = ORIENTED_EDGE ( 'NONE', *, *, #293, .F. ) ;
ENDSEC;
END-ISO-10303-21;
