ISO-10303-21;
HEADER;
FILE_DESCRIPTION (( 'STEP AP214' ),
    '1' );
FILE_NAME ('05037.STEP',
    '2023-06-22T15:49:25',
    ( '' ),
    ( '' ),
    'SwSTEP 2.0',
    'SolidWorks 2023',
    '' );
FILE_SCHEMA (( 'AUTOMOTIVE_DESIGN' ));
ENDSEC;

DATA;
#1 = FILL_AREA_STYLE ('',( #249 ) ) ;
#2 = EDGE_CURVE ( 'NONE', #70, #250, #247, .T. ) ;
#3 = PRESENTATION_STYLE_ASSIGNMENT (( #240 ) ) ;
#4 = DIRECTION ( 'NONE',  ( -1.000000000000000000, 0.000000000000000000, 0.000000000000000000 ) ) ;
#5 =( NAMED_UNIT ( * ) SI_UNIT ( $, .STERADIAN. ) SOLID_ANGLE_UNIT ( ) );
#6 = STYLED_ITEM ( 'NONE', ( #251 ), #205 ) ;
#7 = CARTESIAN_POINT ( 'NONE',  ( 0.000000000000000000, 0.000000000000000000, 0.000000000000000000 ) ) ;
#8 = MECHANICAL_DESIGN_GEOMETRIC_PRESENTATION_REPRESENTATION (  '', ( #160 ), #185 ) ;
#9 = PLANE ( 'NONE',  #166 ) ;
#10 = ADVANCED_FACE ( 'NONE', ( #35 ), #268, .T. ) ;
#11 = FILL_AREA_STYLE ('',( #245 ) ) ;
#12 = ORIENTED_EDGE ( 'NONE', *, *, #119, .T. ) ;
#13 = ADVANCED_FACE ( 'NONE', ( #157 ), #113, .T. ) ;
#14 = DIRECTION ( 'NONE',  ( -1.000000000000000000, 0.000000000000000000, 0.000000000000000000 ) ) ;
#15 = DIRECTION ( 'NONE',  ( -0.000000000000000000, -1.000000000000000000, -0.000000000000000000 ) ) ;
#16 = FILL_AREA_STYLE ('',( #164 ) ) ;
#17 = DIRECTION ( 'NONE',  ( -6.997981709413445489E-17, 1.000000000000000000, -0.000000000000000000 ) ) ;
#18 = FILL_AREA_STYLE ('',( #228 ) ) ;
#19 = CARTESIAN_POINT ( 'NONE',  ( 7.654042494670960626E-18, 0.000000000000000000, 0.06250000000000002776 ) ) ;
#20 = EDGE_LOOP ( 'NONE', ( #44, #144, #48, #274 ) ) ;
#21 = MECHANICAL_DESIGN_GEOMETRIC_PRESENTATION_REPRESENTATION (  '', ( #234 ), #49 ) ;
#22 = CARTESIAN_POINT ( 'NONE',  ( -0.06250000000000018041, 2.500000000000000000, 0.000000000000000000 ) ) ;
#23 = ORIENTED_EDGE ( 'NONE', *, *, #191, .F. ) ;
#24 = LENGTH_MEASURE_WITH_UNIT ( LENGTH_MEASURE( 0.02539999999999999897 ), #118 );
#25 =( NAMED_UNIT ( * ) SI_UNIT ( $, .STERADIAN. ) SOLID_ANGLE_UNIT ( ) );
#26 = EDGE_LOOP ( 'NONE', ( #165, #123 ) ) ;
#27 = CIRCLE ( 'NONE', #69, 0.06250000000000000000 ) ;
#28 =( LENGTH_UNIT ( ) NAMED_UNIT ( * ) SI_UNIT ( $, .METRE. ) );
#29 = SURFACE_SIDE_STYLE ('',( #129 ) ) ;
#30 = SURFACE_STYLE_USAGE ( .BOTH. , #151 ) ;
#31 = EDGE_CURVE ( 'NONE', #146, #250, #182, .T. ) ;
#32 = CLOSED_SHELL ( 'NONE', ( #45, #211, #73, #10 ) ) ;
#33 = VERTEX_POINT ( 'NONE', #224 ) ;
#34 = DIRECTION ( 'NONE',  ( -1.000000000000000000, 0.000000000000000000, 0.000000000000000000 ) ) ;
#35 = FACE_OUTER_BOUND ( 'NONE', #26, .T. ) ;
#36 = APPLICATION_PROTOCOL_DEFINITION ( 'draft international standard', 'automotive_design', 1998, #272 ) ;
#37 = CYLINDRICAL_SURFACE ( 'NONE', #83, 0.06250000000000001388 ) ;
#38 = DIRECTION ( 'NONE',  ( 0.000000000000000000, 0.000000000000000000, -1.000000000000000000 ) ) ;
#39 = SURFACE_STYLE_FILL_AREA ( #66 ) ;
#40 = CLOSED_SHELL ( 'NONE', ( #219, #128, #13, #281 ) ) ;
#41 =( CONVERSION_BASED_UNIT ( 'INCH', #43 ) LENGTH_UNIT ( ) NAMED_UNIT ( #82 ) );
#42 =( NAMED_UNIT ( * ) PLANE_ANGLE_UNIT ( ) SI_UNIT ( $, .RADIAN. ) );
#43 = LENGTH_MEASURE_WITH_UNIT ( LENGTH_MEASURE( 0.02539999999999999897 ), #63 );
#44 = ORIENTED_EDGE ( 'NONE', *, *, #31, .F. ) ;
#45 = ADVANCED_FACE ( 'NONE', ( #141 ), #137, .T. ) ;
#46 = DIRECTION ( 'NONE',  ( 0.000000000000000000, 0.000000000000000000, -1.000000000000000000 ) ) ;
#47 =( GEOMETRIC_REPRESENTATION_CONTEXT ( 3 ) GLOBAL_UNCERTAINTY_ASSIGNED_CONTEXT ( ( #79 ) ) GLOBAL_UNIT_ASSIGNED_CONTEXT ( ( #109, #217, #25 ) ) REPRESENTATION_CONTEXT ( 'NONE', 'WORKASPACE' ) );
#48 = ORIENTED_EDGE ( 'NONE', *, *, #191, .T. ) ;
#49 =( GEOMETRIC_REPRESENTATION_CONTEXT ( 3 ) GLOBAL_UNCERTAINTY_ASSIGNED_CONTEXT ( ( #94 ) ) GLOBAL_UNIT_ASSIGNED_CONTEXT ( ( #91, #248, #92 ) ) REPRESENTATION_CONTEXT ( 'NONE', 'WORKASPACE' ) );
#50 = PRODUCT ( '05037', '05037', '', ( #179 ) ) ;
#51 = CARTESIAN_POINT ( 'NONE',  ( 0.06249999999999999306, 2.500000000000000000, 7.654042494670968330E-18 ) ) ;
#52 = EDGE_CURVE ( 'NONE', #239, #225, #147, .T. ) ;
#53 = AXIS2_PLACEMENT_3D ( 'NONE', #75, #252, #186 ) ;
#54 =( NAMED_UNIT ( * ) SI_UNIT ( $, .STERADIAN. ) SOLID_ANGLE_UNIT ( ) );
#55 = CARTESIAN_POINT ( 'NONE',  ( -0.06250000000000000000, 0.7499999999999998890, 0.000000000000000000 ) ) ;
#56 = SURFACE_SIDE_STYLE ('',( #258 ) ) ;
#57 = PRODUCT_DEFINITION ( 'UNKNOWN', '', #307, #134 ) ;
#58 = DIRECTION ( 'NONE',  ( -0.000000000000000000, -1.000000000000000000, -0.000000000000000000 ) ) ;
#59 = AXIS2_PLACEMENT_3D ( 'NONE', #7, #200, #114 ) ;
#60 = DIRECTION ( 'NONE',  ( 0.000000000000000000, 0.000000000000000000, -1.000000000000000000 ) ) ;
#61 = CARTESIAN_POINT ( 'NONE',  ( 0.000000000000000000, 0.000000000000000000, 0.000000000000000000 ) ) ;
#62 =( LENGTH_UNIT ( ) NAMED_UNIT ( * ) SI_UNIT ( $, .METRE. ) );
#63 =( LENGTH_UNIT ( ) NAMED_UNIT ( * ) SI_UNIT ( $, .METRE. ) );
#64 = STYLED_ITEM ( 'NONE', ( #176 ), #10 ) ;
#65 =( GEOMETRIC_REPRESENTATION_CONTEXT ( 3 ) GLOBAL_UNCERTAINTY_ASSIGNED_CONTEXT ( ( #74 ) ) GLOBAL_UNIT_ASSIGNED_CONTEXT ( ( #121, #196, #78 ) ) REPRESENTATION_CONTEXT ( 'NONE', 'WORKASPACE' ) );
#66 = FILL_AREA_STYLE ('',( #229 ) ) ;
#67 = EDGE_LOOP ( 'NONE', ( #301, #97, #282, #23 ) ) ;
#68 = CARTESIAN_POINT ( 'NONE',  ( 1.530367125165160174E-34, 0.7500000000000001110, 0.000000000000000000 ) ) ;
#69 = AXIS2_PLACEMENT_3D ( 'NONE', #275, #87, #271 ) ;
#70 = VERTEX_POINT ( 'NONE', #130 ) ;
#71 = AXIS2_PLACEMENT_3D ( 'NONE', #230, #168, #305 ) ;
#72 = DIRECTION ( 'NONE',  ( 0.000000000000000000, -0.000000000000000000, 1.000000000000000000 ) ) ;
#73 = ADVANCED_FACE ( 'NONE', ( #153 ), #37, .T. ) ;
#74 = UNCERTAINTY_MEASURE_WITH_UNIT (LENGTH_MEASURE( 1.000000000000000082E-05 ), #121, 'distance_accuracy_value', 'NONE');
#75 = CARTESIAN_POINT ( 'NONE',  ( -1.224646799147353207E-16, 2.500000000000000000, 0.000000000000000000 ) ) ;
#76 =( GEOMETRIC_REPRESENTATION_CONTEXT ( 3 ) GLOBAL_UNCERTAINTY_ASSIGNED_CONTEXT ( ( #152 ) ) GLOBAL_UNIT_ASSIGNED_CONTEXT ( ( #41, #302, #54 ) ) REPRESENTATION_CONTEXT ( 'NONE', 'WORKASPACE' ) );
#77 = AXIS2_PLACEMENT_3D ( 'NONE', #235, #170, #72 ) ;
#78 =( NAMED_UNIT ( * ) SI_UNIT ( $, .STERADIAN. ) SOLID_ANGLE_UNIT ( ) );
#79 = UNCERTAINTY_MEASURE_WITH_UNIT (LENGTH_MEASURE( 1.000000000000000082E-05 ), #109, 'distance_accuracy_value', 'NONE');
#80 = DIRECTION ( 'NONE',  ( 0.000000000000000000, 0.000000000000000000, -1.000000000000000000 ) ) ;
#81 = SURFACE_STYLE_FILL_AREA ( #11 ) ;
#82 = DIMENSIONAL_EXPONENTS ( 1.000000000000000000, 0.000000000000000000, 0.000000000000000000, 0.000000000000000000, 0.000000000000000000, 0.000000000000000000, 0.000000000000000000 ) ;
#83 = AXIS2_PLACEMENT_3D ( 'NONE', #125, #213, #296 ) ;
#84 = DIMENSIONAL_EXPONENTS ( 1.000000000000000000, 0.000000000000000000, 0.000000000000000000, 0.000000000000000000, 0.000000000000000000, 0.000000000000000000, 0.000000000000000000 ) ;
#85 = SURFACE_STYLE_USAGE ( .BOTH. , #162 ) ;
#86 = LENGTH_MEASURE_WITH_UNIT ( LENGTH_MEASURE( 0.02539999999999999897 ), #135 );
#87 = DIRECTION ( 'NONE',  ( -6.997981709413445489E-17, 1.000000000000000000, -0.000000000000000000 ) ) ;
#88 = DIRECTION ( 'NONE',  ( -1.000000000000000000, -6.997981709413445489E-17, 0.000000000000000000 ) ) ;
#89 = DIRECTION ( 'NONE',  ( 0.000000000000000000, -1.000000000000000000, -0.000000000000000000 ) ) ;
#90 = SURFACE_STYLE_USAGE ( .BOTH. , #140 ) ;
#91 =( CONVERSION_BASED_UNIT ( 'INCH', #269 ) LENGTH_UNIT ( ) NAMED_UNIT ( #115 ) );
#92 =( NAMED_UNIT ( * ) SI_UNIT ( $, .STERADIAN. ) SOLID_ANGLE_UNIT ( ) );
#93 = VECTOR ( 'NONE', #17, 39.37007874015748143 ) ;
#94 = UNCERTAINTY_MEASURE_WITH_UNIT (LENGTH_MEASURE( 1.000000000000000082E-05 ), #91, 'distance_accuracy_value', 'NONE');
#95 = FACE_OUTER_BOUND ( 'NONE', #163, .T. ) ;
#96 = CARTESIAN_POINT ( 'NONE',  ( 0.06250000000000000000, 2.500000000000000000, 0.000000000000000000 ) ) ;
#97 = ORIENTED_EDGE ( 'NONE', *, *, #31, .T. ) ;
#98 = UNCERTAINTY_MEASURE_WITH_UNIT (LENGTH_MEASURE( 1.000000000000000082E-05 ), #299, 'distance_accuracy_value', 'NONE');
#99 = DIRECTION ( 'NONE',  ( -0.000000000000000000, -1.000000000000000000, -0.000000000000000000 ) ) ;
#100 = AXIS2_PLACEMENT_3D ( 'NONE', #111, #174, #34 ) ;
#101 = CIRCLE ( 'NONE', #208, 0.06250000000000000000 ) ;
#102 = EDGE_LOOP ( 'NONE', ( #285, #12 ) ) ;
#103 = CARTESIAN_POINT ( 'NONE',  ( -1.224646799147353207E-16, 2.500000000000000000, 0.000000000000000000 ) ) ;
#104 = DIMENSIONAL_EXPONENTS ( 1.000000000000000000, 0.000000000000000000, 0.000000000000000000, 0.000000000000000000, 0.000000000000000000, 0.000000000000000000, 0.000000000000000000 ) ;
#105 = ORIENTED_EDGE ( 'NONE', *, *, #202, .F. ) ;
#106 = AXIS2_PLACEMENT_3D ( 'NONE', #241, #58, #60 ) ;
#107 = COLOUR_RGB ( '',1.000000000000000000, 0.000000000000000000, 0.000000000000000000 ) ;
#108 = CIRCLE ( 'NONE', #71, 0.06250000000000001388 ) ;
#109 =( CONVERSION_BASED_UNIT ( 'INCH', #133 ) LENGTH_UNIT ( ) NAMED_UNIT ( #84 ) );
#110 = LENGTH_MEASURE_WITH_UNIT ( LENGTH_MEASURE( 0.02539999999999999897 ), #62 );
#111 = CARTESIAN_POINT ( 'NONE',  ( -1.224646799147353207E-16, 2.500000000000000000, 0.000000000000000000 ) ) ;
#112 = CIRCLE ( 'NONE', #283, 0.06250000000000000000 ) ;
#113 = CYLINDRICAL_SURFACE ( 'NONE', #184, 0.06250000000000005551 ) ;
#114 = DIRECTION ( 'NONE',  ( 1.000000000000000000, 0.000000000000000000, 0.000000000000000000 ) ) ;
#115 = DIMENSIONAL_EXPONENTS ( 1.000000000000000000, 0.000000000000000000, 0.000000000000000000, 0.000000000000000000, 0.000000000000000000, 0.000000000000000000, 0.000000000000000000 ) ;
#116 = DIRECTION ( 'NONE',  ( -0.000000000000000000, -1.000000000000000000, -0.000000000000000000 ) ) ;
#117 = STYLED_ITEM ( 'NONE', ( #156 ), #73 ) ;
#118 =( LENGTH_UNIT ( ) NAMED_UNIT ( * ) SI_UNIT ( $, .METRE. ) );
#119 = EDGE_CURVE ( 'NONE', #225, #239, #124, .T. ) ;
#120 = ORIENTED_EDGE ( 'NONE', *, *, #242, .F. ) ;
#121 =( CONVERSION_BASED_UNIT ( 'INCH', #24 ) LENGTH_UNIT ( ) NAMED_UNIT ( #161 ) );
#122 = FACE_OUTER_BOUND ( 'NONE', #102, .T. ) ;
#123 = ORIENTED_EDGE ( 'NONE', *, *, #267, .T. ) ;
#124 = CIRCLE ( 'NONE', #298, 0.06250000000000012490 ) ;
#125 = CARTESIAN_POINT ( 'NONE',  ( 0.000000000000000000, 0.000000000000000000, 0.000000000000000000 ) ) ;
#126 = EDGE_CURVE ( 'NONE', #33, #225, #263, .T. ) ;
#127 = DIMENSIONAL_EXPONENTS ( 1.000000000000000000, 0.000000000000000000, 0.000000000000000000, 0.000000000000000000, 0.000000000000000000, 0.000000000000000000, 0.000000000000000000 ) ;
#128 = ADVANCED_FACE ( 'NONE', ( #303 ), #9, .F. ) ;
#129 = SURFACE_STYLE_FILL_AREA ( #1 ) ;
#130 = CARTESIAN_POINT ( 'NONE',  ( 0.000000000000000000, 0.000000000000000000, -0.06250000000000001388 ) ) ;
#131 =( CONVERSION_BASED_UNIT ( 'INCH', #155 ) LENGTH_UNIT ( ) NAMED_UNIT ( #292 ) );
#132 =( NAMED_UNIT ( * ) PLANE_ANGLE_UNIT ( ) SI_UNIT ( $, .RADIAN. ) );
#133 = LENGTH_MEASURE_WITH_UNIT ( LENGTH_MEASURE( 0.02539999999999999897 ), #297 );
#134 = PRODUCT_DEFINITION_CONTEXT ( 'detailed design', #272, 'design' ) ;
#135 =( LENGTH_UNIT ( ) NAMED_UNIT ( * ) SI_UNIT ( $, .METRE. ) );
#136 = MECHANICAL_DESIGN_GEOMETRIC_PRESENTATION_REPRESENTATION (  '', ( #6 ), #65 ) ;
#137 = CYLINDRICAL_SURFACE ( 'NONE', #106, 0.06250000000000001388 ) ;
#138 = CARTESIAN_POINT ( 'NONE',  ( 0.000000000000000000, 0.7500000000000001110, 0.000000000000000000 ) ) ;
#139 = ORIENTED_EDGE ( 'NONE', *, *, #295, .F. ) ;
#140 = SURFACE_SIDE_STYLE ('',( #39 ) ) ;
#141 = FACE_OUTER_BOUND ( 'NONE', #67, .T. ) ;
#142 = EDGE_CURVE ( 'NONE', #256, #33, #27, .T. ) ;
#143 = CARTESIAN_POINT ( 'NONE',  ( 0.06249999999999993755, 2.500000000000000000, 7.654042494670965249E-18 ) ) ;
#144 = ORIENTED_EDGE ( 'NONE', *, *, #202, .T. ) ;
#145 = CARTESIAN_POINT ( 'NONE',  ( -0.06250000000000023592, 2.500000000000000000, 0.000000000000000000 ) ) ;
#146 = VERTEX_POINT ( 'NONE', #246 ) ;
#147 = CIRCLE ( 'NONE', #100, 0.06250000000000012490 ) ;
#148 = CARTESIAN_POINT ( 'NONE',  ( 0.000000000000000000, 0.7500000000000001110, 0.000000000000000000 ) ) ;
#149 = SURFACE_STYLE_USAGE ( .BOTH. , #29 ) ;
#150 = COLOUR_RGB ( '',0.7921568627450980005, 0.8196078431372548767, 0.9333333333333333481 ) ;
#151 = SURFACE_SIDE_STYLE ('',( #169 ) ) ;
#152 = UNCERTAINTY_MEASURE_WITH_UNIT (LENGTH_MEASURE( 1.000000000000000082E-05 ), #41, 'distance_accuracy_value', 'NONE');
#153 = FACE_OUTER_BOUND ( 'NONE', #20, .T. ) ;
#154 = MECHANICAL_DESIGN_GEOMETRIC_PRESENTATION_REPRESENTATION (  '', ( #117 ), #47 ) ;
#155 = LENGTH_MEASURE_WITH_UNIT ( LENGTH_MEASURE( 0.02539999999999999897 ), #180 );
#156 = PRESENTATION_STYLE_ASSIGNMENT (( #30 ) ) ;
#157 = FACE_OUTER_BOUND ( 'NONE', #237, .T. ) ;
#158 = CARTESIAN_POINT ( 'NONE',  ( 0.000000000000000000, 0.7500000000000001110, -0.06250000000000000000 ) ) ;
#159 = PRESENTATION_LAYER_ASSIGNMENT (  '', '', ( #64 ) ) ;
#160 = STYLED_ITEM ( 'NONE', ( #3 ), #306 ) ;
#161 = DIMENSIONAL_EXPONENTS ( 1.000000000000000000, 0.000000000000000000, 0.000000000000000000, 0.000000000000000000, 0.000000000000000000, 0.000000000000000000, 0.000000000000000000 ) ;
#162 = SURFACE_SIDE_STYLE ('',( #198 ) ) ;
#163 = EDGE_LOOP ( 'NONE', ( #309, #212, #204, #120 ) ) ;
#164 = FILL_AREA_STYLE_COLOUR ( '', #107 ) ;
#165 = ORIENTED_EDGE ( 'NONE', *, *, #2, .T. ) ;
#166 = AXIS2_PLACEMENT_3D ( 'NONE', #68, #206, #88 ) ;
#167 = EDGE_LOOP ( 'NONE', ( #187, #172 ) ) ;
#168 = DIRECTION ( 'NONE',  ( -0.000000000000000000, -1.000000000000000000, -0.000000000000000000 ) ) ;
#169 = SURFACE_STYLE_FILL_AREA ( #199 ) ;
#170 = DIRECTION ( 'NONE',  ( 0.000000000000000000, 1.000000000000000000, 0.000000000000000000 ) ) ;
#171 = PRESENTATION_LAYER_ASSIGNMENT (  '', '', ( #232 ) ) ;
#172 = ORIENTED_EDGE ( 'NONE', *, *, #308, .F. ) ;
#173 = AXIS2_PLACEMENT_3D ( 'NONE', #148, #99, #46 ) ;
#174 = DIRECTION ( 'NONE',  ( -6.997981709413445489E-17, 1.000000000000000000, -0.000000000000000000 ) ) ;
#175 =( NAMED_UNIT ( * ) SI_UNIT ( $, .STERADIAN. ) SOLID_ANGLE_UNIT ( ) );
#176 = PRESENTATION_STYLE_ASSIGNMENT (( #220 ) ) ;
#177 = AXIS2_PLACEMENT_3D ( 'NONE', #96, #189, #188 ) ;
#178 = PRESENTATION_STYLE_ASSIGNMENT (( #85 ) ) ;
#179 = PRODUCT_CONTEXT ( 'NONE', #289, 'mechanical' ) ;
#180 =( LENGTH_UNIT ( ) NAMED_UNIT ( * ) SI_UNIT ( $, .METRE. ) );
#181 = VERTEX_POINT ( 'NONE', #158 ) ;
#182 = LINE ( 'NONE', #300, #255 ) ;
#183 = LINE ( 'NONE', #280, #238 ) ;
#184 = AXIS2_PLACEMENT_3D ( 'NONE', #226, #201, #14 ) ;
#185 =( GEOMETRIC_REPRESENTATION_CONTEXT ( 3 ) GLOBAL_UNCERTAINTY_ASSIGNED_CONTEXT ( ( #98 ) ) GLOBAL_UNIT_ASSIGNED_CONTEXT ( ( #299, #42, #215 ) ) REPRESENTATION_CONTEXT ( 'NONE', 'WORKASPACE' ) );
#186 = DIRECTION ( 'NONE',  ( -1.000000000000000000, 0.000000000000000000, 0.000000000000000000 ) ) ;
#187 = ORIENTED_EDGE ( 'NONE', *, *, #142, .F. ) ;
#188 = DIRECTION ( 'NONE',  ( 1.000000000000000000, 6.997981709413445489E-17, 0.000000000000000000 ) ) ;
#189 = DIRECTION ( 'NONE',  ( 6.997981709413445489E-17, -1.000000000000000000, 0.000000000000000000 ) ) ;
#190 = ORIENTED_EDGE ( 'NONE', *, *, #126, .F. ) ;
#191 = EDGE_CURVE ( 'NONE', #181, #70, #183, .T. ) ;
#192 = FACE_OUTER_BOUND ( 'NONE', #261, .T. ) ;
#193 = DIRECTION ( 'NONE',  ( -6.997981709413445489E-17, 1.000000000000000000, -0.000000000000000000 ) ) ;
#194 = CARTESIAN_POINT ( 'NONE',  ( 0.000000000000000000, 0.000000000000000000, 0.000000000000000000 ) ) ;
#195 = COLOUR_RGB ( '',1.000000000000000000, 0.000000000000000000, 0.000000000000000000 ) ;
#196 =( NAMED_UNIT ( * ) PLANE_ANGLE_UNIT ( ) SI_UNIT ( $, .RADIAN. ) );
#197 = FILL_AREA_STYLE_COLOUR ( '', #264 ) ;
#198 = SURFACE_STYLE_FILL_AREA ( #16 ) ;
#199 = FILL_AREA_STYLE ('',( #197 ) ) ;
#200 = DIRECTION ( 'NONE',  ( 0.000000000000000000, 0.000000000000000000, 1.000000000000000000 ) ) ;
#201 = DIRECTION ( 'NONE',  ( -6.997981709413445489E-17, 1.000000000000000000, -0.000000000000000000 ) ) ;
#202 = EDGE_CURVE ( 'NONE', #146, #181, #112, .T. ) ;
#203 = SURFACE_SIDE_STYLE ('',( #81 ) ) ;
#204 = ORIENTED_EDGE ( 'NONE', *, *, #52, .F. ) ;
#205 = MANIFOLD_SOLID_BREP ( 'Revolve - Cutting Edge', #32 ) ;
#206 = DIRECTION ( 'NONE',  ( -6.997981709413445489E-17, 1.000000000000000000, 0.000000000000000000 ) ) ;
#207 = MECHANICAL_DESIGN_GEOMETRIC_PRESENTATION_REPRESENTATION (  '', ( #232 ), #76 ) ;
#208 = AXIS2_PLACEMENT_3D ( 'NONE', #218, #293, #4 ) ;
#209 = CYLINDRICAL_SURFACE ( 'NONE', #53, 0.06250000000000005551 ) ;
#210 = PLANE ( 'NONE',  #177 ) ;
#211 = ADVANCED_FACE ( 'NONE', ( #192 ), #260, .T. ) ;
#212 = ORIENTED_EDGE ( 'NONE', *, *, #126, .T. ) ;
#213 = DIRECTION ( 'NONE',  ( -0.000000000000000000, -1.000000000000000000, -0.000000000000000000 ) ) ;
#214 = COLOUR_RGB ( '',1.000000000000000000, 0.000000000000000000, 0.000000000000000000 ) ;
#215 =( NAMED_UNIT ( * ) SI_UNIT ( $, .STERADIAN. ) SOLID_ANGLE_UNIT ( ) );
#216 = VECTOR ( 'NONE', #236, 39.37007874015748143 ) ;
#217 =( NAMED_UNIT ( * ) PLANE_ANGLE_UNIT ( ) SI_UNIT ( $, .RADIAN. ) );
#218 = CARTESIAN_POINT ( 'NONE',  ( -1.516480271171051896E-32, 0.7499999999999998890, 0.000000000000000000 ) ) ;
#219 = ADVANCED_FACE ( 'NONE', ( #95 ), #209, .T. ) ;
#220 = SURFACE_STYLE_USAGE ( .BOTH. , #203 ) ;
#221 = PRESENTATION_LAYER_ASSIGNMENT (  '', '', ( #6 ) ) ;
#222 = APPLICATION_PROTOCOL_DEFINITION ( 'draft international standard', 'automotive_design', 1998, #289 ) ;
#223 = DIRECTION ( 'NONE',  ( 0.000000000000000000, 0.000000000000000000, -1.000000000000000000 ) ) ;
#224 = CARTESIAN_POINT ( 'NONE',  ( 0.06249999999999999306, 0.7499999999999998890, 7.654042494670968330E-18 ) ) ;
#225 = VERTEX_POINT ( 'NONE', #51 ) ;
#226 = CARTESIAN_POINT ( 'NONE',  ( -1.224646799147353207E-16, 2.500000000000000000, 0.000000000000000000 ) ) ;
#227 = PRESENTATION_LAYER_ASSIGNMENT (  '', '', ( #234 ) ) ;
#228 = FILL_AREA_STYLE_COLOUR ( '', #277 ) ;
#229 = FILL_AREA_STYLE_COLOUR ( '', #150 ) ;
#230 = CARTESIAN_POINT ( 'NONE',  ( 0.000000000000000000, 0.000000000000000000, 0.000000000000000000 ) ) ;
#231 = ORIENTED_EDGE ( 'NONE', *, *, #308, .T. ) ;
#232 = STYLED_ITEM ( 'NONE', ( #178 ), #45 ) ;
#233 = AXIS2_PLACEMENT_3D ( 'NONE', #61, #89, #38 ) ;
#234 = STYLED_ITEM ( 'NONE', ( #294 ), #211 ) ;
#235 = CARTESIAN_POINT ( 'NONE',  ( 0.000000000000000000, 0.7500000000000001110, 0.000000000000000000 ) ) ;
#236 = DIRECTION ( 'NONE',  ( -6.997981709413445489E-17, 1.000000000000000000, -0.000000000000000000 ) ) ;
#237 = EDGE_LOOP ( 'NONE', ( #190, #231, #259, #253 ) ) ;
#238 = VECTOR ( 'NONE', #116, 39.37007874015748143 ) ;
#239 = VERTEX_POINT ( 'NONE', #145 ) ;
#240 = SURFACE_STYLE_USAGE ( .BOTH. , #56 ) ;
#241 = CARTESIAN_POINT ( 'NONE',  ( 0.000000000000000000, 0.000000000000000000, 0.000000000000000000 ) ) ;
#242 = EDGE_CURVE ( 'NONE', #256, #239, #286, .T. ) ;
#243 =( CONVERSION_BASED_UNIT ( 'INCH', #86 ) LENGTH_UNIT ( ) NAMED_UNIT ( #104 ) );
#244 = UNCERTAINTY_MEASURE_WITH_UNIT (LENGTH_MEASURE( 1.000000000000000082E-05 ), #131, 'distance_accuracy_value', 'NONE');
#245 = FILL_AREA_STYLE_COLOUR ( '', #214 ) ;
#246 = CARTESIAN_POINT ( 'NONE',  ( 7.654042494670959086E-18, 0.7500000000000001110, 0.06250000000000000000 ) ) ;
#247 = CIRCLE ( 'NONE', #290, 0.06250000000000001388 ) ;
#248 =( NAMED_UNIT ( * ) PLANE_ANGLE_UNIT ( ) SI_UNIT ( $, .RADIAN. ) );
#249 = FILL_AREA_STYLE_COLOUR ( '', #195 ) ;
#250 = VERTEX_POINT ( 'NONE', #19 ) ;
#251 = PRESENTATION_STYLE_ASSIGNMENT (( #90 ) ) ;
#252 = DIRECTION ( 'NONE',  ( -6.997981709413445489E-17, 1.000000000000000000, -0.000000000000000000 ) ) ;
#253 = ORIENTED_EDGE ( 'NONE', *, *, #119, .F. ) ;
#254 = UNCERTAINTY_MEASURE_WITH_UNIT (LENGTH_MEASURE( 1.000000000000000082E-05 ), #243, 'distance_accuracy_value', 'NONE');
#255 = VECTOR ( 'NONE', #278, 39.37007874015748143 ) ;
#256 = VERTEX_POINT ( 'NONE', #55 ) ;
#257 = PRODUCT_RELATED_PRODUCT_CATEGORY ( 'part', '', ( #50 ) ) ;
#258 = SURFACE_STYLE_FILL_AREA ( #18 ) ;
#259 = ORIENTED_EDGE ( 'NONE', *, *, #242, .T. ) ;
#260 = PLANE ( 'NONE',  #77 ) ;
#261 = EDGE_LOOP ( 'NONE', ( #139, #105 ) ) ;
#262 = PRODUCT_DEFINITION_SHAPE ( 'NONE', 'NONE',  #57 ) ;
#263 = LINE ( 'NONE', #143, #93 ) ;
#264 = COLOUR_RGB ( '',1.000000000000000000, 0.000000000000000000, 0.000000000000000000 ) ;
#265 =( NAMED_UNIT ( * ) PLANE_ANGLE_UNIT ( ) SI_UNIT ( $, .RADIAN. ) );
#266 = CIRCLE ( 'NONE', #173, 0.06250000000000000000 ) ;
#267 = EDGE_CURVE ( 'NONE', #250, #70, #108, .T. ) ;
#268 = PLANE ( 'NONE',  #233 ) ;
#269 = LENGTH_MEASURE_WITH_UNIT ( LENGTH_MEASURE( 0.02539999999999999897 ), #28 );
#270 = SHAPE_DEFINITION_REPRESENTATION ( #262, #279 ) ;
#271 = DIRECTION ( 'NONE',  ( -1.000000000000000000, 0.000000000000000000, 0.000000000000000000 ) ) ;
#272 = APPLICATION_CONTEXT ( 'automotive_design' ) ;
#273 = MECHANICAL_DESIGN_GEOMETRIC_PRESENTATION_REPRESENTATION (  '', ( #64 ), #304 ) ;
#274 = ORIENTED_EDGE ( 'NONE', *, *, #267, .F. ) ;
#275 = CARTESIAN_POINT ( 'NONE',  ( -1.516480271171051896E-32, 0.7499999999999998890, 0.000000000000000000 ) ) ;
#276 =( GEOMETRIC_REPRESENTATION_CONTEXT ( 3 ) GLOBAL_UNCERTAINTY_ASSIGNED_CONTEXT ( ( #254 ) ) GLOBAL_UNIT_ASSIGNED_CONTEXT ( ( #243, #132, #175 ) ) REPRESENTATION_CONTEXT ( 'NONE', 'WORKASPACE' ) );
#277 = COLOUR_RGB ( '',0.7921568627450980005, 0.8196078431372548767, 0.9333333333333333481 ) ;
#278 = DIRECTION ( 'NONE',  ( -0.000000000000000000, -1.000000000000000000, -0.000000000000000000 ) ) ;
#279 = ADVANCED_BREP_SHAPE_REPRESENTATION ( '05037', ( #205, #306, #59 ), #276 ) ;
#280 = CARTESIAN_POINT ( 'NONE',  ( 0.000000000000000000, 0.000000000000000000, -0.06250000000000001388 ) ) ;
#281 = ADVANCED_FACE ( 'NONE', ( #122 ), #210, .F. ) ;
#282 = ORIENTED_EDGE ( 'NONE', *, *, #2, .F. ) ;
#283 = AXIS2_PLACEMENT_3D ( 'NONE', #138, #15, #223 ) ;
#284 = PRESENTATION_LAYER_ASSIGNMENT (  '', '', ( #160 ) ) ;
#285 = ORIENTED_EDGE ( 'NONE', *, *, #52, .T. ) ;
#286 = LINE ( 'NONE', #22, #216 ) ;
#287 = PRESENTATION_LAYER_ASSIGNMENT (  '', '', ( #117 ) ) ;
#288 = DIRECTION ( 'NONE',  ( -1.000000000000000000, 0.000000000000000000, 0.000000000000000000 ) ) ;
#289 = APPLICATION_CONTEXT ( 'automotive_design' ) ;
#290 = AXIS2_PLACEMENT_3D ( 'NONE', #194, #291, #80 ) ;
#291 = DIRECTION ( 'NONE',  ( -0.000000000000000000, -1.000000000000000000, -0.000000000000000000 ) ) ;
#292 = DIMENSIONAL_EXPONENTS ( 1.000000000000000000, 0.000000000000000000, 0.000000000000000000, 0.000000000000000000, 0.000000000000000000, 0.000000000000000000, 0.000000000000000000 ) ;
#293 = DIRECTION ( 'NONE',  ( -6.997981709413445489E-17, 1.000000000000000000, -0.000000000000000000 ) ) ;
#294 = PRESENTATION_STYLE_ASSIGNMENT (( #149 ) ) ;
#295 = EDGE_CURVE ( 'NONE', #181, #146, #266, .T. ) ;
#296 = DIRECTION ( 'NONE',  ( 0.000000000000000000, 0.000000000000000000, -1.000000000000000000 ) ) ;
#297 =( LENGTH_UNIT ( ) NAMED_UNIT ( * ) SI_UNIT ( $, .METRE. ) );
#298 = AXIS2_PLACEMENT_3D ( 'NONE', #103, #193, #288 ) ;
#299 =( CONVERSION_BASED_UNIT ( 'INCH', #110 ) LENGTH_UNIT ( ) NAMED_UNIT ( #127 ) );
#300 = CARTESIAN_POINT ( 'NONE',  ( 7.654042494670959086E-18, 0.000000000000000000, 0.06250000000000001388 ) ) ;
#301 = ORIENTED_EDGE ( 'NONE', *, *, #295, .T. ) ;
#302 =( NAMED_UNIT ( * ) PLANE_ANGLE_UNIT ( ) SI_UNIT ( $, .RADIAN. ) );
#303 = FACE_OUTER_BOUND ( 'NONE', #167, .T. ) ;
#304 =( GEOMETRIC_REPRESENTATION_CONTEXT ( 3 ) GLOBAL_UNCERTAINTY_ASSIGNED_CONTEXT ( ( #244 ) ) GLOBAL_UNIT_ASSIGNED_CONTEXT ( ( #131, #265, #5 ) ) REPRESENTATION_CONTEXT ( 'NONE', 'WORKASPACE' ) );
#305 = DIRECTION ( 'NONE',  ( 0.000000000000000000, 0.000000000000000000, -1.000000000000000000 ) ) ;
#306 = MANIFOLD_SOLID_BREP ( 'Revolve - Tool Body (Straight Shanked)', #40 ) ;
#307 = PRODUCT_DEFINITION_FORMATION_WITH_SPECIFIED_SOURCE ( 'ANY', '', #50, .NOT_KNOWN. ) ;
#308 = EDGE_CURVE ( 'NONE', #33, #256, #101, .T. ) ;
#309 = ORIENTED_EDGE ( 'NONE', *, *, #142, .T. ) ;
ENDSEC;
END-ISO-10303-21;
