ISO-10303-21;
HEADER;
FILE_DESCRIPTION (( 'STEP AP214' ),
    '1' );
FILE_NAME ('Micro_BMR-010-2.STEP',
    '2021-09-03T13:39:06',
    ( '' ),
    ( '' ),
    'SwSTEP 2.0',
    'SolidWorks 2020',
    '' );
FILE_SCHEMA (( 'AUTOMOTIVE_DESIGN' ));
ENDSEC;

DATA;
#1 =( NAMED_UNIT ( * ) SI_UNIT ( $, .STERADIAN. ) SOLID_ANGLE_UNIT ( ) );
#2 = ORIENTED_EDGE ( 'NONE', *, *, #60, .F. ) ;
#3 = CARTESIAN_POINT ( 'NONE',  ( 0.06250000000000002776, 7.654042494670959086E-18, 1.485000000000000764 ) ) ;
#4 = EDGE_CURVE ( 'NONE', #112, #187, #170, .T. ) ;
#5 = CIRCLE ( 'NONE', #308, 0.004994999999999980358 ) ;
#6 = CIRCLE ( 'NONE', #197, 0.04750000000000064587 ) ;
#7 = DIRECTION ( 'NONE',  ( -1.224646799147353454E-16, -0.0000000000000000000, -1.000000000000000000 ) ) ;
#8 = ADVANCED_FACE ( 'NONE', ( #108 ), #282, .T. ) ;
#9 = DIRECTION ( 'NONE',  ( 0.0000000000000000000, -1.000000000000000000, 0.0000000000000000000 ) ) ;
#10 = COLOUR_RGB ( '',0.7921568627450980005, 0.8196078431372548767, 0.9333333333333333481 ) ;
#11 = DIRECTION ( 'NONE',  ( 1.000000000000000000, 0.0000000000000000000, 0.0000000000000000000 ) ) ;
#12 = EDGE_CURVE ( 'NONE', #54, #187, #80, .T. ) ;
#13 =( NAMED_UNIT ( * ) SI_UNIT ( $, .STERADIAN. ) SOLID_ANGLE_UNIT ( ) );
#14 = DIRECTION ( 'NONE',  ( 0.0000000000000000000, 0.0000000000000000000, -1.000000000000000000 ) ) ;
#15 = CARTESIAN_POINT ( 'NONE',  ( 6.117110761741030670E-19, 0.0000000000000000000, 0.004995000000000000308 ) ) ;
#16 = DIRECTION ( 'NONE',  ( 0.1736481776669311916, 0.0000000000000000000, 0.9848077530122080203 ) ) ;
#17 = ADVANCED_FACE ( 'NONE', ( #257 ), #90, .T. ) ;
#18 = LINE ( 'NONE', #238, #315 ) ;
#19 = ORIENTED_EDGE ( 'NONE', *, *, #167, .F. ) ;
#20 = ORIENTED_EDGE ( 'NONE', *, *, #186, .T. ) ;
#21 = AXIS2_PLACEMENT_3D ( 'NONE', #230, #212, #149 ) ;
#22 = ORIENTED_EDGE ( 'NONE', *, *, #4, .T. ) ;
#23 = STYLED_ITEM ( 'NONE', ( #64 ), #209 ) ;
#24 = PRODUCT ( 'Micro_BMR-010-2', 'Micro_BMR-010-2', '', ( #85 ) ) ;
#25 = CARTESIAN_POINT ( 'NONE',  ( 0.0000000000000000000, 0.0000000000000000000, 1.500000000000000222 ) ) ;
#26 = EDGE_LOOP ( 'NONE', ( #288, #232, #75, #181 ) ) ;
#27 = FACE_OUTER_BOUND ( 'NONE', #183, .T. ) ;
#28 = ORIENTED_EDGE ( 'NONE', *, *, #119, .T. ) ;
#29 = AXIS2_PLACEMENT_3D ( 'NONE', #286, #156, #261 ) ;
#30 = CIRCLE ( 'NONE', #290, 0.06250000000000002776 ) ;
#31 =( LENGTH_UNIT ( ) NAMED_UNIT ( * ) SI_UNIT ( $, .METRE. ) );
#32 = DIRECTION ( 'NONE',  ( -1.224646799147353454E-16, -0.0000000000000000000, -1.000000000000000000 ) ) ;
#33 = CARTESIAN_POINT ( 'NONE',  ( -0.004994999999999981226, 0.0000000000000000000, 6.117110761741006596E-19 ) ) ;
#34 = CIRCLE ( 'NONE', #233, 0.06250000000000002776 ) ;
#35 = CARTESIAN_POINT ( 'NONE',  ( 0.0000000000000000000, 0.0000000000000000000, 1.500000000000000222 ) ) ;
#36 = CARTESIAN_POINT ( 'NONE',  ( 0.0000000000000000000, 0.0000000000000000000, 1.500000000000000222 ) ) ;
#37 = SURFACE_SIDE_STYLE ('',( #68 ) ) ;
#38 = CARTESIAN_POINT ( 'NONE',  ( 6.117110761741030670E-19, 0.0000000000000000000, 0.004995000000000000308 ) ) ;
#39 = MECHANICAL_DESIGN_GEOMETRIC_PRESENTATION_REPRESENTATION (  '', ( #189 ), #289 ) ;
#40 = FACE_OUTER_BOUND ( 'NONE', #78, .T. ) ;
#41 = DIRECTION ( 'NONE',  ( 1.000000000000000000, 0.0000000000000000000, 0.0000000000000000000 ) ) ;
#42 = DIRECTION ( 'NONE',  ( -0.0000000000000000000, -0.0000000000000000000, -1.000000000000000000 ) ) ;
#43 = ADVANCED_FACE ( 'NONE', ( #93 ), #67, .T. ) ;
#44 = CARTESIAN_POINT ( 'NONE',  ( 3.673940397442054568E-18, 0.0000000000000000000, 0.02999999999999995379 ) ) ;
#45 = EDGE_CURVE ( 'NONE', #287, #321, #70, .T. ) ;
#46 = ORIENTED_EDGE ( 'NONE', *, *, #4, .F. ) ;
#47 = PRESENTATION_STYLE_ASSIGNMENT (( #180 ) ) ;
#48 = DIRECTION ( 'NONE',  ( 1.000000000000000000, 0.0000000000000000000, -0.0000000000000000000 ) ) ;
#49 = PRODUCT_DEFINITION_FORMATION_WITH_SPECIFIED_SOURCE ( 'ANY', '', #24, .NOT_KNOWN. ) ;
#50 = ORIENTED_EDGE ( 'NONE', *, *, #45, .T. ) ;
#51 = FILL_AREA_STYLE ('',( #188 ) ) ;
#52 = DIMENSIONAL_EXPONENTS ( 1.000000000000000000, 0.0000000000000000000, 0.0000000000000000000, 0.0000000000000000000, 0.0000000000000000000, 0.0000000000000000000, 0.0000000000000000000 ) ;
#53 = DIRECTION ( 'NONE',  ( -1.000000000000000000, 0.0000000000000000000, 0.0000000000000000000 ) ) ;
#54 = VERTEX_POINT ( 'NONE', #135 ) ;
#55 = ORIENTED_EDGE ( 'NONE', *, *, #45, .F. ) ;
#56 = VERTEX_POINT ( 'NONE', #3 ) ;
#57 =( CONVERSION_BASED_UNIT ( 'INCH', #152 ) LENGTH_UNIT ( ) NAMED_UNIT ( #52 ) );
#58 =( GEOMETRIC_REPRESENTATION_CONTEXT ( 3 ) GLOBAL_UNCERTAINTY_ASSIGNED_CONTEXT ( ( #178 ) ) GLOBAL_UNIT_ASSIGNED_CONTEXT ( ( #107, #208, #1 ) ) REPRESENTATION_CONTEXT ( 'NONE', 'WORKASPACE' ) );
#59 = AXIS2_PLACEMENT_3D ( 'NONE', #199, #252, #227 ) ;
#60 = EDGE_CURVE ( 'NONE', #54, #128, #211, .T. ) ;
#61 = DIRECTION ( 'NONE',  ( 1.000000000000000000, 0.0000000000000000000, 0.0000000000000000000 ) ) ;
#62 = LENGTH_MEASURE_WITH_UNIT ( LENGTH_MEASURE( 0.02539999999999999897 ), #224 );
#63 = ADVANCED_FACE ( 'NONE', ( #215 ), #266, .T. ) ;
#64 = PRESENTATION_STYLE_ASSIGNMENT (( #92 ) ) ;
#65 = CARTESIAN_POINT ( 'NONE',  ( 0.04750000000000064587, 6.735557395310483192E-18, 1.500000000000000222 ) ) ;
#66 = ADVANCED_FACE ( 'NONE', ( #27 ), #84, .T. ) ;
#67 = SPHERICAL_SURFACE ( 'NONE', #240, 0.004995000000000000308 ) ;
#68 = SURFACE_STYLE_FILL_AREA ( #310 ) ;
#69 = VECTOR ( 'NONE', #184, 39.37007874015748143 ) ;
#70 = LINE ( 'NONE', #33, #216 ) ;
#71 = CARTESIAN_POINT ( 'NONE',  ( 0.06250000000000002776, 7.654042494670959086E-18, 1.500000000000000222 ) ) ;
#72 = CARTESIAN_POINT ( 'NONE',  ( 6.117110761741030670E-19, 0.0000000000000000000, 0.004995000000000000308 ) ) ;
#73 = CARTESIAN_POINT ( 'NONE',  ( 0.04750000000000064587, 5.817072295950006528E-18, 1.500000000000000222 ) ) ;
#74 = AXIS2_PLACEMENT_3D ( 'NONE', #225, #9, #120 ) ;
#75 = ORIENTED_EDGE ( 'NONE', *, *, #136, .T. ) ;
#76 = ORIENTED_EDGE ( 'NONE', *, *, #186, .F. ) ;
#77 = EDGE_CURVE ( 'NONE', #56, #187, #172, .T. ) ;
#78 = EDGE_LOOP ( 'NONE', ( #2, #284, #50, #202 ) ) ;
#79 = SHAPE_DEFINITION_REPRESENTATION ( #114, #82 ) ;
#80 = LINE ( 'NONE', #253, #98 ) ;
#81 = CARTESIAN_POINT ( 'NONE',  ( 0.0000000000000000000, 0.0000000000000000000, 1.500000000000000222 ) ) ;
#82 = ADVANCED_BREP_SHAPE_REPRESENTATION ( 'Micro_BMR-010-2', ( #209, #141 ), #58 ) ;
#83 = ORIENTED_EDGE ( 'NONE', *, *, #280, .T. ) ;
#84 = CYLINDRICAL_SURFACE ( 'NONE', #243, 0.06250000000000002776 ) ;
#85 = PRODUCT_CONTEXT ( 'NONE', #270, 'mechanical' ) ;
#86 = ORIENTED_EDGE ( 'NONE', *, *, #280, .F. ) ;
#87 = CIRCLE ( 'NONE', #171, 0.04750000000000064587 ) ;
#88 = APPLICATION_CONTEXT ( 'automotive_design' ) ;
#89 = PRODUCT_DEFINITION_CONTEXT ( 'detailed design', #88, 'design' ) ;
#90 = CONICAL_SURFACE ( 'NONE', #176, 0.004994999999999980358, 0.1745329251994336694 ) ;
#91 = EDGE_CURVE ( 'NONE', #323, #235, #6, .T. ) ;
#92 = SURFACE_STYLE_USAGE ( .BOTH. , #37 ) ;
#93 = FACE_OUTER_BOUND ( 'NONE', #105, .T. ) ;
#94 = DIRECTION ( 'NONE',  ( 1.000000000000000000, 0.0000000000000000000, 0.0000000000000000000 ) ) ;
#95 = DIRECTION ( 'NONE',  ( 0.0000000000000000000, 1.000000000000000000, 0.0000000000000000000 ) ) ;
#96 = CONICAL_SURFACE ( 'NONE', #203, 0.004994999999999980358, 0.1745329251994336694 ) ;
#97 = DIRECTION ( 'NONE',  ( 1.000000000000000000, 0.0000000000000000000, 0.0000000000000000000 ) ) ;
#98 = VECTOR ( 'NONE', #16, 39.37007874015747433 ) ;
#99 = DIRECTION ( 'NONE',  ( -1.224646799147353454E-16, -0.0000000000000000000, -1.000000000000000000 ) ) ;
#100 = CARTESIAN_POINT ( 'NONE',  ( 0.0000000000000000000, 0.0000000000000000000, 1.485000000000000764 ) ) ;
#101 = EDGE_CURVE ( 'NONE', #56, #236, #311, .T. ) ;
#102 = DIRECTION ( 'NONE',  ( -1.000000000000000000, 0.0000000000000000000, 0.0000000000000000000 ) ) ;
#103 = CONICAL_SURFACE ( 'NONE', #59, 0.04750000000000064587, 0.7853981633974466137 ) ;
#104 = CONICAL_SURFACE ( 'NONE', #263, 0.04750000000000064587, 0.7853981633974466137 ) ;
#105 = EDGE_LOOP ( 'NONE', ( #86, #207, #158 ) ) ;
#106 = EDGE_CURVE ( 'NONE', #287, #112, #324, .T. ) ;
#107 =( CONVERSION_BASED_UNIT ( 'INCH', #62 ) LENGTH_UNIT ( ) NAMED_UNIT ( #129 ) );
#108 = FACE_OUTER_BOUND ( 'NONE', #299, .T. ) ;
#109 = PRODUCT_DEFINITION ( 'UNKNOWN', '', #49, #89 ) ;
#110 = APPLICATION_PROTOCOL_DEFINITION ( 'draft international standard', 'automotive_design', 1998, #270 ) ;
#111 = ORIENTED_EDGE ( 'NONE', *, *, #91, .T. ) ;
#112 = VERTEX_POINT ( 'NONE', #259 ) ;
#113 =( NAMED_UNIT ( * ) SI_UNIT ( $, .STERADIAN. ) SOLID_ANGLE_UNIT ( ) );
#114 = PRODUCT_DEFINITION_SHAPE ( 'NONE', 'NONE',  #109 ) ;
#115 = ORIENTED_EDGE ( 'NONE', *, *, #292, .F. ) ;
#116 = DIRECTION ( 'NONE',  ( -1.000000000000000000, 0.0000000000000000000, 0.0000000000000000000 ) ) ;
#117 = VECTOR ( 'NONE', #42, 39.37007874015748143 ) ;
#118 = ADVANCED_FACE ( 'NONE', ( #182 ), #103, .T. ) ;
#119 = EDGE_CURVE ( 'NONE', #236, #112, #18, .T. ) ;
#120 = DIRECTION ( 'NONE',  ( 0.0000000000000000000, 0.0000000000000000000, -1.000000000000000000 ) ) ;
#121 = AXIS2_PLACEMENT_3D ( 'NONE', #193, #7, #293 ) ;
#122 = DIRECTION ( 'NONE',  ( 0.0000000000000000000, 0.0000000000000000000, -1.000000000000000000 ) ) ;
#123 = DIRECTION ( 'NONE',  ( -1.000000000000000000, 0.0000000000000000000, 2.136392637687901648E-16 ) ) ;
#124 = CARTESIAN_POINT ( 'NONE',  ( 3.673940397442054568E-18, 0.0000000000000000000, 0.02999999999999995379 ) ) ;
#125 = DIRECTION ( 'NONE',  ( -0.7071067811865462405, 0.0000000000000000000, -0.7071067811865486830 ) ) ;
#126 = ORIENTED_EDGE ( 'NONE', *, *, #12, .F. ) ;
#127 = SURFACE_STYLE_FILL_AREA ( #51 ) ;
#128 = VERTEX_POINT ( 'NONE', #146 ) ;
#129 = DIMENSIONAL_EXPONENTS ( 1.000000000000000000, 0.0000000000000000000, 0.0000000000000000000, 0.0000000000000000000, 0.0000000000000000000, 0.0000000000000000000, 0.0000000000000000000 ) ;
#130 = ORIENTED_EDGE ( 'NONE', *, *, #175, .F. ) ;
#131 = EDGE_LOOP ( 'NONE', ( #306, #213, #277, #322 ) ) ;
#132 = CARTESIAN_POINT ( 'NONE',  ( -0.04750000000000064587, 0.0000000000000000000, 1.500000000000000222 ) ) ;
#133 = EDGE_CURVE ( 'NONE', #321, #128, #226, .T. ) ;
#134 = DIRECTION ( 'NONE',  ( 1.000000000000000000, 0.0000000000000000000, 0.0000000000000000000 ) ) ;
#135 = CARTESIAN_POINT ( 'NONE',  ( 0.004994999999999982961, 0.0000000000000000000, 0.02999999999999995379 ) ) ;
#136 = EDGE_CURVE ( 'NONE', #235, #236, #317, .T. ) ;
#137 = CARTESIAN_POINT ( 'NONE',  ( -0.004994999999999976889, 4.132876785422530113E-18, 0.02999999999999995379 ) ) ;
#138 = CYLINDRICAL_SURFACE ( 'NONE', #196, 0.06250000000000002776 ) ;
#139 = ADVANCED_FACE ( 'NONE', ( #295 ), #104, .T. ) ;
#140 = DIRECTION ( 'NONE',  ( 0.0000000000000000000, 0.0000000000000000000, 1.000000000000000000 ) ) ;
#141 = AXIS2_PLACEMENT_3D ( 'NONE', #160, #148, #134 ) ;
#142 = FILL_AREA_STYLE_COLOUR ( '', #10 ) ;
#143 = CIRCLE ( 'NONE', #272, 0.004994999999999981226 ) ;
#144 = DIRECTION ( 'NONE',  ( 1.224646799147353454E-16, 0.0000000000000000000, 1.000000000000000000 ) ) ;
#145 = DIRECTION ( 'NONE',  ( 1.224646799147353454E-16, 0.0000000000000000000, 1.000000000000000000 ) ) ;
#146 = CARTESIAN_POINT ( 'NONE',  ( 0.004994999999999982093, 6.117110761741005633E-19, 0.004994999999999999440 ) ) ;
#147 = DIRECTION ( 'NONE',  ( -1.224646799147353454E-16, -0.0000000000000000000, -1.000000000000000000 ) ) ;
#148 = DIRECTION ( 'NONE',  ( 0.0000000000000000000, 0.0000000000000000000, 1.000000000000000000 ) ) ;
#149 = DIRECTION ( 'NONE',  ( 1.000000000000000000, 0.0000000000000000000, 0.0000000000000000000 ) ) ;
#150 = EDGE_LOOP ( 'NONE', ( #20, #239, #319, #55 ) ) ;
#151 = AXIS2_PLACEMENT_3D ( 'NONE', #278, #99, #53 ) ;
#152 = LENGTH_MEASURE_WITH_UNIT ( LENGTH_MEASURE( 0.02539999999999999897 ), #31 );
#153 = ORIENTED_EDGE ( 'NONE', *, *, #249, .T. ) ;
#154 = DIRECTION ( 'NONE',  ( 0.0000000000000000000, 0.0000000000000000000, 1.000000000000000000 ) ) ;
#155 = DIRECTION ( 'NONE',  ( -1.000000000000000000, 0.0000000000000000000, 2.136392637687901648E-16 ) ) ;
#156 = DIRECTION ( 'NONE',  ( -1.224646799147353454E-16, -0.0000000000000000000, -1.000000000000000000 ) ) ;
#157 = DIMENSIONAL_EXPONENTS ( 1.000000000000000000, 0.0000000000000000000, 0.0000000000000000000, 0.0000000000000000000, 0.0000000000000000000, 0.0000000000000000000, 0.0000000000000000000 ) ;
#158 = ORIENTED_EDGE ( 'NONE', *, *, #133, .F. ) ;
#159 = EDGE_CURVE ( 'NONE', #236, #56, #30, .T. ) ;
#160 = CARTESIAN_POINT ( 'NONE',  ( 0.0000000000000000000, 0.0000000000000000000, 0.0000000000000000000 ) ) ;
#161 = CIRCLE ( 'NONE', #273, 0.004995000000000000308 ) ;
#162 = VECTOR ( 'NONE', #285, 39.37007874015748854 ) ;
#163 = VERTEX_POINT ( 'NONE', #316 ) ;
#164 = EDGE_CURVE ( 'NONE', #323, #56, #204, .T. ) ;
#165 = FACE_OUTER_BOUND ( 'NONE', #256, .T. ) ;
#166 = CYLINDRICAL_SURFACE ( 'NONE', #121, 0.004994999999999981226 ) ;
#167 = EDGE_CURVE ( 'NONE', #54, #287, #283, .T. ) ;
#168 = DIRECTION ( 'NONE',  ( 1.224646799147353207E-16, 1.000000000000000000, -0.0000000000000000000 ) ) ;
#169 = CARTESIAN_POINT ( 'NONE',  ( 6.117110761741030670E-19, 0.0000000000000000000, 0.004995000000000000308 ) ) ;
#170 = CIRCLE ( 'NONE', #21, 0.06250000000000002776 ) ;
#171 = AXIS2_PLACEMENT_3D ( 'NONE', #35, #140, #94 ) ;
#172 = LINE ( 'NONE', #71, #117 ) ;
#173 = DIRECTION ( 'NONE',  ( 1.224646799147353454E-16, 0.0000000000000000000, 1.000000000000000000 ) ) ;
#174 = DIRECTION ( 'NONE',  ( 0.0000000000000000000, 0.0000000000000000000, 1.000000000000000000 ) ) ;
#175 = EDGE_CURVE ( 'NONE', #128, #321, #143, .T. ) ;
#176 = AXIS2_PLACEMENT_3D ( 'NONE', #124, #271, #11 ) ;
#177 = ORIENTED_EDGE ( 'NONE', *, *, #101, .T. ) ;
#178 = UNCERTAINTY_MEASURE_WITH_UNIT (LENGTH_MEASURE( 1.000000000000000082E-05 ), #107, 'distance_accuracy_value', 'NONE');
#179 = ORIENTED_EDGE ( 'NONE', *, *, #106, .T. ) ;
#180 = SURFACE_STYLE_USAGE ( .BOTH. , #305 ) ;
#181 = ORIENTED_EDGE ( 'NONE', *, *, #101, .F. ) ;
#182 = FACE_OUTER_BOUND ( 'NONE', #131, .T. ) ;
#183 = EDGE_LOOP ( 'NONE', ( #262, #177, #28, #307 ) ) ;
#184 = DIRECTION ( 'NONE',  ( -1.224646799147353454E-16, -0.0000000000000000000, -1.000000000000000000 ) ) ;
#185 = EDGE_LOOP ( 'NONE', ( #115, #83, #130 ) ) ;
#186 = EDGE_CURVE ( 'NONE', #287, #54, #5, .T. ) ;
#187 = VERTEX_POINT ( 'NONE', #302 ) ;
#188 = FILL_AREA_STYLE_COLOUR ( '', #265 ) ;
#189 = STYLED_ITEM ( 'NONE', ( #47 ), #82 ) ;
#190 = DIRECTION ( 'NONE',  ( -0.0000000000000000000, -0.0000000000000000000, -1.000000000000000000 ) ) ;
#191 = CARTESIAN_POINT ( 'NONE',  ( 3.673940397442054568E-18, 0.0000000000000000000, 0.02999999999999995379 ) ) ;
#192 = CARTESIAN_POINT ( 'NONE',  ( 0.0000000000000000000, 0.0000000000000000000, 1.500000000000000222 ) ) ;
#193 = CARTESIAN_POINT ( 'NONE',  ( 0.0000000000000000000, 0.0000000000000000000, 0.0000000000000000000 ) ) ;
#194 = DIRECTION ( 'NONE',  ( 1.000000000000000000, 0.0000000000000000000, 0.0000000000000000000 ) ) ;
#195 = ADVANCED_FACE ( 'NONE', ( #276 ), #268, .T. ) ;
#196 = AXIS2_PLACEMENT_3D ( 'NONE', #192, #198, #274 ) ;
#197 = AXIS2_PLACEMENT_3D ( 'NONE', #25, #174, #251 ) ;
#198 = DIRECTION ( 'NONE',  ( -0.0000000000000000000, -0.0000000000000000000, -1.000000000000000000 ) ) ;
#199 = CARTESIAN_POINT ( 'NONE',  ( 0.0000000000000000000, 0.0000000000000000000, 1.500000000000000222 ) ) ;
#200 = DIRECTION ( 'NONE',  ( 1.000000000000000000, 0.0000000000000000000, 0.0000000000000000000 ) ) ;
#201 = UNCERTAINTY_MEASURE_WITH_UNIT (LENGTH_MEASURE( 1.000000000000000082E-05 ), #294, 'distance_accuracy_value', 'NONE');
#202 = ORIENTED_EDGE ( 'NONE', *, *, #133, .T. ) ;
#203 = AXIS2_PLACEMENT_3D ( 'NONE', #191, #144, #97 ) ;
#204 = LINE ( 'NONE', #73, #162 ) ;
#205 = VECTOR ( 'NONE', #125, 39.37007874015748854 ) ;
#206 = ORIENTED_EDGE ( 'NONE', *, *, #106, .F. ) ;
#207 = ORIENTED_EDGE ( 'NONE', *, *, #292, .T. ) ;
#208 =( NAMED_UNIT ( * ) PLANE_ANGLE_UNIT ( ) SI_UNIT ( $, .RADIAN. ) );
#209 = MANIFOLD_SOLID_BREP ( 'Fillet1', #312 ) ;
#210 = EDGE_LOOP ( 'NONE', ( #206, #19, #234, #153 ) ) ;
#211 = LINE ( 'NONE', #304, #69 ) ;
#212 = DIRECTION ( 'NONE',  ( -1.224646799147353454E-16, -0.0000000000000000000, -1.000000000000000000 ) ) ;
#213 = ORIENTED_EDGE ( 'NONE', *, *, #164, .T. ) ;
#214 = ORIENTED_EDGE ( 'NONE', *, *, #159, .T. ) ;
#215 = FACE_OUTER_BOUND ( 'NONE', #150, .T. ) ;
#216 = VECTOR ( 'NONE', #32, 39.37007874015748143 ) ;
#217 = CIRCLE ( 'NONE', #74, 0.004995000000000000308 ) ;
#218 =( LENGTH_UNIT ( ) NAMED_UNIT ( * ) SI_UNIT ( $, .METRE. ) );
#219 =( NAMED_UNIT ( * ) PLANE_ANGLE_UNIT ( ) SI_UNIT ( $, .RADIAN. ) );
#220 = ADVANCED_FACE ( 'NONE', ( #314 ), #96, .T. ) ;
#221 = AXIS2_PLACEMENT_3D ( 'NONE', #296, #318, #41 ) ;
#222 = DIRECTION ( 'NONE',  ( 0.0000000000000000000, 1.000000000000000000, 0.0000000000000000000 ) ) ;
#223 = ADVANCED_FACE ( 'NONE', ( #165 ), #138, .T. ) ;
#224 =( LENGTH_UNIT ( ) NAMED_UNIT ( * ) SI_UNIT ( $, .METRE. ) );
#225 = CARTESIAN_POINT ( 'NONE',  ( 6.117110761741030670E-19, 0.0000000000000000000, 0.004995000000000000308 ) ) ;
#226 = CIRCLE ( 'NONE', #247, 0.004994999999999981226 ) ;
#227 = DIRECTION ( 'NONE',  ( -1.000000000000000000, 0.0000000000000000000, 0.0000000000000000000 ) ) ;
#228 = DIRECTION ( 'NONE',  ( -0.1736481776669309418, 2.126576849575780543E-17, 0.9848077530122080203 ) ) ;
#229 = CARTESIAN_POINT ( 'NONE',  ( -0.004994999999999976889, 6.117110761741004670E-19, 0.02999999999999995379 ) ) ;
#230 = CARTESIAN_POINT ( 'NONE',  ( 4.361298653888572598E-17, 0.0000000000000000000, 0.3561270610371152223 ) ) ;
#231 =( GEOMETRIC_REPRESENTATION_CONTEXT ( 3 ) GLOBAL_UNCERTAINTY_ASSIGNED_CONTEXT ( ( #201 ) ) GLOBAL_UNIT_ASSIGNED_CONTEXT ( ( #294, #219, #13 ) ) REPRESENTATION_CONTEXT ( 'NONE', 'WORKASPACE' ) );
#232 = ORIENTED_EDGE ( 'NONE', *, *, #279, .F. ) ;
#233 = AXIS2_PLACEMENT_3D ( 'NONE', #267, #269, #291 ) ;
#234 = ORIENTED_EDGE ( 'NONE', *, *, #12, .T. ) ;
#235 = VERTEX_POINT ( 'NONE', #245 ) ;
#236 = VERTEX_POINT ( 'NONE', #309 ) ;
#237 = PRODUCT_RELATED_PRODUCT_CATEGORY ( 'part', '', ( #24 ) ) ;
#238 = CARTESIAN_POINT ( 'NONE',  ( -0.06250000000000002776, 0.0000000000000000000, 1.500000000000000222 ) ) ;
#239 = ORIENTED_EDGE ( 'NONE', *, *, #60, .T. ) ;
#240 = AXIS2_PLACEMENT_3D ( 'NONE', #169, #95, #61 ) ;
#241 = ADVANCED_FACE ( 'NONE', ( #40 ), #166, .T. ) ;
#242 = APPLICATION_PROTOCOL_DEFINITION ( 'draft international standard', 'automotive_design', 1998, #88 ) ;
#243 = AXIS2_PLACEMENT_3D ( 'NONE', #36, #190, #116 ) ;
#244 = CARTESIAN_POINT ( 'NONE',  ( -0.004994999999999980358, 0.0000000000000000000, 0.004995000000000001175 ) ) ;
#245 = CARTESIAN_POINT ( 'NONE',  ( -0.04750000000000064587, 0.0000000000000000000, 1.500000000000000222 ) ) ;
#246 = DIRECTION ( 'NONE',  ( -1.000000000000000000, 1.224646799147353207E-16, 0.0000000000000000000 ) ) ;
#247 = AXIS2_PLACEMENT_3D ( 'NONE', #15, #145, #123 ) ;
#248 = LENGTH_MEASURE_WITH_UNIT ( LENGTH_MEASURE( 0.02539999999999999897 ), #218 );
#249 = EDGE_CURVE ( 'NONE', #187, #112, #34, .T. ) ;
#250 = UNCERTAINTY_MEASURE_WITH_UNIT (LENGTH_MEASURE( 1.000000000000000082E-05 ), #57, 'distance_accuracy_value', 'NONE');
#251 = DIRECTION ( 'NONE',  ( 1.000000000000000000, 0.0000000000000000000, 0.0000000000000000000 ) ) ;
#252 = DIRECTION ( 'NONE',  ( 0.0000000000000000000, 0.0000000000000000000, -1.000000000000000000 ) ) ;
#253 = CARTESIAN_POINT ( 'NONE',  ( 0.004994999999999982961, 0.0000000000000000000, 0.02999999999999995379 ) ) ;
#254 = DIRECTION ( 'NONE',  ( -1.000000000000000000, 0.0000000000000000000, 0.0000000000000000000 ) ) ;
#255 = MECHANICAL_DESIGN_GEOMETRIC_PRESENTATION_REPRESENTATION (  '', ( #23 ), #231 ) ;
#256 = EDGE_LOOP ( 'NONE', ( #214, #258, #46, #303 ) ) ;
#257 = FACE_OUTER_BOUND ( 'NONE', #281, .T. ) ;
#258 = ORIENTED_EDGE ( 'NONE', *, *, #77, .T. ) ;
#259 = CARTESIAN_POINT ( 'NONE',  ( -0.06249999999999997918, 0.0000000000000000000, 0.3561270610371152223 ) ) ;
#260 = ORIENTED_EDGE ( 'NONE', *, *, #279, .T. ) ;
#261 = DIRECTION ( 'NONE',  ( -1.000000000000000000, 0.0000000000000000000, 1.224646799147353207E-16 ) ) ;
#262 = ORIENTED_EDGE ( 'NONE', *, *, #77, .F. ) ;
#263 = AXIS2_PLACEMENT_3D ( 'NONE', #81, #14, #102 ) ;
#264 = VECTOR ( 'NONE', #228, 39.37007874015748854 ) ;
#265 = COLOUR_RGB ( '',0.7921568627450980005, 0.8196078431372548767, 0.9333333333333333481 ) ;
#266 = CYLINDRICAL_SURFACE ( 'NONE', #29, 0.004994999999999981226 ) ;
#267 = CARTESIAN_POINT ( 'NONE',  ( 4.361298653888572598E-17, 0.0000000000000000000, 0.3561270610371152223 ) ) ;
#268 = SPHERICAL_SURFACE ( 'NONE', #320, 0.004995000000000000308 ) ;
#269 = DIRECTION ( 'NONE',  ( -1.224646799147353454E-16, -0.0000000000000000000, -1.000000000000000000 ) ) ;
#270 = APPLICATION_CONTEXT ( 'automotive_design' ) ;
#271 = DIRECTION ( 'NONE',  ( 1.224646799147353454E-16, 0.0000000000000000000, 1.000000000000000000 ) ) ;
#272 = AXIS2_PLACEMENT_3D ( 'NONE', #72, #173, #155 ) ;
#273 = AXIS2_PLACEMENT_3D ( 'NONE', #38, #168, #246 ) ;
#274 = DIRECTION ( 'NONE',  ( -1.000000000000000000, 0.0000000000000000000, 0.0000000000000000000 ) ) ;
#275 = DIRECTION ( 'NONE',  ( -0.0000000000000000000, -0.0000000000000000000, -1.000000000000000000 ) ) ;
#276 = FACE_OUTER_BOUND ( 'NONE', #185, .T. ) ;
#277 = ORIENTED_EDGE ( 'NONE', *, *, #159, .F. ) ;
#278 = CARTESIAN_POINT ( 'NONE',  ( 3.673940397442054568E-18, 0.0000000000000000000, 0.02999999999999995379 ) ) ;
#279 = EDGE_CURVE ( 'NONE', #235, #323, #87, .T. ) ;
#280 = EDGE_CURVE ( 'NONE', #163, #321, #161, .T. ) ;
#281 = EDGE_LOOP ( 'NONE', ( #76, #179, #22, #126 ) ) ;
#282 = PLANE ( 'NONE',  #325 ) ;
#283 = CIRCLE ( 'NONE', #151, 0.004994999999999980358 ) ;
#284 = ORIENTED_EDGE ( 'NONE', *, *, #167, .T. ) ;
#285 = DIRECTION ( 'NONE',  ( 0.7071067811865462405, 8.659560562354916834E-17, -0.7071067811865486830 ) ) ;
#286 = CARTESIAN_POINT ( 'NONE',  ( 0.0000000000000000000, 0.0000000000000000000, 0.0000000000000000000 ) ) ;
#287 = VERTEX_POINT ( 'NONE', #137 ) ;
#288 = ORIENTED_EDGE ( 'NONE', *, *, #164, .F. ) ;
#289 =( GEOMETRIC_REPRESENTATION_CONTEXT ( 3 ) GLOBAL_UNCERTAINTY_ASSIGNED_CONTEXT ( ( #250 ) ) GLOBAL_UNIT_ASSIGNED_CONTEXT ( ( #57, #300, #113 ) ) REPRESENTATION_CONTEXT ( 'NONE', 'WORKASPACE' ) );
#290 = AXIS2_PLACEMENT_3D ( 'NONE', #100, #122, #200 ) ;
#291 = DIRECTION ( 'NONE',  ( 1.000000000000000000, 0.0000000000000000000, 0.0000000000000000000 ) ) ;
#292 = EDGE_CURVE ( 'NONE', #163, #128, #217, .T. ) ;
#293 = DIRECTION ( 'NONE',  ( -1.000000000000000000, 0.0000000000000000000, 1.224646799147353207E-16 ) ) ;
#294 =( CONVERSION_BASED_UNIT ( 'INCH', #248 ) LENGTH_UNIT ( ) NAMED_UNIT ( #157 ) );
#295 = FACE_OUTER_BOUND ( 'NONE', #26, .T. ) ;
#296 = CARTESIAN_POINT ( 'NONE',  ( 0.0000000000000000000, 0.0000000000000000000, 1.485000000000000764 ) ) ;
#297 = PRESENTATION_LAYER_ASSIGNMENT (  '', '', ( #189 ) ) ;
#298 = PRESENTATION_LAYER_ASSIGNMENT (  '', '', ( #23 ) ) ;
#299 = EDGE_LOOP ( 'NONE', ( #260, #111 ) ) ;
#300 =( NAMED_UNIT ( * ) PLANE_ANGLE_UNIT ( ) SI_UNIT ( $, .RADIAN. ) );
#301 = CARTESIAN_POINT ( 'NONE',  ( 0.0000000000000000000, 0.0000000000000000000, 1.500000000000000222 ) ) ;
#302 = CARTESIAN_POINT ( 'NONE',  ( 0.06250000000000006939, 7.654042494670963708E-18, 0.3561270610371152223 ) ) ;
#303 = ORIENTED_EDGE ( 'NONE', *, *, #119, .F. ) ;
#304 = CARTESIAN_POINT ( 'NONE',  ( 0.004994999999999981226, 6.117110761741005633E-19, -6.117110761741006596E-19 ) ) ;
#305 = SURFACE_SIDE_STYLE ('',( #127 ) ) ;
#306 = ORIENTED_EDGE ( 'NONE', *, *, #91, .F. ) ;
#307 = ORIENTED_EDGE ( 'NONE', *, *, #249, .F. ) ;
#308 = AXIS2_PLACEMENT_3D ( 'NONE', #44, #147, #254 ) ;
#309 = CARTESIAN_POINT ( 'NONE',  ( -0.06250000000000002776, 0.0000000000000000000, 1.485000000000000764 ) ) ;
#310 = FILL_AREA_STYLE ('',( #142 ) ) ;
#311 = CIRCLE ( 'NONE', #221, 0.06250000000000002776 ) ;
#312 = CLOSED_SHELL ( 'NONE', ( #195, #63, #17, #118, #223, #66, #8, #139, #220, #241, #43 ) ) ;
#313 = CARTESIAN_POINT ( 'NONE',  ( 6.117110761741030670E-19, 0.0000000000000000000, 0.004995000000000000308 ) ) ;
#314 = FACE_OUTER_BOUND ( 'NONE', #210, .T. ) ;
#315 = VECTOR ( 'NONE', #275, 39.37007874015748143 ) ;
#316 = CARTESIAN_POINT ( 'NONE',  ( 9.175666142611546005E-19, 0.0000000000000000000, 0.0000000000000000000 ) ) ;
#317 = LINE ( 'NONE', #132, #205 ) ;
#318 = DIRECTION ( 'NONE',  ( 0.0000000000000000000, 0.0000000000000000000, -1.000000000000000000 ) ) ;
#319 = ORIENTED_EDGE ( 'NONE', *, *, #175, .T. ) ;
#320 = AXIS2_PLACEMENT_3D ( 'NONE', #313, #222, #194 ) ;
#321 = VERTEX_POINT ( 'NONE', #244 ) ;
#322 = ORIENTED_EDGE ( 'NONE', *, *, #136, .F. ) ;
#323 = VERTEX_POINT ( 'NONE', #65 ) ;
#324 = LINE ( 'NONE', #229, #264 ) ;
#325 = AXIS2_PLACEMENT_3D ( 'NONE', #301, #154, #48 ) ;
ENDSEC;
END-ISO-10303-21;
