ISO-10303-21;
HEADER;
FILE_DESCRIPTION (( 'STEP AP214' ),
    '1' );
FILE_NAME ('Micro_RMEM-003-2X.STEP',
    '2021-09-01T23:33:17',
    ( '' ),
    ( '' ),
    'SwSTEP 2.0',
    'SolidWorks 2020',
    '' );
FILE_SCHEMA (( 'AUTOMOTIVE_DESIGN' ));
ENDSEC;

DATA;
#1 = DIRECTION ( 'NONE',  ( -1.224646799147353207E-16, -0.0000000000000000000, -1.000000000000000000 ) ) ;
#2 = FACE_OUTER_BOUND ( 'NONE', #184, .T. ) ;
#3 = DIRECTION ( 'NONE',  ( 1.000000000000000000, 0.0000000000000000000, 0.0000000000000000000 ) ) ;
#4 = DIRECTION ( 'NONE',  ( -1.224646799147353207E-16, -0.0000000000000000000, -1.000000000000000000 ) ) ;
#5 = DIRECTION ( 'NONE',  ( -1.000000000000000000, 0.0000000000000000000, 1.224646799147352961E-16 ) ) ;
#6 = COLOUR_RGB ( '',0.7921568627450980005, 0.8196078431372548767, 0.9333333333333333481 ) ;
#7 = ORIENTED_EDGE ( 'NONE', *, *, #89, .T. ) ;
#8 = CARTESIAN_POINT ( 'NONE',  ( 0.0000000000000000000, 0.0000000000000000000, 1.481062999999999574 ) ) ;
#9 = FACE_OUTER_BOUND ( 'NONE', #115, .T. ) ;
#10 =( LENGTH_UNIT ( ) NAMED_UNIT ( * ) SI_UNIT ( $, .METRE. ) );
#11 = EDGE_LOOP ( 'NONE', ( #66, #248 ) ) ;
#12 = ORIENTED_EDGE ( 'NONE', *, *, #75, .T. ) ;
#13 = AXIS2_PLACEMENT_3D ( 'NONE', #28, #284, #57 ) ;
#14 = ORIENTED_EDGE ( 'NONE', *, *, #58, .T. ) ;
#15 = CARTESIAN_POINT ( 'NONE',  ( -0.005899594499999998194, 0.0000000000000000000, 7.224919520692327570E-19 ) ) ;
#16 = DIRECTION ( 'NONE',  ( -1.000000000000000000, 0.0000000000000000000, 1.224646799147353207E-16 ) ) ;
#17 = PRODUCT_DEFINITION_FORMATION_WITH_SPECIFIED_SOURCE ( 'ANY', '', #85, .NOT_KNOWN. ) ;
#18 = PRESENTATION_STYLE_ASSIGNMENT (( #292 ) ) ;
#19 = EDGE_CURVE ( 'NONE', #38, #88, #54, .T. ) ;
#20 = PRODUCT_DEFINITION_CONTEXT ( 'detailed design', #25, 'design' ) ;
#21 =( GEOMETRIC_REPRESENTATION_CONTEXT ( 3 ) GLOBAL_UNCERTAINTY_ASSIGNED_CONTEXT ( ( #32 ) ) GLOBAL_UNIT_ASSIGNED_CONTEXT ( ( #165, #268, #71 ) ) REPRESENTATION_CONTEXT ( 'NONE', 'WORKASPACE' ) );
#22 = ADVANCED_FACE ( 'NONE', ( #9 ), #109, .T. ) ;
#23 = DIRECTION ( 'NONE',  ( 0.1736481776669313581, 0.0000000000000000000, 0.9848077530122077983 ) ) ;
#24 = DIRECTION ( 'NONE',  ( -0.0000000000000000000, -0.0000000000000000000, -1.000000000000000000 ) ) ;
#25 = APPLICATION_CONTEXT ( 'automotive_design' ) ;
#26 = LINE ( 'NONE', #205, #87 ) ;
#27 =( GEOMETRIC_REPRESENTATION_CONTEXT ( 3 ) GLOBAL_UNCERTAINTY_ASSIGNED_CONTEXT ( ( #173 ) ) GLOBAL_UNIT_ASSIGNED_CONTEXT ( ( #186, #231, #144 ) ) REPRESENTATION_CONTEXT ( 'NONE', 'WORKASPACE' ) );
#28 = CARTESIAN_POINT ( 'NONE',  ( 0.0000000000000000000, 0.0000000000000000000, 1.496062999999999921 ) ) ;
#29 = AXIS2_PLACEMENT_3D ( 'NONE', #207, #239, #259 ) ;
#30 = EDGE_CURVE ( 'NONE', #182, #271, #142, .T. ) ;
#31 = CARTESIAN_POINT ( 'NONE',  ( 0.005899594499999997327, 7.224919520692327570E-19, 0.0000000000000000000 ) ) ;
#32 = UNCERTAINTY_MEASURE_WITH_UNIT (LENGTH_MEASURE( 1.000000000000000082E-05 ), #165, 'distance_accuracy_value', 'NONE');
#33 = EDGE_CURVE ( 'NONE', #271, #65, #233, .T. ) ;
#34 = DIRECTION ( 'NONE',  ( 1.224646799147353207E-16, 0.0000000000000000000, 1.000000000000000000 ) ) ;
#35 = EDGE_LOOP ( 'NONE', ( #288, #7, #14, #43 ) ) ;
#36 = CARTESIAN_POINT ( 'NONE',  ( 0.05905500000000004496, 7.232151672364700045E-18, 0.3368922848265556436 ) ) ;
#37 = VECTOR ( 'NONE', #143, 39.37007874015748143 ) ;
#38 = VERTEX_POINT ( 'NONE', #93 ) ;
#39 = CARTESIAN_POINT ( 'NONE',  ( 4.125740582702797681E-17, 0.0000000000000000000, 0.3368922848265556436 ) ) ;
#40 = ORIENTED_EDGE ( 'NONE', *, *, #129, .T. ) ;
#41 = VERTEX_POINT ( 'NONE', #212 ) ;
#42 = APPLICATION_PROTOCOL_DEFINITION ( 'draft international standard', 'automotive_design', 1998, #25 ) ;
#43 = ORIENTED_EDGE ( 'NONE', *, *, #225, .F. ) ;
#44 = LENGTH_MEASURE_WITH_UNIT ( LENGTH_MEASURE( 0.02539999999999999897 ), #251 );
#45 = CARTESIAN_POINT ( 'NONE',  ( 0.0000000000000000000, 0.0000000000000000000, 0.0000000000000000000 ) ) ;
#46 = ADVANCED_FACE ( 'NONE', ( #52 ), #123, .F. ) ;
#47 = DIRECTION ( 'NONE',  ( -1.224646799147353207E-16, -0.0000000000000000000, -1.000000000000000000 ) ) ;
#48 = VECTOR ( 'NONE', #23, 39.37007874015748143 ) ;
#49 = ADVANCED_FACE ( 'NONE', ( #213 ), #254, .T. ) ;
#50 = FACE_OUTER_BOUND ( 'NONE', #11, .T. ) ;
#51 = AXIS2_PLACEMENT_3D ( 'NONE', #128, #217, #3 ) ;
#52 = FACE_OUTER_BOUND ( 'NONE', #285, .T. ) ;
#53 = AXIS2_PLACEMENT_3D ( 'NONE', #100, #169, #69 ) ;
#54 = CIRCLE ( 'NONE', #170, 0.005899594499999999062 ) ;
#55 = LINE ( 'NONE', #15, #119 ) ;
#56 = LENGTH_MEASURE_WITH_UNIT ( LENGTH_MEASURE( 0.02539999999999999897 ), #10 );
#57 = DIRECTION ( 'NONE',  ( 1.000000000000000000, 0.0000000000000000000, 0.0000000000000000000 ) ) ;
#58 = EDGE_CURVE ( 'NONE', #38, #291, #55, .T. ) ;
#59 = DIRECTION ( 'NONE',  ( 1.000000000000000000, 0.0000000000000000000, -0.0000000000000000000 ) ) ;
#60 = ORIENTED_EDGE ( 'NONE', *, *, #58, .F. ) ;
#61 =( NAMED_UNIT ( * ) SI_UNIT ( $, .STERADIAN. ) SOLID_ANGLE_UNIT ( ) );
#62 = CIRCLE ( 'NONE', #295, 0.005899594499999999062 ) ;
#63 = ORIENTED_EDGE ( 'NONE', *, *, #270, .F. ) ;
#64 = SURFACE_STYLE_FILL_AREA ( #208 ) ;
#65 = VERTEX_POINT ( 'NONE', #168 ) ;
#66 = ORIENTED_EDGE ( 'NONE', *, *, #279, .T. ) ;
#67 = MECHANICAL_DESIGN_GEOMETRIC_PRESENTATION_REPRESENTATION (  '', ( #132 ), #27 ) ;
#68 = ORIENTED_EDGE ( 'NONE', *, *, #30, .F. ) ;
#69 = DIRECTION ( 'NONE',  ( -1.000000000000000000, 0.0000000000000000000, 0.0000000000000000000 ) ) ;
#70 = PRODUCT_RELATED_PRODUCT_CATEGORY ( 'part', '', ( #85 ) ) ;
#71 =( NAMED_UNIT ( * ) SI_UNIT ( $, .STERADIAN. ) SOLID_ANGLE_UNIT ( ) );
#72 = AXIS2_PLACEMENT_3D ( 'NONE', #290, #111, #201 ) ;
#73 = APPLICATION_CONTEXT ( 'automotive_design' ) ;
#74 = CONICAL_SURFACE ( 'NONE', #112, 0.04405499999999973326, 0.7853981633974491672 ) ;
#75 = EDGE_CURVE ( 'NONE', #38, #65, #230, .T. ) ;
#76 = CARTESIAN_POINT ( 'NONE',  ( 0.005899594500000003398, 0.0000000000000000000, 0.03543299999999999922 ) ) ;
#77 = DIRECTION ( 'NONE',  ( 0.0000000000000000000, 0.0000000000000000000, 1.000000000000000000 ) ) ;
#78 = CARTESIAN_POINT ( 'NONE',  ( 0.04405499999999973326, 5.395181473643630390E-18, 1.496062999999999921 ) ) ;
#79 = DIRECTION ( 'NONE',  ( 1.000000000000000000, 0.0000000000000000000, 0.0000000000000000000 ) ) ;
#80 = DIRECTION ( 'NONE',  ( 0.0000000000000000000, 0.0000000000000000000, -1.000000000000000000 ) ) ;
#81 = AXIS2_PLACEMENT_3D ( 'NONE', #278, #77, #59 ) ;
#82 = ADVANCED_FACE ( 'NONE', ( #2 ), #280, .T. ) ;
#83 = CARTESIAN_POINT ( 'NONE',  ( 4.339291003418816329E-18, 0.0000000000000000000, 0.03543299999999999922 ) ) ;
#84 = CARTESIAN_POINT ( 'NONE',  ( 4.339291003418816329E-18, 0.0000000000000000000, 0.03543299999999999922 ) ) ;
#85 = PRODUCT ( 'Micro_RMEM-003-2X', 'Micro_RMEM-003-2X', '', ( #160 ) ) ;
#86 = ORIENTED_EDGE ( 'NONE', *, *, #232, .F. ) ;
#87 = VECTOR ( 'NONE', #97, 39.37007874015748143 ) ;
#88 = VERTEX_POINT ( 'NONE', #116 ) ;
#89 = EDGE_CURVE ( 'NONE', #88, #38, #62, .T. ) ;
#90 = ORIENTED_EDGE ( 'NONE', *, *, #188, .F. ) ;
#91 = ORIENTED_EDGE ( 'NONE', *, *, #140, .F. ) ;
#92 = AXIS2_PLACEMENT_3D ( 'NONE', #84, #34, #172 ) ;
#93 = CARTESIAN_POINT ( 'NONE',  ( -0.005899594499999994725, 3.977321812216963656E-18, 0.03543299999999999922 ) ) ;
#94 = CARTESIAN_POINT ( 'NONE',  ( 0.0000000000000000000, 0.0000000000000000000, 1.496062999999999921 ) ) ;
#95 = AXIS2_PLACEMENT_3D ( 'NONE', #155, #103, #282 ) ;
#96 = CLOSED_SHELL ( 'NONE', ( #22, #146, #215, #49, #82, #167, #166, #240, #114, #46 ) ) ;
#97 = DIRECTION ( 'NONE',  ( -1.224646799147353207E-16, -0.0000000000000000000, -1.000000000000000000 ) ) ;
#98 = ADVANCED_BREP_SHAPE_REPRESENTATION ( 'Micro_RMEM-003-2X', ( #235, #72 ), #21 ) ;
#99 = DIMENSIONAL_EXPONENTS ( 1.000000000000000000, 0.0000000000000000000, 0.0000000000000000000, 0.0000000000000000000, 0.0000000000000000000, 0.0000000000000000000, 0.0000000000000000000 ) ;
#100 = CARTESIAN_POINT ( 'NONE',  ( 0.0000000000000000000, 0.0000000000000000000, 1.496062999999999921 ) ) ;
#101 = VECTOR ( 'NONE', #118, 39.37007874015748143 ) ;
#102 = CARTESIAN_POINT ( 'NONE',  ( 0.0000000000000000000, 0.0000000000000000000, 1.496062999999999921 ) ) ;
#103 = DIRECTION ( 'NONE',  ( 0.0000000000000000000, 0.0000000000000000000, -1.000000000000000000 ) ) ;
#104 = CARTESIAN_POINT ( 'NONE',  ( -0.05905500000000000332, 0.0000000000000000000, 1.481062999999999574 ) ) ;
#105 = UNCERTAINTY_MEASURE_WITH_UNIT (LENGTH_MEASURE( 1.000000000000000082E-05 ), #197, 'distance_accuracy_value', 'NONE');
#106 = CARTESIAN_POINT ( 'NONE',  ( 8.847974565113086337E-35, 0.0000000000000000000, 7.224919520692325644E-19 ) ) ;
#107 = ORIENTED_EDGE ( 'NONE', *, *, #154, .T. ) ;
#108 = SURFACE_SIDE_STYLE ('',( #263 ) ) ;
#109 = CYLINDRICAL_SURFACE ( 'NONE', #149, 0.005899594499999998194 ) ;
#110 = ORIENTED_EDGE ( 'NONE', *, *, #89, .F. ) ;
#111 = DIRECTION ( 'NONE',  ( 0.0000000000000000000, 0.0000000000000000000, 1.000000000000000000 ) ) ;
#112 = AXIS2_PLACEMENT_3D ( 'NONE', #94, #257, #189 ) ;
#113 = ORIENTED_EDGE ( 'NONE', *, *, #225, .T. ) ;
#114 = ADVANCED_FACE ( 'NONE', ( #281 ), #275, .T. ) ;
#115 = EDGE_LOOP ( 'NONE', ( #226, #107, #249, #60 ) ) ;
#116 = CARTESIAN_POINT ( 'NONE',  ( 0.005899594500000003398, 0.0000000000000000000, 0.03543299999999999922 ) ) ;
#117 = CIRCLE ( 'NONE', #234, 0.005899594499999997327 ) ;
#118 = DIRECTION ( 'NONE',  ( 0.7071067811865482389, 8.659560562354941486E-17, -0.7071067811865469066 ) ) ;
#119 = VECTOR ( 'NONE', #1, 39.37007874015748143 ) ;
#120 = DIMENSIONAL_EXPONENTS ( 1.000000000000000000, 0.0000000000000000000, 0.0000000000000000000, 0.0000000000000000000, 0.0000000000000000000, 0.0000000000000000000, 0.0000000000000000000 ) ;
#121 = CIRCLE ( 'NONE', #145, 0.05905500000000000332 ) ;
#122 = CARTESIAN_POINT ( 'NONE',  ( 0.04405499999999973326, 6.313666573004162521E-18, 1.496062999999999921 ) ) ;
#123 = PLANE ( 'NONE',  #206 ) ;
#124 = EDGE_CURVE ( 'NONE', #88, #229, #171, .T. ) ;
#125 = CARTESIAN_POINT ( 'NONE',  ( 4.339291003418816329E-18, 0.0000000000000000000, 0.03543299999999999922 ) ) ;
#126 =( GEOMETRIC_REPRESENTATION_CONTEXT ( 3 ) GLOBAL_UNCERTAINTY_ASSIGNED_CONTEXT ( ( #105 ) ) GLOBAL_UNIT_ASSIGNED_CONTEXT ( ( #197, #218, #61 ) ) REPRESENTATION_CONTEXT ( 'NONE', 'WORKASPACE' ) );
#127 = CONICAL_SURFACE ( 'NONE', #29, 0.005899594499999999062, 0.1745329251994338637 ) ;
#128 = CARTESIAN_POINT ( 'NONE',  ( 0.0000000000000000000, 0.0000000000000000000, 1.481062999999999574 ) ) ;
#129 = EDGE_CURVE ( 'NONE', #163, #41, #190, .T. ) ;
#130 = CARTESIAN_POINT ( 'NONE',  ( -0.005899594499999997327, 0.0000000000000000000, 1.444983904138465129E-18 ) ) ;
#131 = EDGE_LOOP ( 'NONE', ( #269, #139, #196, #90 ) ) ;
#132 = STYLED_ITEM ( 'NONE', ( #18 ), #98 ) ;
#133 = CARTESIAN_POINT ( 'NONE',  ( 8.847974565113086337E-35, 0.0000000000000000000, 7.224919520692325644E-19 ) ) ;
#134 = ORIENTED_EDGE ( 'NONE', *, *, #19, .F. ) ;
#135 = DIRECTION ( 'NONE',  ( 1.000000000000000000, 0.0000000000000000000, 0.0000000000000000000 ) ) ;
#136 = ORIENTED_EDGE ( 'NONE', *, *, #262, .T. ) ;
#137 = ORIENTED_EDGE ( 'NONE', *, *, #262, .F. ) ;
#138 = CIRCLE ( 'NONE', #176, 0.005899594499999997327 ) ;
#139 = ORIENTED_EDGE ( 'NONE', *, *, #279, .F. ) ;
#140 = EDGE_CURVE ( 'NONE', #229, #65, #121, .T. ) ;
#141 = APPLICATION_PROTOCOL_DEFINITION ( 'draft international standard', 'automotive_design', 1998, #73 ) ;
#142 = LINE ( 'NONE', #276, #37 ) ;
#143 = DIRECTION ( 'NONE',  ( -0.7071067811865482389, 0.0000000000000000000, -0.7071067811865469066 ) ) ;
#144 =( NAMED_UNIT ( * ) SI_UNIT ( $, .STERADIAN. ) SOLID_ANGLE_UNIT ( ) );
#145 = AXIS2_PLACEMENT_3D ( 'NONE', #299, #260, #79 ) ;
#146 = ADVANCED_FACE ( 'NONE', ( #151 ), #127, .T. ) ;
#147 = DIMENSIONAL_EXPONENTS ( 1.000000000000000000, 0.0000000000000000000, 0.0000000000000000000, 0.0000000000000000000, 0.0000000000000000000, 0.0000000000000000000, 0.0000000000000000000 ) ;
#148 = PLANE ( 'NONE',  #81 ) ;
#149 = AXIS2_PLACEMENT_3D ( 'NONE', #198, #286, #161 ) ;
#150 = DIRECTION ( 'NONE',  ( -0.0000000000000000000, -0.0000000000000000000, -1.000000000000000000 ) ) ;
#151 = FACE_OUTER_BOUND ( 'NONE', #265, .T. ) ;
#152 = DIRECTION ( 'NONE',  ( -0.0000000000000000000, -0.0000000000000000000, -1.000000000000000000 ) ) ;
#153 = CIRCLE ( 'NONE', #13, 0.04405499999999973326 ) ;
#154 = EDGE_CURVE ( 'NONE', #88, #267, #26, .T. ) ;
#155 = CARTESIAN_POINT ( 'NONE',  ( 0.0000000000000000000, 0.0000000000000000000, 1.496062999999999921 ) ) ;
#156 = DIRECTION ( 'NONE',  ( -1.224646799147353207E-16, -0.0000000000000000000, -1.000000000000000000 ) ) ;
#157 = PRESENTATION_LAYER_ASSIGNMENT (  '', '', ( #132 ) ) ;
#158 = AXIS2_PLACEMENT_3D ( 'NONE', #102, #24, #294 ) ;
#159 = ORIENTED_EDGE ( 'NONE', *, *, #124, .T. ) ;
#160 = PRODUCT_CONTEXT ( 'NONE', #73, 'mechanical' ) ;
#161 = DIRECTION ( 'NONE',  ( -1.000000000000000000, 0.0000000000000000000, 1.224646799147353207E-16 ) ) ;
#162 = ORIENTED_EDGE ( 'NONE', *, *, #140, .T. ) ;
#163 = VERTEX_POINT ( 'NONE', #122 ) ;
#164 = DIRECTION ( 'NONE',  ( 1.000000000000000000, 0.0000000000000000000, -0.0000000000000000000 ) ) ;
#165 =( CONVERSION_BASED_UNIT ( 'INCH', #272 ) LENGTH_UNIT ( ) NAMED_UNIT ( #99 ) );
#166 = ADVANCED_FACE ( 'NONE', ( #297 ), #74, .T. ) ;
#167 = ADVANCED_FACE ( 'NONE', ( #50 ), #148, .T. ) ;
#168 = CARTESIAN_POINT ( 'NONE',  ( -0.05905499999999996169, 0.0000000000000000000, 0.3368922848265556436 ) ) ;
#169 = DIRECTION ( 'NONE',  ( -0.0000000000000000000, -0.0000000000000000000, -1.000000000000000000 ) ) ;
#170 = AXIS2_PLACEMENT_3D ( 'NONE', #83, #156, #180 ) ;
#171 = LINE ( 'NONE', #76, #48 ) ;
#172 = DIRECTION ( 'NONE',  ( 1.000000000000000000, 0.0000000000000000000, 0.0000000000000000000 ) ) ;
#173 = UNCERTAINTY_MEASURE_WITH_UNIT (LENGTH_MEASURE( 1.000000000000000082E-05 ), #186, 'distance_accuracy_value', 'NONE');
#174 = DIRECTION ( 'NONE',  ( -1.224646799147353207E-16, -0.0000000000000000000, -1.000000000000000000 ) ) ;
#175 = CIRCLE ( 'NONE', #298, 0.04405499999999973326 ) ;
#176 = AXIS2_PLACEMENT_3D ( 'NONE', #133, #266, #5 ) ;
#177 = DIRECTION ( 'NONE',  ( 1.000000000000000000, 0.0000000000000000000, 0.0000000000000000000 ) ) ;
#178 = PRODUCT_DEFINITION_SHAPE ( 'NONE', 'NONE',  #219 ) ;
#179 =( LENGTH_UNIT ( ) NAMED_UNIT ( * ) SI_UNIT ( $, .METRE. ) );
#180 = DIRECTION ( 'NONE',  ( -1.000000000000000000, 0.0000000000000000000, 0.0000000000000000000 ) ) ;
#181 = DIRECTION ( 'NONE',  ( 1.000000000000000000, 0.0000000000000000000, 0.0000000000000000000 ) ) ;
#182 = VERTEX_POINT ( 'NONE', #243 ) ;
#183 = EDGE_LOOP ( 'NONE', ( #199, #136, #86, #185 ) ) ;
#184 = EDGE_LOOP ( 'NONE', ( #137, #246, #220, #91 ) ) ;
#185 = ORIENTED_EDGE ( 'NONE', *, *, #33, .F. ) ;
#186 =( CONVERSION_BASED_UNIT ( 'INCH', #44 ) LENGTH_UNIT ( ) NAMED_UNIT ( #147 ) );
#187 = DIRECTION ( 'NONE',  ( -0.1736481776669311639, 2.126576849575783008E-17, 0.9848077530122080203 ) ) ;
#188 = EDGE_CURVE ( 'NONE', #41, #271, #202, .T. ) ;
#189 = DIRECTION ( 'NONE',  ( -1.000000000000000000, 0.0000000000000000000, 0.0000000000000000000 ) ) ;
#190 = LINE ( 'NONE', #78, #101 ) ;
#191 = CARTESIAN_POINT ( 'NONE',  ( -0.005899594499999994725, 7.224919520692329496E-19, 0.03543299999999999922 ) ) ;
#192 = DIRECTION ( 'NONE',  ( -1.000000000000000000, 0.0000000000000000000, 0.0000000000000000000 ) ) ;
#193 = SURFACE_STYLE_USAGE ( .BOTH. , #108 ) ;
#194 = CARTESIAN_POINT ( 'NONE',  ( 0.0000000000000000000, 0.0000000000000000000, 1.496062999999999921 ) ) ;
#195 = STYLED_ITEM ( 'NONE', ( #244 ), #235 ) ;
#196 = ORIENTED_EDGE ( 'NONE', *, *, #30, .T. ) ;
#197 =( CONVERSION_BASED_UNIT ( 'INCH', #56 ) LENGTH_UNIT ( ) NAMED_UNIT ( #120 ) );
#198 = CARTESIAN_POINT ( 'NONE',  ( 0.0000000000000000000, 0.0000000000000000000, 0.0000000000000000000 ) ) ;
#199 = ORIENTED_EDGE ( 'NONE', *, *, #270, .T. ) ;
#200 = VECTOR ( 'NONE', #152, 39.37007874015748143 ) ;
#201 = DIRECTION ( 'NONE',  ( 1.000000000000000000, 0.0000000000000000000, 0.0000000000000000000 ) ) ;
#202 = CIRCLE ( 'NONE', #277, 0.05905500000000000332 ) ;
#203 = ORIENTED_EDGE ( 'NONE', *, *, #236, .T. ) ;
#204 = ORIENTED_EDGE ( 'NONE', *, *, #124, .F. ) ;
#205 = CARTESIAN_POINT ( 'NONE',  ( 0.005899594499999998194, 7.224919520692327570E-19, -7.224919520692327570E-19 ) ) ;
#206 = AXIS2_PLACEMENT_3D ( 'NONE', #45, #237, #164 ) ;
#207 = CARTESIAN_POINT ( 'NONE',  ( 4.339291003418816329E-18, 0.0000000000000000000, 0.03543299999999999922 ) ) ;
#208 = FILL_AREA_STYLE ('',( #228 ) ) ;
#209 = EDGE_CURVE ( 'NONE', #163, #182, #153, .T. ) ;
#210 = CIRCLE ( 'NONE', #252, 0.05905500000000000332 ) ;
#211 = CARTESIAN_POINT ( 'NONE',  ( 0.0000000000000000000, 0.0000000000000000000, 0.0000000000000000000 ) ) ;
#212 = CARTESIAN_POINT ( 'NONE',  ( 0.05905500000000000332, 7.232151672364695422E-18, 1.481062999999999574 ) ) ;
#213 = FACE_OUTER_BOUND ( 'NONE', #183, .T. ) ;
#214 = CONICAL_SURFACE ( 'NONE', #92, 0.005899594499999999062, 0.1745329251994338637 ) ;
#215 = ADVANCED_FACE ( 'NONE', ( #247 ), #264, .T. ) ;
#216 = VECTOR ( 'NONE', #187, 39.37007874015747433 ) ;
#217 = DIRECTION ( 'NONE',  ( 0.0000000000000000000, 0.0000000000000000000, -1.000000000000000000 ) ) ;
#218 =( NAMED_UNIT ( * ) PLANE_ANGLE_UNIT ( ) SI_UNIT ( $, .RADIAN. ) );
#219 = PRODUCT_DEFINITION ( 'UNKNOWN', '', #17, #20 ) ;
#220 = ORIENTED_EDGE ( 'NONE', *, *, #33, .T. ) ;
#221 = FILL_AREA_STYLE ('',( #223 ) ) ;
#222 = ORIENTED_EDGE ( 'NONE', *, *, #232, .T. ) ;
#223 = FILL_AREA_STYLE_COLOUR ( '', #6 ) ;
#224 = ORIENTED_EDGE ( 'NONE', *, *, #209, .F. ) ;
#225 = EDGE_CURVE ( 'NONE', #267, #291, #138, .T. ) ;
#226 = ORIENTED_EDGE ( 'NONE', *, *, #19, .T. ) ;
#227 = PRESENTATION_LAYER_ASSIGNMENT (  '', '', ( #195 ) ) ;
#228 = FILL_AREA_STYLE_COLOUR ( '', #245 ) ;
#229 = VERTEX_POINT ( 'NONE', #36 ) ;
#230 = LINE ( 'NONE', #191, #216 ) ;
#231 =( NAMED_UNIT ( * ) PLANE_ANGLE_UNIT ( ) SI_UNIT ( $, .RADIAN. ) );
#232 = EDGE_CURVE ( 'NONE', #65, #229, #210, .T. ) ;
#233 = LINE ( 'NONE', #238, #289 ) ;
#234 = AXIS2_PLACEMENT_3D ( 'NONE', #106, #4, #287 ) ;
#235 = MANIFOLD_SOLID_BREP ( 'Cut-Revolve1', #96 ) ;
#236 = EDGE_CURVE ( 'NONE', #291, #267, #117, .T. ) ;
#237 = DIRECTION ( 'NONE',  ( 0.0000000000000000000, 0.0000000000000000000, 1.000000000000000000 ) ) ;
#238 = CARTESIAN_POINT ( 'NONE',  ( -0.05905500000000000332, 0.0000000000000000000, 1.496062999999999921 ) ) ;
#239 = DIRECTION ( 'NONE',  ( 1.224646799147353207E-16, 0.0000000000000000000, 1.000000000000000000 ) ) ;
#240 = ADVANCED_FACE ( 'NONE', ( #242 ), #214, .T. ) ;
#241 = CARTESIAN_POINT ( 'NONE',  ( 0.05905500000000000332, 7.232151672364695422E-18, 1.496062999999999921 ) ) ;
#242 = FACE_OUTER_BOUND ( 'NONE', #250, .T. ) ;
#243 = CARTESIAN_POINT ( 'NONE',  ( -0.04405499999999973326, 0.0000000000000000000, 1.496062999999999921 ) ) ;
#244 = PRESENTATION_STYLE_ASSIGNMENT (( #193 ) ) ;
#245 = COLOUR_RGB ( '',0.7921568627450980005, 0.8196078431372548767, 0.9333333333333333481 ) ;
#246 = ORIENTED_EDGE ( 'NONE', *, *, #188, .T. ) ;
#247 = FACE_OUTER_BOUND ( 'NONE', #273, .T. ) ;
#248 = ORIENTED_EDGE ( 'NONE', *, *, #209, .T. ) ;
#249 = ORIENTED_EDGE ( 'NONE', *, *, #236, .F. ) ;
#250 = EDGE_LOOP ( 'NONE', ( #293, #110, #159, #162 ) ) ;
#251 =( LENGTH_UNIT ( ) NAMED_UNIT ( * ) SI_UNIT ( $, .METRE. ) );
#252 = AXIS2_PLACEMENT_3D ( 'NONE', #39, #174, #135 ) ;
#253 = DIRECTION ( 'NONE',  ( -1.224646799147353207E-16, -0.0000000000000000000, -1.000000000000000000 ) ) ;
#254 = CYLINDRICAL_SURFACE ( 'NONE', #53, 0.05905500000000000332 ) ;
#255 = CIRCLE ( 'NONE', #51, 0.05905500000000000332 ) ;
#256 = AXIS2_PLACEMENT_3D ( 'NONE', #211, #253, #16 ) ;
#257 = DIRECTION ( 'NONE',  ( 0.0000000000000000000, 0.0000000000000000000, -1.000000000000000000 ) ) ;
#258 = MECHANICAL_DESIGN_GEOMETRIC_PRESENTATION_REPRESENTATION (  '', ( #195 ), #126 ) ;
#259 = DIRECTION ( 'NONE',  ( 1.000000000000000000, 0.0000000000000000000, 0.0000000000000000000 ) ) ;
#260 = DIRECTION ( 'NONE',  ( -1.224646799147353207E-16, -0.0000000000000000000, -1.000000000000000000 ) ) ;
#261 = LINE ( 'NONE', #241, #200 ) ;
#262 = EDGE_CURVE ( 'NONE', #41, #229, #261, .T. ) ;
#263 = SURFACE_STYLE_FILL_AREA ( #221 ) ;
#264 = CONICAL_SURFACE ( 'NONE', #95, 0.04405499999999973326, 0.7853981633974491672 ) ;
#265 = EDGE_LOOP ( 'NONE', ( #134, #12, #222, #204 ) ) ;
#266 = DIRECTION ( 'NONE',  ( -1.224646799147353207E-16, -0.0000000000000000000, -1.000000000000000000 ) ) ;
#267 = VERTEX_POINT ( 'NONE', #31 ) ;
#268 =( NAMED_UNIT ( * ) PLANE_ANGLE_UNIT ( ) SI_UNIT ( $, .RADIAN. ) );
#269 = ORIENTED_EDGE ( 'NONE', *, *, #129, .F. ) ;
#270 = EDGE_CURVE ( 'NONE', #271, #41, #255, .T. ) ;
#271 = VERTEX_POINT ( 'NONE', #104 ) ;
#272 = LENGTH_MEASURE_WITH_UNIT ( LENGTH_MEASURE( 0.02539999999999999897 ), #179 );
#273 = EDGE_LOOP ( 'NONE', ( #224, #40, #63, #68 ) ) ;
#274 = SHAPE_DEFINITION_REPRESENTATION ( #178, #98 ) ;
#275 = CYLINDRICAL_SURFACE ( 'NONE', #256, 0.005899594499999998194 ) ;
#276 = CARTESIAN_POINT ( 'NONE',  ( -0.04405499999999973326, 0.0000000000000000000, 1.496062999999999921 ) ) ;
#277 = AXIS2_PLACEMENT_3D ( 'NONE', #8, #80, #181 ) ;
#278 = CARTESIAN_POINT ( 'NONE',  ( 0.0000000000000000000, 0.0000000000000000000, 1.496062999999999921 ) ) ;
#279 = EDGE_CURVE ( 'NONE', #182, #163, #175, .T. ) ;
#280 = CYLINDRICAL_SURFACE ( 'NONE', #158, 0.05905500000000000332 ) ;
#281 = FACE_OUTER_BOUND ( 'NONE', #35, .T. ) ;
#282 = DIRECTION ( 'NONE',  ( -1.000000000000000000, 0.0000000000000000000, 0.0000000000000000000 ) ) ;
#283 = DIRECTION ( 'NONE',  ( 0.0000000000000000000, 0.0000000000000000000, 1.000000000000000000 ) ) ;
#284 = DIRECTION ( 'NONE',  ( 0.0000000000000000000, 0.0000000000000000000, 1.000000000000000000 ) ) ;
#285 = EDGE_LOOP ( 'NONE', ( #203, #113 ) ) ;
#286 = DIRECTION ( 'NONE',  ( -1.224646799147353207E-16, -0.0000000000000000000, -1.000000000000000000 ) ) ;
#287 = DIRECTION ( 'NONE',  ( -1.000000000000000000, 0.0000000000000000000, 1.224646799147352961E-16 ) ) ;
#288 = ORIENTED_EDGE ( 'NONE', *, *, #154, .F. ) ;
#289 = VECTOR ( 'NONE', #150, 39.37007874015748143 ) ;
#290 = CARTESIAN_POINT ( 'NONE',  ( 0.0000000000000000000, 0.0000000000000000000, 0.0000000000000000000 ) ) ;
#291 = VERTEX_POINT ( 'NONE', #130 ) ;
#292 = SURFACE_STYLE_USAGE ( .BOTH. , #296 ) ;
#293 = ORIENTED_EDGE ( 'NONE', *, *, #75, .F. ) ;
#294 = DIRECTION ( 'NONE',  ( -1.000000000000000000, 0.0000000000000000000, 0.0000000000000000000 ) ) ;
#295 = AXIS2_PLACEMENT_3D ( 'NONE', #125, #47, #192 ) ;
#296 = SURFACE_SIDE_STYLE ('',( #64 ) ) ;
#297 = FACE_OUTER_BOUND ( 'NONE', #131, .T. ) ;
#298 = AXIS2_PLACEMENT_3D ( 'NONE', #194, #283, #177 ) ;
#299 = CARTESIAN_POINT ( 'NONE',  ( 4.125740582702797681E-17, 0.0000000000000000000, 0.3368922848265556436 ) ) ;
ENDSEC;
END-ISO-10303-21;
