ISO-10303-21;
HEADER;
FILE_DESCRIPTION (( 'STEP AP214' ),
    '1' );
FILE_NAME ('Micro_DMM-060-2120.STEP',
    '2021-09-02T16:21:43',
    ( '' ),
    ( '' ),
    'SwSTEP 2.0',
    'SolidWorks 2020',
    '' );
FILE_SCHEMA (( 'AUTOMOTIVE_DESIGN' ));
ENDSEC;

DATA;
#1 = ORIENTED_EDGE ( 'NONE', *, *, #4, .T. ) ;
#2 = CARTESIAN_POINT ( 'NONE',  ( -0.007499999999999999722, 9.184850993605147975E-19, 1.707404996040164512E-17 ) ) ;
#3 = CARTESIAN_POINT ( 'NONE',  ( -0.1181100000000000066, 0.0000000000000000000, 2.244094000000000033 ) ) ;
#4 = EDGE_CURVE ( 'NONE', #147, #173, #56, .T. ) ;
#5 = DIRECTION ( 'NONE',  ( 1.000000000000000000, 0.0000000000000000000, -0.0000000000000000000 ) ) ;
#6 = CIRCLE ( 'NONE', #189, 0.1181100000000000066 ) ;
#7 = CARTESIAN_POINT ( 'NONE',  ( 0.1180600000000000815, 1.445818011073366210E-17, 0.6299209999999999532 ) ) ;
#8 =( GEOMETRIC_REPRESENTATION_CONTEXT ( 3 ) GLOBAL_UNCERTAINTY_ASSIGNED_CONTEXT ( ( #67 ) ) GLOBAL_UNIT_ASSIGNED_CONTEXT ( ( #204, #283, #226 ) ) REPRESENTATION_CONTEXT ( 'NONE', 'WORKASPACE' ) );
#9 = CIRCLE ( 'NONE', #329, 0.1180600000000000815 ) ;
#10 = CYLINDRICAL_SURFACE ( 'NONE', #112, 0.1180600000000000538 ) ;
#11 = CYLINDRICAL_SURFACE ( 'NONE', #209, 0.1181100000000000066 ) ;
#12 = CARTESIAN_POINT ( 'NONE',  ( 0.0000000000000000000, 0.0000000000000000000, 0.6299209999999999532 ) ) ;
#13 = DIRECTION ( 'NONE',  ( 1.000000000000000000, 0.0000000000000000000, 0.0000000000000000000 ) ) ;
#14 = EDGE_LOOP ( 'NONE', ( #211, #70, #155, #193 ) ) ;
#15 = AXIS2_PLACEMENT_3D ( 'NONE', #166, #229, #119 ) ;
#16 = ADVANCED_FACE ( 'NONE', ( #308 ), #140, .T. ) ;
#17 = AXIS2_PLACEMENT_3D ( 'NONE', #327, #105, #300 ) ;
#18 = SURFACE_SIDE_STYLE ('',( #269 ) ) ;
#19 = ORIENTED_EDGE ( 'NONE', *, *, #194, .T. ) ;
#20 =( CONVERSION_BASED_UNIT ( 'INCH', #298 ) LENGTH_UNIT ( ) NAMED_UNIT ( #295 ) );
#21 = EDGE_LOOP ( 'NONE', ( #41, #287 ) ) ;
#22 = CARTESIAN_POINT ( 'NONE',  ( 0.0000000000000000000, 0.0000000000000000000, 0.0000000000000000000 ) ) ;
#23 = ADVANCED_FACE ( 'NONE', ( #81 ), #150, .T. ) ;
#24 = CONICAL_SURFACE ( 'NONE', #128, 0.007499999999999999722, 1.047197551196600518 ) ;
#25 = FILL_AREA_STYLE ('',( #322 ) ) ;
#26 = AXIS2_PLACEMENT_3D ( 'NONE', #57, #324, #103 ) ;
#27 = VECTOR ( 'NONE', #177, 39.37007874015748143 ) ;
#28 = VERTEX_POINT ( 'NONE', #163 ) ;
#29 = EDGE_LOOP ( 'NONE', ( #49, #294, #221, #172 ) ) ;
#30 = DIRECTION ( 'NONE',  ( -1.000000000000000000, 0.0000000000000000000, 0.0000000000000000000 ) ) ;
#31 = VECTOR ( 'NONE', #206, 39.37007874015748143 ) ;
#32 = ORIENTED_EDGE ( 'NONE', *, *, #219, .T. ) ;
#33 = FACE_BOUND ( 'NONE', #21, .T. ) ;
#34 = DIRECTION ( 'NONE',  ( -1.000000000000000000, 0.0000000000000000000, 0.0000000000000000000 ) ) ;
#35 = CARTESIAN_POINT ( 'NONE',  ( -0.1031100000000002570, 0.0000000000000000000, 2.244094000000000033 ) ) ;
#36 = CARTESIAN_POINT ( 'NONE',  ( 0.0000000000000000000, 0.0000000000000000000, 1.707404996040164512E-17 ) ) ;
#37 = SURFACE_STYLE_USAGE ( .BOTH. , #238 ) ;
#38 = DIRECTION ( 'NONE',  ( -1.000000000000000000, 0.0000000000000000000, 0.0000000000000000000 ) ) ;
#39 = LINE ( 'NONE', #208, #244 ) ;
#40 = EDGE_CURVE ( 'NONE', #121, #243, #205, .T. ) ;
#41 = ORIENTED_EDGE ( 'NONE', *, *, #75, .F. ) ;
#42 = SURFACE_STYLE_FILL_AREA ( #165 ) ;
#43 = ORIENTED_EDGE ( 'NONE', *, *, #40, .F. ) ;
#44 = AXIS2_PLACEMENT_3D ( 'NONE', #36, #110, #160 ) ;
#45 = VECTOR ( 'NONE', #202, 39.37007874015748854 ) ;
#46 = AXIS2_PLACEMENT_3D ( 'NONE', #139, #116, #85 ) ;
#47 = EDGE_CURVE ( 'NONE', #173, #52, #6, .T. ) ;
#48 = APPLICATION_CONTEXT ( 'automotive_design' ) ;
#49 = ORIENTED_EDGE ( 'NONE', *, *, #239, .F. ) ;
#50 = APPLICATION_CONTEXT ( 'automotive_design' ) ;
#51 = EDGE_LOOP ( 'NONE', ( #262, #66, #315, #326 ) ) ;
#52 = VERTEX_POINT ( 'NONE', #249 ) ;
#53 = CIRCLE ( 'NONE', #297, 0.1180600000000000815 ) ;
#54 = MECHANICAL_DESIGN_GEOMETRIC_PRESENTATION_REPRESENTATION (  '', ( #91 ), #8 ) ;
#55 = CARTESIAN_POINT ( 'NONE',  ( 0.007499999999999999722, 0.0000000000000000000, 1.707404996040164512E-17 ) ) ;
#56 = LINE ( 'NONE', #3, #132 ) ;
#57 = CARTESIAN_POINT ( 'NONE',  ( 0.0000000000000000000, 0.0000000000000000000, 0.06383184576160465251 ) ) ;
#58 = EDGE_CURVE ( 'NONE', #28, #319, #152, .T. ) ;
#59 = CARTESIAN_POINT ( 'NONE',  ( 0.0000000000000000000, 0.0000000000000000000, 0.0000000000000000000 ) ) ;
#60 = DIRECTION ( 'NONE',  ( -0.0000000000000000000, -0.0000000000000000000, -1.000000000000000000 ) ) ;
#61 = DIRECTION ( 'NONE',  ( -0.0000000000000000000, 0.0000000000000000000, -1.000000000000000000 ) ) ;
#62 = CARTESIAN_POINT ( 'NONE',  ( 0.0000000000000000000, 0.0000000000000000000, 0.6299209999999998422 ) ) ;
#63 = ADVANCED_FACE ( 'NONE', ( #158 ), #305, .F. ) ;
#64 = CARTESIAN_POINT ( 'NONE',  ( 0.0000000000000000000, 0.0000000000000000000, 2.229093999999999465 ) ) ;
#65 = DIRECTION ( 'NONE',  ( 1.000000000000000000, 0.0000000000000000000, 0.0000000000000000000 ) ) ;
#66 = ORIENTED_EDGE ( 'NONE', *, *, #94, .T. ) ;
#67 = UNCERTAINTY_MEASURE_WITH_UNIT (LENGTH_MEASURE( 1.000000000000000082E-05 ), #204, 'distance_accuracy_value', 'NONE');
#68 = DIRECTION ( 'NONE',  ( 0.0000000000000000000, 0.0000000000000000000, -1.000000000000000000 ) ) ;
#69 = PRODUCT_DEFINITION_CONTEXT ( 'detailed design', #50, 'design' ) ;
#70 = ORIENTED_EDGE ( 'NONE', *, *, #194, .F. ) ;
#71 = STYLED_ITEM ( 'NONE', ( #74 ), #169 ) ;
#72 = ORIENTED_EDGE ( 'NONE', *, *, #98, .T. ) ;
#73 =( CONVERSION_BASED_UNIT ( 'INCH', #271 ) LENGTH_UNIT ( ) NAMED_UNIT ( #79 ) );
#74 = PRESENTATION_STYLE_ASSIGNMENT (( #246 ) ) ;
#75 = EDGE_CURVE ( 'NONE', #184, #121, #9, .T. ) ;
#76 = CARTESIAN_POINT ( 'NONE',  ( 0.1031100000000002570, 1.262733314600838667E-17, 2.244094000000000033 ) ) ;
#77 = CARTESIAN_POINT ( 'NONE',  ( 0.0000000000000000000, 0.0000000000000000000, 0.6299209999999999532 ) ) ;
#78 = DIRECTION ( 'NONE',  ( -0.0000000000000000000, -0.0000000000000000000, -1.000000000000000000 ) ) ;
#79 = DIMENSIONAL_EXPONENTS ( 1.000000000000000000, 0.0000000000000000000, 0.0000000000000000000, 0.0000000000000000000, 0.0000000000000000000, 0.0000000000000000000, 0.0000000000000000000 ) ;
#80 = DIRECTION ( 'NONE',  ( -0.8660254037844400399, 1.060575238724908640E-16, 0.4999999999999976685 ) ) ;
#81 = FACE_OUTER_BOUND ( 'NONE', #296, .T. ) ;
#82 = ADVANCED_FACE ( 'NONE', ( #257 ), #282, .T. ) ;
#83 = CARTESIAN_POINT ( 'NONE',  ( 0.1181100000000000066, 1.446430334472939084E-17, 2.229093999999999465 ) ) ;
#84 = COLOUR_RGB ( '',0.7921568627450980005, 0.8196078431372548767, 0.9333333333333333481 ) ;
#85 = DIRECTION ( 'NONE',  ( -1.000000000000000000, 0.0000000000000000000, 0.0000000000000000000 ) ) ;
#86 = FACE_OUTER_BOUND ( 'NONE', #125, .T. ) ;
#87 = DIRECTION ( 'NONE',  ( -1.000000000000000000, 0.0000000000000000000, 0.0000000000000000000 ) ) ;
#88 = APPLICATION_PROTOCOL_DEFINITION ( 'draft international standard', 'automotive_design', 1998, #50 ) ;
#89 = CARTESIAN_POINT ( 'NONE',  ( 0.0000000000000000000, 0.0000000000000000000, 0.0000000000000000000 ) ) ;
#90 = CARTESIAN_POINT ( 'NONE',  ( 0.0000000000000000000, 0.0000000000000000000, 2.244094000000000033 ) ) ;
#91 = STYLED_ITEM ( 'NONE', ( #212 ), #215 ) ;
#92 = ORIENTED_EDGE ( 'NONE', *, *, #144, .F. ) ;
#93 = DIRECTION ( 'NONE',  ( -1.000000000000000000, 0.0000000000000000000, 0.0000000000000000000 ) ) ;
#94 = EDGE_CURVE ( 'NONE', #264, #52, #107, .T. ) ;
#95 = CARTESIAN_POINT ( 'NONE',  ( -0.1180600000000000815, 0.0000000000000000000, 0.6299209999999999532 ) ) ;
#96 = AXIS2_PLACEMENT_3D ( 'NONE', #62, #78, #87 ) ;
#97 = ORIENTED_EDGE ( 'NONE', *, *, #124, .T. ) ;
#98 = EDGE_CURVE ( 'NONE', #52, #173, #304, .T. ) ;
#99 = ORIENTED_EDGE ( 'NONE', *, *, #58, .F. ) ;
#100 = AXIS2_PLACEMENT_3D ( 'NONE', #255, #281, #277 ) ;
#101 = CIRCLE ( 'NONE', #210, 0.007499999999999999722 ) ;
#102 = ADVANCED_FACE ( 'NONE', ( #207 ), #24, .T. ) ;
#103 = DIRECTION ( 'NONE',  ( -1.000000000000000000, 0.0000000000000000000, 0.0000000000000000000 ) ) ;
#104 = DIRECTION ( 'NONE',  ( 1.000000000000000000, 0.0000000000000000000, 0.0000000000000000000 ) ) ;
#105 = DIRECTION ( 'NONE',  ( 0.0000000000000000000, 0.0000000000000000000, 1.000000000000000000 ) ) ;
#106 = MECHANICAL_DESIGN_GEOMETRIC_PRESENTATION_REPRESENTATION (  '', ( #71 ), #146 ) ;
#107 = LINE ( 'NONE', #133, #27 ) ;
#108 = ADVANCED_FACE ( 'NONE', ( #232 ), #10, .T. ) ;
#109 = CARTESIAN_POINT ( 'NONE',  ( 0.0000000000000000000, 0.0000000000000000000, 2.229093999999999465 ) ) ;
#110 = DIRECTION ( 'NONE',  ( -0.0000000000000000000, -0.0000000000000000000, -1.000000000000000000 ) ) ;
#111 = LINE ( 'NONE', #2, #162 ) ;
#112 = AXIS2_PLACEMENT_3D ( 'NONE', #59, #136, #227 ) ;
#113 = FACE_OUTER_BOUND ( 'NONE', #164, .T. ) ;
#114 = AXIS2_PLACEMENT_3D ( 'NONE', #154, #260, #34 ) ;
#115 = LENGTH_MEASURE_WITH_UNIT ( LENGTH_MEASURE( 0.02539999999999999897 ), #181 );
#116 = DIRECTION ( 'NONE',  ( -0.0000000000000000000, -0.0000000000000000000, -1.000000000000000000 ) ) ;
#117 = FACE_OUTER_BOUND ( 'NONE', #14, .T. ) ;
#118 = DIRECTION ( 'NONE',  ( -0.0000000000000000000, -0.0000000000000000000, -1.000000000000000000 ) ) ;
#119 = DIRECTION ( 'NONE',  ( -1.000000000000000000, 0.0000000000000000000, 0.0000000000000000000 ) ) ;
#120 = CIRCLE ( 'NONE', #100, 0.1180600000000000399 ) ;
#121 = VERTEX_POINT ( 'NONE', #7 ) ;
#122 = CIRCLE ( 'NONE', #220, 0.1181100000000000066 ) ;
#123 = AXIS2_PLACEMENT_3D ( 'NONE', #22, #325, #104 ) ;
#124 = EDGE_CURVE ( 'NONE', #319, #28, #101, .T. ) ;
#125 = EDGE_LOOP ( 'NONE', ( #19, #323 ) ) ;
#126 = ORIENTED_EDGE ( 'NONE', *, *, #137, .F. ) ;
#127 = VECTOR ( 'NONE', #303, 39.37007874015748143 ) ;
#128 = AXIS2_PLACEMENT_3D ( 'NONE', #278, #176, #254 ) ;
#129 = ORIENTED_EDGE ( 'NONE', *, *, #40, .T. ) ;
#130 = LINE ( 'NONE', #35, #168 ) ;
#131 = ADVANCED_FACE ( 'NONE', ( #33, #113 ), #135, .T. ) ;
#132 = VECTOR ( 'NONE', #225, 39.37007874015748143 ) ;
#133 = CARTESIAN_POINT ( 'NONE',  ( 0.1181100000000000066, 1.446430334472939084E-17, 2.244094000000000033 ) ) ;
#134 = VERTEX_POINT ( 'NONE', #161 ) ;
#135 = PLANE ( 'NONE',  #170 ) ;
#136 = DIRECTION ( 'NONE',  ( -0.0000000000000000000, -0.0000000000000000000, -1.000000000000000000 ) ) ;
#137 = EDGE_CURVE ( 'NONE', #319, #243, #261, .T. ) ;
#138 = DIRECTION ( 'NONE',  ( -0.7071067811865358044, 0.0000000000000000000, -0.7071067811865590080 ) ) ;
#139 = CARTESIAN_POINT ( 'NONE',  ( 0.0000000000000000000, 0.0000000000000000000, 0.0000000000000000000 ) ) ;
#140 = CYLINDRICAL_SURFACE ( 'NONE', #46, 0.1180600000000000538 ) ;
#141 = FACE_OUTER_BOUND ( 'NONE', #217, .T. ) ;
#142 = ORIENTED_EDGE ( 'NONE', *, *, #272, .T. ) ;
#143 = CARTESIAN_POINT ( 'NONE',  ( 0.0000000000000000000, 0.0000000000000000000, 2.244094000000000033 ) ) ;
#144 = EDGE_CURVE ( 'NONE', #184, #237, #39, .T. ) ;
#145 = EDGE_LOOP ( 'NONE', ( #318, #129, #153, #92 ) ) ;
#146 =( GEOMETRIC_REPRESENTATION_CONTEXT ( 3 ) GLOBAL_UNCERTAINTY_ASSIGNED_CONTEXT ( ( #316 ) ) GLOBAL_UNIT_ASSIGNED_CONTEXT ( ( #73, #171, #191 ) ) REPRESENTATION_CONTEXT ( 'NONE', 'WORKASPACE' ) );
#147 = VERTEX_POINT ( 'NONE', #259 ) ;
#148 = ORIENTED_EDGE ( 'NONE', *, *, #174, .F. ) ;
#149 = DIMENSIONAL_EXPONENTS ( 1.000000000000000000, 0.0000000000000000000, 0.0000000000000000000, 0.0000000000000000000, 0.0000000000000000000, 0.0000000000000000000, 0.0000000000000000000 ) ;
#150 = CONICAL_SURFACE ( 'NONE', #114, 0.1031100000000002570, 0.7853981633974318477 ) ;
#151 = APPLICATION_PROTOCOL_DEFINITION ( 'draft international standard', 'automotive_design', 1998, #48 ) ;
#152 = CIRCLE ( 'NONE', #44, 0.007499999999999999722 ) ;
#153 = ORIENTED_EDGE ( 'NONE', *, *, #272, .F. ) ;
#154 = CARTESIAN_POINT ( 'NONE',  ( 0.0000000000000000000, 0.0000000000000000000, 2.244094000000000033 ) ) ;
#155 = ORIENTED_EDGE ( 'NONE', *, *, #291, .T. ) ;
#156 = CIRCLE ( 'NONE', #195, 0.1031100000000002570 ) ;
#157 = CARTESIAN_POINT ( 'NONE',  ( 0.0000000000000000000, 0.0000000000000000000, 1.707404996040164512E-17 ) ) ;
#158 = FACE_OUTER_BOUND ( 'NONE', #241, .T. ) ;
#159 = CARTESIAN_POINT ( 'NONE',  ( 0.1031100000000002570, 1.354581824536888722E-17, 2.244094000000000033 ) ) ;
#160 = DIRECTION ( 'NONE',  ( -1.000000000000000000, 0.0000000000000000000, 0.0000000000000000000 ) ) ;
#161 = CARTESIAN_POINT ( 'NONE',  ( -0.1031100000000002570, 0.0000000000000000000, 2.244094000000000033 ) ) ;
#162 = VECTOR ( 'NONE', #80, 39.37007874015748143 ) ;
#163 = CARTESIAN_POINT ( 'NONE',  ( -0.007499999999999999722, 7.688332605047085947E-18, 1.707404996040164512E-17 ) ) ;
#164 = EDGE_LOOP ( 'NONE', ( #167, #72 ) ) ;
#165 = FILL_AREA_STYLE ('',( #288 ) ) ;
#166 = CARTESIAN_POINT ( 'NONE',  ( 0.0000000000000000000, 0.0000000000000000000, 2.244094000000000033 ) ) ;
#167 = ORIENTED_EDGE ( 'NONE', *, *, #47, .T. ) ;
#168 = VECTOR ( 'NONE', #138, 39.37007874015748854 ) ;
#169 = ADVANCED_BREP_SHAPE_REPRESENTATION ( 'Micro_DMM-060-2120', ( #215, #123 ), #268 ) ;
#170 = AXIS2_PLACEMENT_3D ( 'NONE', #180, #61, #93 ) ;
#171 =( NAMED_UNIT ( * ) PLANE_ANGLE_UNIT ( ) SI_UNIT ( $, .RADIAN. ) );
#172 = ORIENTED_EDGE ( 'NONE', *, *, #293, .T. ) ;
#173 = VERTEX_POINT ( 'NONE', #290 ) ;
#174 = EDGE_CURVE ( 'NONE', #289, #134, #321, .T. ) ;
#175 = DIRECTION ( 'NONE',  ( -0.0000000000000000000, -0.0000000000000000000, -1.000000000000000000 ) ) ;
#176 = DIRECTION ( 'NONE',  ( 0.0000000000000000000, 0.0000000000000000000, 1.000000000000000000 ) ) ;
#177 = DIRECTION ( 'NONE',  ( -0.0000000000000000000, -0.0000000000000000000, -1.000000000000000000 ) ) ;
#178 = EDGE_CURVE ( 'NONE', #147, #264, #122, .T. ) ;
#179 = CARTESIAN_POINT ( 'NONE',  ( 0.0000000000000000000, 0.0000000000000000000, 2.244094000000000033 ) ) ;
#180 = CARTESIAN_POINT ( 'NONE',  ( 0.1180600000000000815, 0.0000000000000000000, 0.6299209999999999532 ) ) ;
#181 =( LENGTH_UNIT ( ) NAMED_UNIT ( * ) SI_UNIT ( $, .METRE. ) );
#182 = DIRECTION ( 'NONE',  ( -1.000000000000000000, 0.0000000000000000000, 0.0000000000000000000 ) ) ;
#183 = DIRECTION ( 'NONE',  ( -0.0000000000000000000, -0.0000000000000000000, -1.000000000000000000 ) ) ;
#184 = VERTEX_POINT ( 'NONE', #95 ) ;
#185 = DIRECTION ( 'NONE',  ( -1.000000000000000000, 0.0000000000000000000, 0.0000000000000000000 ) ) ;
#186 = ORIENTED_EDGE ( 'NONE', *, *, #98, .F. ) ;
#187 = DIRECTION ( 'NONE',  ( 0.0000000000000000000, 0.0000000000000000000, 1.000000000000000000 ) ) ;
#188 = ADVANCED_FACE ( 'NONE', ( #117 ), #280, .T. ) ;
#189 = AXIS2_PLACEMENT_3D ( 'NONE', #284, #60, #182 ) ;
#190 = CIRCLE ( 'NONE', #230, 0.1181100000000000066 ) ;
#191 =( NAMED_UNIT ( * ) SI_UNIT ( $, .STERADIAN. ) SOLID_ANGLE_UNIT ( ) );
#192 = EDGE_LOOP ( 'NONE', ( #43, #311, #267, #222 ) ) ;
#193 = ORIENTED_EDGE ( 'NONE', *, *, #245, .F. ) ;
#194 = EDGE_CURVE ( 'NONE', #134, #289, #156, .T. ) ;
#195 = AXIS2_PLACEMENT_3D ( 'NONE', #90, #187, #13 ) ;
#196 = DIRECTION ( 'NONE',  ( 1.000000000000000000, 0.0000000000000000000, 0.0000000000000000000 ) ) ;
#197 = DIRECTION ( 'NONE',  ( 0.0000000000000000000, 0.0000000000000000000, 1.000000000000000000 ) ) ;
#198 = PRODUCT_DEFINITION_SHAPE ( 'NONE', 'NONE',  #213 ) ;
#199 = DIRECTION ( 'NONE',  ( 0.0000000000000000000, 0.0000000000000000000, 1.000000000000000000 ) ) ;
#200 = ADVANCED_FACE ( 'NONE', ( #141 ), #11, .T. ) ;
#201 = DIRECTION ( 'NONE',  ( 0.0000000000000000000, 0.0000000000000000000, -1.000000000000000000 ) ) ;
#202 = DIRECTION ( 'NONE',  ( 0.7071067811865358044, 8.659560562354788645E-17, -0.7071067811865590080 ) ) ;
#203 = DIRECTION ( 'NONE',  ( 1.000000000000000000, 0.0000000000000000000, -0.0000000000000000000 ) ) ;
#204 =( CONVERSION_BASED_UNIT ( 'INCH', #115 ) LENGTH_UNIT ( ) NAMED_UNIT ( #149 ) );
#205 = LINE ( 'NONE', #309, #127 ) ;
#206 = DIRECTION ( 'NONE',  ( 0.8660254037844400399, 0.0000000000000000000, 0.4999999999999976685 ) ) ;
#207 = FACE_OUTER_BOUND ( 'NONE', #247, .T. ) ;
#208 = CARTESIAN_POINT ( 'NONE',  ( -0.1180600000000000538, 0.0000000000000000000, 0.0000000000000000000 ) ) ;
#209 = AXIS2_PLACEMENT_3D ( 'NONE', #143, #183, #185 ) ;
#210 = AXIS2_PLACEMENT_3D ( 'NONE', #157, #252, #276 ) ;
#211 = ORIENTED_EDGE ( 'NONE', *, *, #219, .F. ) ;
#212 = PRESENTATION_STYLE_ASSIGNMENT (( #37 ) ) ;
#213 = PRODUCT_DEFINITION ( 'UNKNOWN', '', #328, #69 ) ;
#214 = CONICAL_SURFACE ( 'NONE', #17, 0.007499999999999999722, 1.047197551196600518 ) ;
#215 = MANIFOLD_SOLID_BREP ( 'Cut-Revolve4', #292 ) ;
#216 =( LENGTH_UNIT ( ) NAMED_UNIT ( * ) SI_UNIT ( $, .METRE. ) );
#217 = EDGE_LOOP ( 'NONE', ( #270, #218, #1, #186 ) ) ;
#218 = ORIENTED_EDGE ( 'NONE', *, *, #245, .T. ) ;
#219 = EDGE_CURVE ( 'NONE', #289, #264, #263, .T. ) ;
#220 = AXIS2_PLACEMENT_3D ( 'NONE', #64, #68, #313 ) ;
#221 = ORIENTED_EDGE ( 'NONE', *, *, #137, .T. ) ;
#222 = ORIENTED_EDGE ( 'NONE', *, *, #293, .F. ) ;
#223 = FACE_OUTER_BOUND ( 'NONE', #29, .T. ) ;
#224 = CARTESIAN_POINT ( 'NONE',  ( 0.0000000000000000000, 0.0000000000000000000, 2.244094000000000033 ) ) ;
#225 = DIRECTION ( 'NONE',  ( -0.0000000000000000000, -0.0000000000000000000, -1.000000000000000000 ) ) ;
#226 =( NAMED_UNIT ( * ) SI_UNIT ( $, .STERADIAN. ) SOLID_ANGLE_UNIT ( ) );
#227 = DIRECTION ( 'NONE',  ( -1.000000000000000000, 0.0000000000000000000, 0.0000000000000000000 ) ) ;
#228 = CIRCLE ( 'NONE', #26, 0.1180600000000000399 ) ;
#229 = DIRECTION ( 'NONE',  ( 0.0000000000000000000, 0.0000000000000000000, -1.000000000000000000 ) ) ;
#230 = AXIS2_PLACEMENT_3D ( 'NONE', #109, #201, #196 ) ;
#231 = AXIS2_PLACEMENT_3D ( 'NONE', #89, #199, #203 ) ;
#232 = FACE_OUTER_BOUND ( 'NONE', #192, .T. ) ;
#233 = DIRECTION ( 'NONE',  ( -0.0000000000000000000, -0.0000000000000000000, -1.000000000000000000 ) ) ;
#234 = ADVANCED_FACE ( 'NONE', ( #86 ), #253, .T. ) ;
#235 = DIRECTION ( 'NONE',  ( -0.0000000000000000000, -0.0000000000000000000, -1.000000000000000000 ) ) ;
#236 = CARTESIAN_POINT ( 'NONE',  ( 0.007499999999999999722, 0.0000000000000000000, 1.707404996040164512E-17 ) ) ;
#237 = VERTEX_POINT ( 'NONE', #301 ) ;
#238 = SURFACE_SIDE_STYLE ('',( #42 ) ) ;
#239 = EDGE_CURVE ( 'NONE', #28, #237, #111, .T. ) ;
#240 =( LENGTH_UNIT ( ) NAMED_UNIT ( * ) SI_UNIT ( $, .METRE. ) );
#241 = EDGE_LOOP ( 'NONE', ( #97, #248 ) ) ;
#242 = ORIENTED_EDGE ( 'NONE', *, *, #178, .F. ) ;
#243 = VERTEX_POINT ( 'NONE', #306 ) ;
#244 = VECTOR ( 'NONE', #233, 39.37007874015748143 ) ;
#245 = EDGE_CURVE ( 'NONE', #264, #147, #190, .T. ) ;
#246 = SURFACE_STYLE_USAGE ( .BOTH. , #18 ) ;
#247 = EDGE_LOOP ( 'NONE', ( #99, #273, #142, #126 ) ) ;
#248 = ORIENTED_EDGE ( 'NONE', *, *, #58, .T. ) ;
#249 = CARTESIAN_POINT ( 'NONE',  ( 0.1181100000000000066, 1.446430334472939084E-17, 0.6299209999999998422 ) ) ;
#250 = ORIENTED_EDGE ( 'NONE', *, *, #291, .F. ) ;
#251 = AXIS2_PLACEMENT_3D ( 'NONE', #310, #286, #65 ) ;
#252 = DIRECTION ( 'NONE',  ( -0.0000000000000000000, -0.0000000000000000000, -1.000000000000000000 ) ) ;
#253 = PLANE ( 'NONE',  #258 ) ;
#254 = DIRECTION ( 'NONE',  ( 1.000000000000000000, 0.0000000000000000000, 0.0000000000000000000 ) ) ;
#255 = CARTESIAN_POINT ( 'NONE',  ( 0.0000000000000000000, 0.0000000000000000000, 0.06383184576160465251 ) ) ;
#256 = PRODUCT_CONTEXT ( 'NONE', #48, 'mechanical' ) ;
#257 = FACE_OUTER_BOUND ( 'NONE', #51, .T. ) ;
#258 = AXIS2_PLACEMENT_3D ( 'NONE', #224, #197, #5 ) ;
#259 = CARTESIAN_POINT ( 'NONE',  ( -0.1181100000000000066, 0.0000000000000000000, 2.229093999999999465 ) ) ;
#260 = DIRECTION ( 'NONE',  ( 0.0000000000000000000, 0.0000000000000000000, -1.000000000000000000 ) ) ;
#261 = LINE ( 'NONE', #236, #31 ) ;
#262 = ORIENTED_EDGE ( 'NONE', *, *, #178, .T. ) ;
#263 = LINE ( 'NONE', #76, #45 ) ;
#264 = VERTEX_POINT ( 'NONE', #83 ) ;
#265 = UNCERTAINTY_MEASURE_WITH_UNIT (LENGTH_MEASURE( 1.000000000000000082E-05 ), #20, 'distance_accuracy_value', 'NONE');
#266 = PRODUCT_RELATED_PRODUCT_CATEGORY ( 'part', '', ( #302 ) ) ;
#267 = ORIENTED_EDGE ( 'NONE', *, *, #144, .T. ) ;
#268 =( GEOMETRIC_REPRESENTATION_CONTEXT ( 3 ) GLOBAL_UNCERTAINTY_ASSIGNED_CONTEXT ( ( #265 ) ) GLOBAL_UNIT_ASSIGNED_CONTEXT ( ( #20, #320, #299 ) ) REPRESENTATION_CONTEXT ( 'NONE', 'WORKASPACE' ) );
#269 = SURFACE_STYLE_FILL_AREA ( #25 ) ;
#270 = ORIENTED_EDGE ( 'NONE', *, *, #94, .F. ) ;
#271 = LENGTH_MEASURE_WITH_UNIT ( LENGTH_MEASURE( 0.02539999999999999897 ), #216 );
#272 = EDGE_CURVE ( 'NONE', #237, #243, #120, .T. ) ;
#273 = ORIENTED_EDGE ( 'NONE', *, *, #239, .T. ) ;
#274 = DIRECTION ( 'NONE',  ( -1.000000000000000000, 0.0000000000000000000, 0.0000000000000000000 ) ) ;
#275 = SHAPE_DEFINITION_REPRESENTATION ( #198, #169 ) ;
#276 = DIRECTION ( 'NONE',  ( -1.000000000000000000, 0.0000000000000000000, 0.0000000000000000000 ) ) ;
#277 = DIRECTION ( 'NONE',  ( -1.000000000000000000, 0.0000000000000000000, 0.0000000000000000000 ) ) ;
#278 = CARTESIAN_POINT ( 'NONE',  ( 0.0000000000000000000, 0.0000000000000000000, 1.707404996040164512E-17 ) ) ;
#279 = PRESENTATION_LAYER_ASSIGNMENT (  '', '', ( #91 ) ) ;
#280 = CONICAL_SURFACE ( 'NONE', #15, 0.1031100000000002570, 0.7853981633974318477 ) ;
#281 = DIRECTION ( 'NONE',  ( -0.0000000000000000000, -0.0000000000000000000, -1.000000000000000000 ) ) ;
#282 = CYLINDRICAL_SURFACE ( 'NONE', #314, 0.1181100000000000066 ) ;
#283 =( NAMED_UNIT ( * ) PLANE_ANGLE_UNIT ( ) SI_UNIT ( $, .RADIAN. ) );
#284 = CARTESIAN_POINT ( 'NONE',  ( 0.0000000000000000000, 0.0000000000000000000, 0.6299209999999998422 ) ) ;
#285 = PRESENTATION_LAYER_ASSIGNMENT (  '', '', ( #71 ) ) ;
#286 = DIRECTION ( 'NONE',  ( 0.0000000000000000000, 0.0000000000000000000, 1.000000000000000000 ) ) ;
#287 = ORIENTED_EDGE ( 'NONE', *, *, #317, .F. ) ;
#288 = FILL_AREA_STYLE_COLOUR ( '', #312 ) ;
#289 = VERTEX_POINT ( 'NONE', #159 ) ;
#290 = CARTESIAN_POINT ( 'NONE',  ( -0.1181100000000000066, 0.0000000000000000000, 0.6299209999999998422 ) ) ;
#291 = EDGE_CURVE ( 'NONE', #134, #147, #130, .T. ) ;
#292 = CLOSED_SHELL ( 'NONE', ( #16, #102, #23, #82, #200, #234, #188, #131, #307, #108, #63 ) ) ;
#293 = EDGE_CURVE ( 'NONE', #243, #237, #228, .T. ) ;
#294 = ORIENTED_EDGE ( 'NONE', *, *, #124, .F. ) ;
#295 = DIMENSIONAL_EXPONENTS ( 1.000000000000000000, 0.0000000000000000000, 0.0000000000000000000, 0.0000000000000000000, 0.0000000000000000000, 0.0000000000000000000, 0.0000000000000000000 ) ;
#296 = EDGE_LOOP ( 'NONE', ( #148, #32, #242, #250 ) ) ;
#297 = AXIS2_PLACEMENT_3D ( 'NONE', #77, #175, #274 ) ;
#298 = LENGTH_MEASURE_WITH_UNIT ( LENGTH_MEASURE( 0.02539999999999999897 ), #240 );
#299 =( NAMED_UNIT ( * ) SI_UNIT ( $, .STERADIAN. ) SOLID_ANGLE_UNIT ( ) );
#300 = DIRECTION ( 'NONE',  ( 1.000000000000000000, 0.0000000000000000000, 0.0000000000000000000 ) ) ;
#301 = CARTESIAN_POINT ( 'NONE',  ( -0.1180600000000000538, 1.445818011073365594E-17, 0.06383184576160465251 ) ) ;
#302 = PRODUCT ( 'Micro_DMM-060-2120', 'Micro_DMM-060-2120', '', ( #256 ) ) ;
#303 = DIRECTION ( 'NONE',  ( -0.0000000000000000000, -0.0000000000000000000, -1.000000000000000000 ) ) ;
#304 = CIRCLE ( 'NONE', #96, 0.1181100000000000066 ) ;
#305 = PLANE ( 'NONE',  #231 ) ;
#306 = CARTESIAN_POINT ( 'NONE',  ( 0.1180600000000000538, 0.0000000000000000000, 0.06383184576160465251 ) ) ;
#307 = ADVANCED_FACE ( 'NONE', ( #223 ), #214, .T. ) ;
#308 = FACE_OUTER_BOUND ( 'NONE', #145, .T. ) ;
#309 = CARTESIAN_POINT ( 'NONE',  ( 0.1180600000000000538, 1.445818011073365902E-17, 0.0000000000000000000 ) ) ;
#310 = CARTESIAN_POINT ( 'NONE',  ( 0.0000000000000000000, 0.0000000000000000000, 2.244094000000000033 ) ) ;
#311 = ORIENTED_EDGE ( 'NONE', *, *, #317, .T. ) ;
#312 = COLOUR_RGB ( '',0.7921568627450980005, 0.8196078431372548767, 0.9333333333333333481 ) ;
#313 = DIRECTION ( 'NONE',  ( 1.000000000000000000, 0.0000000000000000000, 0.0000000000000000000 ) ) ;
#314 = AXIS2_PLACEMENT_3D ( 'NONE', #179, #118, #38 ) ;
#315 = ORIENTED_EDGE ( 'NONE', *, *, #47, .F. ) ;
#316 = UNCERTAINTY_MEASURE_WITH_UNIT (LENGTH_MEASURE( 1.000000000000000082E-05 ), #73, 'distance_accuracy_value', 'NONE');
#317 = EDGE_CURVE ( 'NONE', #121, #184, #53, .T. ) ;
#318 = ORIENTED_EDGE ( 'NONE', *, *, #75, .T. ) ;
#319 = VERTEX_POINT ( 'NONE', #55 ) ;
#320 =( NAMED_UNIT ( * ) PLANE_ANGLE_UNIT ( ) SI_UNIT ( $, .RADIAN. ) );
#321 = CIRCLE ( 'NONE', #251, 0.1031100000000002570 ) ;
#322 = FILL_AREA_STYLE_COLOUR ( '', #84 ) ;
#323 = ORIENTED_EDGE ( 'NONE', *, *, #174, .T. ) ;
#324 = DIRECTION ( 'NONE',  ( -0.0000000000000000000, -0.0000000000000000000, -1.000000000000000000 ) ) ;
#325 = DIRECTION ( 'NONE',  ( 0.0000000000000000000, 0.0000000000000000000, 1.000000000000000000 ) ) ;
#326 = ORIENTED_EDGE ( 'NONE', *, *, #4, .F. ) ;
#327 = CARTESIAN_POINT ( 'NONE',  ( 0.0000000000000000000, 0.0000000000000000000, 1.707404996040164512E-17 ) ) ;
#328 = PRODUCT_DEFINITION_FORMATION_WITH_SPECIFIED_SOURCE ( 'ANY', '', #302, .NOT_KNOWN. ) ;
#329 = AXIS2_PLACEMENT_3D ( 'NONE', #12, #235, #30 ) ;
ENDSEC;
END-ISO-10303-21;
