ISO-10303-21;
HEADER;
FILE_DESCRIPTION (( 'STEP AP214' ),
    '1' );
FILE_NAME ('48485.STEP',
    '2023-06-22T21:40:20',
    ( '' ),
    ( '' ),
    'SwSTEP 2.0',
    'SolidWorks 2023',
    '' );
FILE_SCHEMA (( 'AUTOMOTIVE_DESIGN' ));
ENDSEC;

DATA;
#1 = FILL_AREA_STYLE_COLOUR ( '', #277 ) ;
#2 =( GEOMETRIC_REPRESENTATION_CONTEXT ( 3 ) GLOBAL_UNCERTAINTY_ASSIGNED_CONTEXT ( ( #77 ) ) GLOBAL_UNIT_ASSIGNED_CONTEXT ( ( #193, #289, #306 ) ) REPRESENTATION_CONTEXT ( 'NONE', 'WORKASPACE' ) );
#3 = SURFACE_SIDE_STYLE ('',( #203 ) ) ;
#4 = CARTESIAN_POINT ( 'NONE',  ( 0.000000000000000000, 0.000000000000000000, -0.3125000000000000000 ) ) ;
#5 = FILL_AREA_STYLE ('',( #1 ) ) ;
#6 =( CONVERSION_BASED_UNIT ( 'INCH', #102 ) LENGTH_UNIT ( ) NAMED_UNIT ( #288 ) );
#7 = SURFACE_STYLE_USAGE ( .BOTH. , #101 ) ;
#8 = STYLED_ITEM ( 'NONE', ( #65 ), #121 ) ;
#9 = VECTOR ( 'NONE', #120, 39.37007874015748143 ) ;
#10 =( CONVERSION_BASED_UNIT ( 'INCH', #155 ) LENGTH_UNIT ( ) NAMED_UNIT ( #79 ) );
#11 = DIRECTION ( 'NONE',  ( 5.442874662877122626E-17, 1.000000000000000000, -0.000000000000000000 ) ) ;
#12 = FILL_AREA_STYLE ('',( #105 ) ) ;
#13 = CLOSED_SHELL ( 'NONE', ( #226, #187, #309, #111 ) ) ;
#14 = VERTEX_POINT ( 'NONE', #247 ) ;
#15 = FACE_OUTER_BOUND ( 'NONE', #245, .T. ) ;
#16 = ORIENTED_EDGE ( 'NONE', *, *, #197, .T. ) ;
#17 = CARTESIAN_POINT ( 'NONE',  ( 4.628888218092148898E-34, 0.7499999999999998890, 0.000000000000000000 ) ) ;
#18 = AXIS2_PLACEMENT_3D ( 'NONE', #206, #272, #60 ) ;
#19 = CIRCLE ( 'NONE', #92, 0.3125000000000000000 ) ;
#20 = DIRECTION ( 'NONE',  ( -0.000000000000000000, -1.000000000000000000, -0.000000000000000000 ) ) ;
#21 = DIRECTION ( 'NONE',  ( 0.000000000000000000, -0.000000000000000000, 1.000000000000000000 ) ) ;
#22 = CYLINDRICAL_SURFACE ( 'NONE', #68, 0.3125000000000000000 ) ;
#23 = EDGE_CURVE ( 'NONE', #66, #149, #218, .T. ) ;
#24 = CIRCLE ( 'NONE', #228, 0.3124999999999998890 ) ;
#25 = SURFACE_STYLE_USAGE ( .BOTH. , #42 ) ;
#26 = DIRECTION ( 'NONE',  ( 0.000000000000000000, 0.000000000000000000, -1.000000000000000000 ) ) ;
#27 = VERTEX_POINT ( 'NONE', #164 ) ;
#28 = PRESENTATION_STYLE_ASSIGNMENT (( #189 ) ) ;
#29 = PRODUCT_CONTEXT ( 'NONE', #290, 'mechanical' ) ;
#30 = DIRECTION ( 'NONE',  ( -5.442874662877122010E-17, -1.000000000000000000, 0.000000000000000000 ) ) ;
#31 =( NAMED_UNIT ( * ) SI_UNIT ( $, .STERADIAN. ) SOLID_ANGLE_UNIT ( ) );
#32 = STYLED_ITEM ( 'NONE', ( #199 ), #187 ) ;
#33 = EDGE_CURVE ( 'NONE', #44, #222, #237, .T. ) ;
#34 = CARTESIAN_POINT ( 'NONE',  ( -0.3124999999999998335, 3.000000000000000444, 0.000000000000000000 ) ) ;
#35 = ORIENTED_EDGE ( 'NONE', *, *, #160, .F. ) ;
#36 = DIRECTION ( 'NONE',  ( 1.000000000000000000, -5.442874662877122010E-17, 0.000000000000000000 ) ) ;
#37 = DIRECTION ( 'NONE',  ( -1.000000000000000000, 5.442874662877122010E-17, 0.000000000000000000 ) ) ;
#38 = CARTESIAN_POINT ( 'NONE',  ( 0.000000000000000000, 0.7499999999999998890, -0.3125000000000000000 ) ) ;
#39 = VECTOR ( 'NONE', #173, 39.37007874015748143 ) ;
#40 = FILL_AREA_STYLE ('',( #167 ) ) ;
#41 =( NAMED_UNIT ( * ) SI_UNIT ( $, .STERADIAN. ) SOLID_ANGLE_UNIT ( ) );
#42 = SURFACE_SIDE_STYLE ('',( #93 ) ) ;
#43 =( NAMED_UNIT ( * ) SI_UNIT ( $, .STERADIAN. ) SOLID_ANGLE_UNIT ( ) );
#44 = VERTEX_POINT ( 'NONE', #38 ) ;
#45 = FACE_OUTER_BOUND ( 'NONE', #107, .T. ) ;
#46 = FACE_OUTER_BOUND ( 'NONE', #295, .T. ) ;
#47 = AXIS2_PLACEMENT_3D ( 'NONE', #274, #234, #116 ) ;
#48 = CARTESIAN_POINT ( 'NONE',  ( 0.3125000000000000555, 3.000000000000000444, 3.827021247335477694E-17 ) ) ;
#49 = PRESENTATION_LAYER_ASSIGNMENT (  '', '', ( #32 ) ) ;
#50 = VERTEX_POINT ( 'NONE', #82 ) ;
#51 = DIRECTION ( 'NONE',  ( 5.442874662877122626E-17, 1.000000000000000000, -0.000000000000000000 ) ) ;
#52 = ORIENTED_EDGE ( 'NONE', *, *, #156, .F. ) ;
#53 = PRESENTATION_STYLE_ASSIGNMENT (( #180 ) ) ;
#54 = CARTESIAN_POINT ( 'NONE',  ( 3.827021247335478926E-17, 0.000000000000000000, 0.3125000000000000000 ) ) ;
#55 = COLOUR_RGB ( '',0.7921568627450980005, 0.8196078431372548767, 0.9333333333333333481 ) ;
#56 = CIRCLE ( 'NONE', #184, 0.3124999999999998890 ) ;
#57 = EDGE_CURVE ( 'NONE', #222, #44, #80, .T. ) ;
#58 = ORIENTED_EDGE ( 'NONE', *, *, #33, .F. ) ;
#59 = FILL_AREA_STYLE_COLOUR ( '', #269 ) ;
#60 = DIRECTION ( 'NONE',  ( 0.000000000000000000, 0.000000000000000000, -1.000000000000000000 ) ) ;
#61 = UNCERTAINTY_MEASURE_WITH_UNIT (LENGTH_MEASURE( 1.000000000000000082E-05 ), #87, 'distance_accuracy_value', 'NONE');
#62 = VECTOR ( 'NONE', #176, 39.37007874015748143 ) ;
#63 = SURFACE_SIDE_STYLE ('',( #250 ) ) ;
#64 = ADVANCED_FACE ( 'NONE', ( #86 ), #161, .F. ) ;
#65 = PRESENTATION_STYLE_ASSIGNMENT (( #279 ) ) ;
#66 = VERTEX_POINT ( 'NONE', #112 ) ;
#67 = ADVANCED_FACE ( 'NONE', ( #230 ), #158, .T. ) ;
#68 = AXIS2_PLACEMENT_3D ( 'NONE', #168, #283, #89 ) ;
#69 =( NAMED_UNIT ( * ) PLANE_ANGLE_UNIT ( ) SI_UNIT ( $, .RADIAN. ) );
#70 = DIRECTION ( 'NONE',  ( 5.442874662877122626E-17, 1.000000000000000000, -0.000000000000000000 ) ) ;
#71 = ORIENTED_EDGE ( 'NONE', *, *, #231, .F. ) ;
#72 = PLANE ( 'NONE',  #282 ) ;
#73 = DIRECTION ( 'NONE',  ( -1.000000000000000000, 0.000000000000000000, 0.000000000000000000 ) ) ;
#74 = COLOUR_RGB ( '',1.000000000000000000, 0.000000000000000000, 0.000000000000000000 ) ;
#75 =( GEOMETRIC_REPRESENTATION_CONTEXT ( 3 ) GLOBAL_UNCERTAINTY_ASSIGNED_CONTEXT ( ( #115 ) ) GLOBAL_UNIT_ASSIGNED_CONTEXT ( ( #6, #178, #221 ) ) REPRESENTATION_CONTEXT ( 'NONE', 'WORKASPACE' ) );
#76 = ORIENTED_EDGE ( 'NONE', *, *, #57, .T. ) ;
#77 = UNCERTAINTY_MEASURE_WITH_UNIT (LENGTH_MEASURE( 1.000000000000000082E-05 ), #193, 'distance_accuracy_value', 'NONE');
#78 = FILL_AREA_STYLE ('',( #265 ) ) ;
#79 = DIMENSIONAL_EXPONENTS ( 1.000000000000000000, 0.000000000000000000, 0.000000000000000000, 0.000000000000000000, 0.000000000000000000, 0.000000000000000000, 0.000000000000000000 ) ;
#80 = CIRCLE ( 'NONE', #47, 0.3125000000000000000 ) ;
#81 = AXIS2_PLACEMENT_3D ( 'NONE', #113, #259, #174 ) ;
#82 = CARTESIAN_POINT ( 'NONE',  ( 0.3125000000000000000, 0.7499999999999998890, 3.827021247335477694E-17 ) ) ;
#83 = ORIENTED_EDGE ( 'NONE', *, *, #57, .F. ) ;
#84 = SURFACE_STYLE_FILL_AREA ( #12 ) ;
#85 = AXIS2_PLACEMENT_3D ( 'NONE', #302, #20, #137 ) ;
#86 = FACE_OUTER_BOUND ( 'NONE', #229, .T. ) ;
#87 =( CONVERSION_BASED_UNIT ( 'INCH', #252 ) LENGTH_UNIT ( ) NAMED_UNIT ( #96 ) );
#88 = DIRECTION ( 'NONE',  ( 0.000000000000000000, 0.000000000000000000, -1.000000000000000000 ) ) ;
#89 = DIRECTION ( 'NONE',  ( 0.000000000000000000, 0.000000000000000000, -1.000000000000000000 ) ) ;
#90 = DIRECTION ( 'NONE',  ( 0.000000000000000000, 1.000000000000000000, 0.000000000000000000 ) ) ;
#91 = AXIS2_PLACEMENT_3D ( 'NONE', #215, #235, #88 ) ;
#92 = AXIS2_PLACEMENT_3D ( 'NONE', #214, #219, #268 ) ;
#93 = SURFACE_STYLE_FILL_AREA ( #40 ) ;
#94 =( LENGTH_UNIT ( ) NAMED_UNIT ( * ) SI_UNIT ( $, .METRE. ) );
#95 = FACE_OUTER_BOUND ( 'NONE', #296, .T. ) ;
#96 = DIMENSIONAL_EXPONENTS ( 1.000000000000000000, 0.000000000000000000, 0.000000000000000000, 0.000000000000000000, 0.000000000000000000, 0.000000000000000000, 0.000000000000000000 ) ;
#97 = DIRECTION ( 'NONE',  ( -1.000000000000000000, 0.000000000000000000, 0.000000000000000000 ) ) ;
#98 = AXIS2_PLACEMENT_3D ( 'NONE', #286, #171, #26 ) ;
#99 = ADVANCED_BREP_SHAPE_REPRESENTATION ( '48485', ( #121, #130, #81 ), #224 ) ;
#100 = EDGE_CURVE ( 'NONE', #50, #14, #300, .T. ) ;
#101 = SURFACE_SIDE_STYLE ('',( #261 ) ) ;
#102 = LENGTH_MEASURE_WITH_UNIT ( LENGTH_MEASURE( 0.02539999999999999897 ), #146 );
#103 = COLOUR_RGB ( '',1.000000000000000000, 0.000000000000000000, 0.000000000000000000 ) ;
#104 = ORIENTED_EDGE ( 'NONE', *, *, #100, .F. ) ;
#105 = FILL_AREA_STYLE_COLOUR ( '', #304 ) ;
#106 = CYLINDRICAL_SURFACE ( 'NONE', #128, 0.3125000000000000000 ) ;
#107 = EDGE_LOOP ( 'NONE', ( #153, #232 ) ) ;
#108 = STYLED_ITEM ( 'NONE', ( #142 ), #130 ) ;
#109 = AXIS2_PLACEMENT_3D ( 'NONE', #239, #30, #36 ) ;
#110 = ORIENTED_EDGE ( 'NONE', *, *, #33, .T. ) ;
#111 = ADVANCED_FACE ( 'NONE', ( #273 ), #186, .T. ) ;
#112 = CARTESIAN_POINT ( 'NONE',  ( 0.000000000000000000, 0.000000000000000000, -0.3125000000000000000 ) ) ;
#113 = CARTESIAN_POINT ( 'NONE',  ( 0.000000000000000000, 0.000000000000000000, 0.000000000000000000 ) ) ;
#114 = FILL_AREA_STYLE ('',( #59 ) ) ;
#115 = UNCERTAINTY_MEASURE_WITH_UNIT (LENGTH_MEASURE( 1.000000000000000082E-05 ), #6, 'distance_accuracy_value', 'NONE');
#116 = DIRECTION ( 'NONE',  ( 0.000000000000000000, 0.000000000000000000, -1.000000000000000000 ) ) ;
#117 =( CONVERSION_BASED_UNIT ( 'INCH', #122 ) LENGTH_UNIT ( ) NAMED_UNIT ( #172 ) );
#118 = DIRECTION ( 'NONE',  ( -1.000000000000000000, 0.000000000000000000, 0.000000000000000000 ) ) ;
#119 = PRESENTATION_LAYER_ASSIGNMENT (  '', '', ( #8 ) ) ;
#120 = DIRECTION ( 'NONE',  ( 5.442874662877122010E-17, 1.000000000000000000, -0.000000000000000000 ) ) ;
#121 = MANIFOLD_SOLID_BREP ( 'Revolve - Cutting Edge', #13 ) ;
#122 = LENGTH_MEASURE_WITH_UNIT ( LENGTH_MEASURE( 0.02539999999999999897 ), #94 );
#123 = EDGE_CURVE ( 'NONE', #301, #27, #56, .T. ) ;
#124 = DIMENSIONAL_EXPONENTS ( 1.000000000000000000, 0.000000000000000000, 0.000000000000000000, 0.000000000000000000, 0.000000000000000000, 0.000000000000000000, 0.000000000000000000 ) ;
#125 = LENGTH_MEASURE_WITH_UNIT ( LENGTH_MEASURE( 0.02539999999999999897 ), #257 );
#126 = CARTESIAN_POINT ( 'NONE',  ( 3.827021247335478926E-17, 0.000000000000000000, 0.3125000000000000000 ) ) ;
#127 = AXIS2_PLACEMENT_3D ( 'NONE', #227, #11, #207 ) ;
#128 = AXIS2_PLACEMENT_3D ( 'NONE', #131, #220, #150 ) ;
#129 = PRODUCT_DEFINITION ( 'UNKNOWN', '', #213, #233 ) ;
#130 = MANIFOLD_SOLID_BREP ( 'Revolve - Tool Body (Straight Shanked)', #157 ) ;
#131 = CARTESIAN_POINT ( 'NONE',  ( 0.000000000000000000, 0.000000000000000000, 0.000000000000000000 ) ) ;
#132 = LENGTH_MEASURE_WITH_UNIT ( LENGTH_MEASURE( 0.02539999999999999897 ), #292 );
#133 =( NAMED_UNIT ( * ) PLANE_ANGLE_UNIT ( ) SI_UNIT ( $, .RADIAN. ) );
#134 = MECHANICAL_DESIGN_GEOMETRIC_PRESENTATION_REPRESENTATION (  '', ( #204 ), #241 ) ;
#135 = PRODUCT_RELATED_PRODUCT_CATEGORY ( 'part', '', ( #253 ) ) ;
#136 = DIMENSIONAL_EXPONENTS ( 1.000000000000000000, 0.000000000000000000, 0.000000000000000000, 0.000000000000000000, 0.000000000000000000, 0.000000000000000000, 0.000000000000000000 ) ;
#137 = DIRECTION ( 'NONE',  ( 0.000000000000000000, 0.000000000000000000, -1.000000000000000000 ) ) ;
#138 = ORIENTED_EDGE ( 'NONE', *, *, #156, .T. ) ;
#139 = MECHANICAL_DESIGN_GEOMETRIC_PRESENTATION_REPRESENTATION (  '', ( #108 ), #75 ) ;
#140 = PRESENTATION_LAYER_ASSIGNMENT (  '', '', ( #210 ) ) ;
#141 = EDGE_LOOP ( 'NONE', ( #52, #238, #201, #71 ) ) ;
#142 = PRESENTATION_STYLE_ASSIGNMENT (( #25 ) ) ;
#143 = LINE ( 'NONE', #34, #9 ) ;
#144 = MECHANICAL_DESIGN_GEOMETRIC_PRESENTATION_REPRESENTATION (  '', ( #271 ), #2 ) ;
#145 = UNCERTAINTY_MEASURE_WITH_UNIT (LENGTH_MEASURE( 1.000000000000000082E-05 ), #175, 'distance_accuracy_value', 'NONE');
#146 =( LENGTH_UNIT ( ) NAMED_UNIT ( * ) SI_UNIT ( $, .METRE. ) );
#147 =( NAMED_UNIT ( * ) PLANE_ANGLE_UNIT ( ) SI_UNIT ( $, .RADIAN. ) );
#148 = SURFACE_SIDE_STYLE ('',( #212 ) ) ;
#149 = VERTEX_POINT ( 'NONE', #54 ) ;
#150 = DIRECTION ( 'NONE',  ( 0.000000000000000000, 0.000000000000000000, -1.000000000000000000 ) ) ;
#151 = FILL_AREA_STYLE ('',( #190 ) ) ;
#152 = MECHANICAL_DESIGN_GEOMETRIC_PRESENTATION_REPRESENTATION (  '', ( #32 ), #188 ) ;
#153 = ORIENTED_EDGE ( 'NONE', *, *, #123, .T. ) ;
#154 = ORIENTED_EDGE ( 'NONE', *, *, #23, .T. ) ;
#155 = LENGTH_MEASURE_WITH_UNIT ( LENGTH_MEASURE( 0.02539999999999999897 ), #244 );
#156 = EDGE_CURVE ( 'NONE', #50, #27, #169, .T. ) ;
#157 = CLOSED_SHELL ( 'NONE', ( #67, #64, #165, #177 ) ) ;
#158 = CYLINDRICAL_SURFACE ( 'NONE', #127, 0.3124999999999999445 ) ;
#159 = SHAPE_DEFINITION_REPRESENTATION ( #211, #99 ) ;
#160 = EDGE_CURVE ( 'NONE', #44, #66, #263, .T. ) ;
#161 = PLANE ( 'NONE',  #254 ) ;
#162 = SURFACE_STYLE_USAGE ( .BOTH. , #63 ) ;
#163 =( LENGTH_UNIT ( ) NAMED_UNIT ( * ) SI_UNIT ( $, .METRE. ) );
#164 = CARTESIAN_POINT ( 'NONE',  ( 0.3125000000000000000, 3.000000000000000444, 3.827021247335477694E-17 ) ) ;
#165 = ADVANCED_FACE ( 'NONE', ( #196 ), #225, .T. ) ;
#166 =( LENGTH_UNIT ( ) NAMED_UNIT ( * ) SI_UNIT ( $, .METRE. ) );
#167 = FILL_AREA_STYLE_COLOUR ( '', #55 ) ;
#168 = CARTESIAN_POINT ( 'NONE',  ( 0.000000000000000000, 0.000000000000000000, 0.000000000000000000 ) ) ;
#169 = LINE ( 'NONE', #48, #249 ) ;
#170 = EDGE_CURVE ( 'NONE', #222, #149, #191, .T. ) ;
#171 = DIRECTION ( 'NONE',  ( -0.000000000000000000, -1.000000000000000000, -0.000000000000000000 ) ) ;
#172 = DIMENSIONAL_EXPONENTS ( 1.000000000000000000, 0.000000000000000000, 0.000000000000000000, 0.000000000000000000, 0.000000000000000000, 0.000000000000000000, 0.000000000000000000 ) ;
#173 = DIRECTION ( 'NONE',  ( -0.000000000000000000, -1.000000000000000000, -0.000000000000000000 ) ) ;
#174 = DIRECTION ( 'NONE',  ( 1.000000000000000000, 0.000000000000000000, 0.000000000000000000 ) ) ;
#175 =( CONVERSION_BASED_UNIT ( 'INCH', #132 ) LENGTH_UNIT ( ) NAMED_UNIT ( #124 ) );
#176 = DIRECTION ( 'NONE',  ( -0.000000000000000000, -1.000000000000000000, -0.000000000000000000 ) ) ;
#177 = ADVANCED_FACE ( 'NONE', ( #45 ), #194, .F. ) ;
#178 =( NAMED_UNIT ( * ) PLANE_ANGLE_UNIT ( ) SI_UNIT ( $, .RADIAN. ) );
#179 = UNCERTAINTY_MEASURE_WITH_UNIT (LENGTH_MEASURE( 1.000000000000000082E-05 ), #10, 'distance_accuracy_value', 'NONE');
#180 = SURFACE_STYLE_USAGE ( .BOTH. , #3 ) ;
#181 = ORIENTED_EDGE ( 'NONE', *, *, #217, .F. ) ;
#182 = EDGE_LOOP ( 'NONE', ( #251, #138, #266, #181 ) ) ;
#183 = DIRECTION ( 'NONE',  ( 5.442874662877122626E-17, 1.000000000000000000, -0.000000000000000000 ) ) ;
#184 = AXIS2_PLACEMENT_3D ( 'NONE', #243, #287, #73 ) ;
#185 = LENGTH_MEASURE_WITH_UNIT ( LENGTH_MEASURE( 0.02539999999999999897 ), #166 );
#186 = PLANE ( 'NONE',  #91 ) ;
#187 = ADVANCED_FACE ( 'NONE', ( #15 ), #72, .T. ) ;
#188 =( GEOMETRIC_REPRESENTATION_CONTEXT ( 3 ) GLOBAL_UNCERTAINTY_ASSIGNED_CONTEXT ( ( #256 ) ) GLOBAL_UNIT_ASSIGNED_CONTEXT ( ( #200, #147, #41 ) ) REPRESENTATION_CONTEXT ( 'NONE', 'WORKASPACE' ) );
#189 = SURFACE_STYLE_USAGE ( .BOTH. , #148 ) ;
#190 = FILL_AREA_STYLE_COLOUR ( '', #74 ) ;
#191 = LINE ( 'NONE', #126, #39 ) ;
#192 = MECHANICAL_DESIGN_GEOMETRIC_PRESENTATION_REPRESENTATION (  '', ( #8 ), #223 ) ;
#193 =( CONVERSION_BASED_UNIT ( 'INCH', #125 ) LENGTH_UNIT ( ) NAMED_UNIT ( #136 ) );
#194 = PLANE ( 'NONE',  #109 ) ;
#195 = DIRECTION ( 'NONE',  ( 5.442874662877122010E-17, 1.000000000000000000, -0.000000000000000000 ) ) ;
#196 = FACE_OUTER_BOUND ( 'NONE', #141, .T. ) ;
#197 = EDGE_CURVE ( 'NONE', #149, #66, #198, .T. ) ;
#198 = CIRCLE ( 'NONE', #98, 0.3125000000000000000 ) ;
#199 = PRESENTATION_STYLE_ASSIGNMENT (( #7 ) ) ;
#200 =( CONVERSION_BASED_UNIT ( 'INCH', #185 ) LENGTH_UNIT ( ) NAMED_UNIT ( #297 ) );
#201 = ORIENTED_EDGE ( 'NONE', *, *, #217, .T. ) ;
#202 = APPLICATION_PROTOCOL_DEFINITION ( 'draft international standard', 'automotive_design', 1998, #270 ) ;
#203 = SURFACE_STYLE_FILL_AREA ( #78 ) ;
#204 = STYLED_ITEM ( 'NONE', ( #208 ), #111 ) ;
#205 = AXIS2_PLACEMENT_3D ( 'NONE', #291, #51, #97 ) ;
#206 = CARTESIAN_POINT ( 'NONE',  ( 0.000000000000000000, 0.7499999999999998890, 0.000000000000000000 ) ) ;
#207 = DIRECTION ( 'NONE',  ( -1.000000000000000000, 0.000000000000000000, 0.000000000000000000 ) ) ;
#208 = PRESENTATION_STYLE_ASSIGNMENT (( #162 ) ) ;
#209 = PRESENTATION_LAYER_ASSIGNMENT (  '', '', ( #204 ) ) ;
#210 = STYLED_ITEM ( 'NONE', ( #53 ), #309 ) ;
#211 = PRODUCT_DEFINITION_SHAPE ( 'NONE', 'NONE',  #129 ) ;
#212 = SURFACE_STYLE_FILL_AREA ( #151 ) ;
#213 = PRODUCT_DEFINITION_FORMATION_WITH_SPECIFIED_SOURCE ( 'ANY', '', #253, .NOT_KNOWN. ) ;
#214 = CARTESIAN_POINT ( 'NONE',  ( -1.516480271171051896E-32, 0.7499999999999998890, 0.000000000000000000 ) ) ;
#215 = CARTESIAN_POINT ( 'NONE',  ( 0.000000000000000000, 0.000000000000000000, 0.000000000000000000 ) ) ;
#216 =( NAMED_UNIT ( * ) PLANE_ANGLE_UNIT ( ) SI_UNIT ( $, .RADIAN. ) );
#217 = EDGE_CURVE ( 'NONE', #14, #301, #143, .T. ) ;
#218 = CIRCLE ( 'NONE', #85, 0.3125000000000000000 ) ;
#219 = DIRECTION ( 'NONE',  ( 5.442874662877122626E-17, 1.000000000000000000, -0.000000000000000000 ) ) ;
#220 = DIRECTION ( 'NONE',  ( -0.000000000000000000, -1.000000000000000000, -0.000000000000000000 ) ) ;
#221 =( NAMED_UNIT ( * ) SI_UNIT ( $, .STERADIAN. ) SOLID_ANGLE_UNIT ( ) );
#222 = VERTEX_POINT ( 'NONE', #240 ) ;
#223 =( GEOMETRIC_REPRESENTATION_CONTEXT ( 3 ) GLOBAL_UNCERTAINTY_ASSIGNED_CONTEXT ( ( #61 ) ) GLOBAL_UNIT_ASSIGNED_CONTEXT ( ( #87, #216, #43 ) ) REPRESENTATION_CONTEXT ( 'NONE', 'WORKASPACE' ) );
#224 =( GEOMETRIC_REPRESENTATION_CONTEXT ( 3 ) GLOBAL_UNCERTAINTY_ASSIGNED_CONTEXT ( ( #179 ) ) GLOBAL_UNIT_ASSIGNED_CONTEXT ( ( #10, #298, #293 ) ) REPRESENTATION_CONTEXT ( 'NONE', 'WORKASPACE' ) );
#225 = CYLINDRICAL_SURFACE ( 'NONE', #205, 0.3124999999999999445 ) ;
#226 = ADVANCED_FACE ( 'NONE', ( #95 ), #22, .T. ) ;
#227 = CARTESIAN_POINT ( 'NONE',  ( 1.224646799147352714E-16, 3.000000000000000444, 0.000000000000000000 ) ) ;
#228 = AXIS2_PLACEMENT_3D ( 'NONE', #260, #70, #118 ) ;
#229 = EDGE_LOOP ( 'NONE', ( #264, #104 ) ) ;
#230 = FACE_OUTER_BOUND ( 'NONE', #182, .T. ) ;
#231 = EDGE_CURVE ( 'NONE', #27, #301, #24, .T. ) ;
#232 = ORIENTED_EDGE ( 'NONE', *, *, #231, .T. ) ;
#233 = PRODUCT_DEFINITION_CONTEXT ( 'detailed design', #270, 'design' ) ;
#234 = DIRECTION ( 'NONE',  ( -0.000000000000000000, -1.000000000000000000, -0.000000000000000000 ) ) ;
#235 = DIRECTION ( 'NONE',  ( 0.000000000000000000, -1.000000000000000000, -0.000000000000000000 ) ) ;
#236 = CARTESIAN_POINT ( 'NONE',  ( 0.000000000000000000, 0.7499999999999998890, 0.000000000000000000 ) ) ;
#237 = CIRCLE ( 'NONE', #18, 0.3125000000000000000 ) ;
#238 = ORIENTED_EDGE ( 'NONE', *, *, #100, .T. ) ;
#239 = CARTESIAN_POINT ( 'NONE',  ( 0.3125000000000000000, 3.000000000000000444, 0.000000000000000000 ) ) ;
#240 = CARTESIAN_POINT ( 'NONE',  ( 3.827021247335478926E-17, 0.7499999999999998890, 0.3125000000000000000 ) ) ;
#241 =( GEOMETRIC_REPRESENTATION_CONTEXT ( 3 ) GLOBAL_UNCERTAINTY_ASSIGNED_CONTEXT ( ( #284 ) ) GLOBAL_UNIT_ASSIGNED_CONTEXT ( ( #117, #69, #285 ) ) REPRESENTATION_CONTEXT ( 'NONE', 'WORKASPACE' ) );
#242 = EDGE_CURVE ( 'NONE', #14, #50, #19, .T. ) ;
#243 = CARTESIAN_POINT ( 'NONE',  ( 1.224646799147352714E-16, 3.000000000000000444, 0.000000000000000000 ) ) ;
#244 =( LENGTH_UNIT ( ) NAMED_UNIT ( * ) SI_UNIT ( $, .METRE. ) );
#245 = EDGE_LOOP ( 'NONE', ( #58, #83 ) ) ;
#246 = PRESENTATION_LAYER_ASSIGNMENT (  '', '', ( #271 ) ) ;
#247 = CARTESIAN_POINT ( 'NONE',  ( -0.3125000000000000000, 0.7499999999999998890, 0.000000000000000000 ) ) ;
#248 = ORIENTED_EDGE ( 'NONE', *, *, #170, .T. ) ;
#249 = VECTOR ( 'NONE', #195, 39.37007874015748143 ) ;
#250 = SURFACE_STYLE_FILL_AREA ( #114 ) ;
#251 = ORIENTED_EDGE ( 'NONE', *, *, #242, .T. ) ;
#252 = LENGTH_MEASURE_WITH_UNIT ( LENGTH_MEASURE( 0.02539999999999999897 ), #163 );
#253 = PRODUCT ( '48485', '48485', '', ( #29 ) ) ;
#254 = AXIS2_PLACEMENT_3D ( 'NONE', #17, #299, #37 ) ;
#255 =( GEOMETRIC_REPRESENTATION_CONTEXT ( 3 ) GLOBAL_UNCERTAINTY_ASSIGNED_CONTEXT ( ( #145 ) ) GLOBAL_UNIT_ASSIGNED_CONTEXT ( ( #175, #133, #31 ) ) REPRESENTATION_CONTEXT ( 'NONE', 'WORKASPACE' ) );
#256 = UNCERTAINTY_MEASURE_WITH_UNIT (LENGTH_MEASURE( 1.000000000000000082E-05 ), #200, 'distance_accuracy_value', 'NONE');
#257 =( LENGTH_UNIT ( ) NAMED_UNIT ( * ) SI_UNIT ( $, .METRE. ) );
#258 = ORIENTED_EDGE ( 'NONE', *, *, #197, .F. ) ;
#259 = DIRECTION ( 'NONE',  ( 0.000000000000000000, 0.000000000000000000, 1.000000000000000000 ) ) ;
#260 = CARTESIAN_POINT ( 'NONE',  ( 1.224646799147352714E-16, 3.000000000000000444, 0.000000000000000000 ) ) ;
#261 = SURFACE_STYLE_FILL_AREA ( #5 ) ;
#262 = ORIENTED_EDGE ( 'NONE', *, *, #23, .F. ) ;
#263 = LINE ( 'NONE', #4, #62 ) ;
#264 = ORIENTED_EDGE ( 'NONE', *, *, #242, .F. ) ;
#265 = FILL_AREA_STYLE_COLOUR ( '', #103 ) ;
#266 = ORIENTED_EDGE ( 'NONE', *, *, #123, .F. ) ;
#267 = CARTESIAN_POINT ( 'NONE',  ( -0.3124999999999997224, 3.000000000000000444, 0.000000000000000000 ) ) ;
#268 = DIRECTION ( 'NONE',  ( -1.000000000000000000, 0.000000000000000000, 0.000000000000000000 ) ) ;
#269 = COLOUR_RGB ( '',1.000000000000000000, 0.000000000000000000, 0.000000000000000000 ) ;
#270 = APPLICATION_CONTEXT ( 'automotive_design' ) ;
#271 = STYLED_ITEM ( 'NONE', ( #28 ), #226 ) ;
#272 = DIRECTION ( 'NONE',  ( -0.000000000000000000, -1.000000000000000000, -0.000000000000000000 ) ) ;
#273 = FACE_OUTER_BOUND ( 'NONE', #294, .T. ) ;
#274 = CARTESIAN_POINT ( 'NONE',  ( 0.000000000000000000, 0.7499999999999998890, 0.000000000000000000 ) ) ;
#275 = SURFACE_SIDE_STYLE ('',( #84 ) ) ;
#276 = AXIS2_PLACEMENT_3D ( 'NONE', #280, #183, #278 ) ;
#277 = COLOUR_RGB ( '',1.000000000000000000, 0.000000000000000000, 0.000000000000000000 ) ;
#278 = DIRECTION ( 'NONE',  ( -1.000000000000000000, 0.000000000000000000, 0.000000000000000000 ) ) ;
#279 = SURFACE_STYLE_USAGE ( .BOTH. , #275 ) ;
#280 = CARTESIAN_POINT ( 'NONE',  ( -1.516480271171051896E-32, 0.7499999999999998890, 0.000000000000000000 ) ) ;
#281 = PRESENTATION_LAYER_ASSIGNMENT (  '', '', ( #108 ) ) ;
#282 = AXIS2_PLACEMENT_3D ( 'NONE', #236, #90, #21 ) ;
#283 = DIRECTION ( 'NONE',  ( -0.000000000000000000, -1.000000000000000000, -0.000000000000000000 ) ) ;
#284 = UNCERTAINTY_MEASURE_WITH_UNIT (LENGTH_MEASURE( 1.000000000000000082E-05 ), #117, 'distance_accuracy_value', 'NONE');
#285 =( NAMED_UNIT ( * ) SI_UNIT ( $, .STERADIAN. ) SOLID_ANGLE_UNIT ( ) );
#286 = CARTESIAN_POINT ( 'NONE',  ( 0.000000000000000000, 0.000000000000000000, 0.000000000000000000 ) ) ;
#287 = DIRECTION ( 'NONE',  ( 5.442874662877122626E-17, 1.000000000000000000, -0.000000000000000000 ) ) ;
#288 = DIMENSIONAL_EXPONENTS ( 1.000000000000000000, 0.000000000000000000, 0.000000000000000000, 0.000000000000000000, 0.000000000000000000, 0.000000000000000000, 0.000000000000000000 ) ;
#289 =( NAMED_UNIT ( * ) PLANE_ANGLE_UNIT ( ) SI_UNIT ( $, .RADIAN. ) );
#290 = APPLICATION_CONTEXT ( 'automotive_design' ) ;
#291 = CARTESIAN_POINT ( 'NONE',  ( 1.224646799147352714E-16, 3.000000000000000444, 0.000000000000000000 ) ) ;
#292 =( LENGTH_UNIT ( ) NAMED_UNIT ( * ) SI_UNIT ( $, .METRE. ) );
#293 =( NAMED_UNIT ( * ) SI_UNIT ( $, .STERADIAN. ) SOLID_ANGLE_UNIT ( ) );
#294 = EDGE_LOOP ( 'NONE', ( #154, #16 ) ) ;
#295 = EDGE_LOOP ( 'NONE', ( #305, #76, #303, #258 ) ) ;
#296 = EDGE_LOOP ( 'NONE', ( #110, #248, #262, #35 ) ) ;
#297 = DIMENSIONAL_EXPONENTS ( 1.000000000000000000, 0.000000000000000000, 0.000000000000000000, 0.000000000000000000, 0.000000000000000000, 0.000000000000000000, 0.000000000000000000 ) ;
#298 =( NAMED_UNIT ( * ) PLANE_ANGLE_UNIT ( ) SI_UNIT ( $, .RADIAN. ) );
#299 = DIRECTION ( 'NONE',  ( 5.442874662877122010E-17, 1.000000000000000000, -0.000000000000000000 ) ) ;
#300 = CIRCLE ( 'NONE', #276, 0.3125000000000000000 ) ;
#301 = VERTEX_POINT ( 'NONE', #267 ) ;
#302 = CARTESIAN_POINT ( 'NONE',  ( 0.000000000000000000, 0.000000000000000000, 0.000000000000000000 ) ) ;
#303 = ORIENTED_EDGE ( 'NONE', *, *, #160, .T. ) ;
#304 = COLOUR_RGB ( '',0.7921568627450980005, 0.8196078431372548767, 0.9333333333333333481 ) ;
#305 = ORIENTED_EDGE ( 'NONE', *, *, #170, .F. ) ;
#306 =( NAMED_UNIT ( * ) SI_UNIT ( $, .STERADIAN. ) SOLID_ANGLE_UNIT ( ) );
#307 = MECHANICAL_DESIGN_GEOMETRIC_PRESENTATION_REPRESENTATION (  '', ( #210 ), #255 ) ;
#308 = APPLICATION_PROTOCOL_DEFINITION ( 'draft international standard', 'automotive_design', 1998, #290 ) ;
#309 = ADVANCED_FACE ( 'NONE', ( #46 ), #106, .T. ) ;
ENDSEC;
END-ISO-10303-21;
