ISO-10303-21;
HEADER;
FILE_DESCRIPTION (( 'STEP AP214' ),
    '1' );
FILE_NAME ('Micro_RME-034-2X.STEP',
    '2021-09-01T23:16:21',
    ( '' ),
    ( '' ),
    'SwSTEP 2.0',
    'SolidWorks 2020',
    '' );
FILE_SCHEMA (( 'AUTOMOTIVE_DESIGN' ));
ENDSEC;

DATA;
#1 = CONICAL_SURFACE ( 'NONE', #143, 0.01698300000000000504, 0.1745329251994338915 ) ;
#2 = CARTESIAN_POINT ( 'NONE',  ( 0.0000000000000000000, 0.0000000000000000000, 1.485000000000000764 ) ) ;
#3 = UNCERTAINTY_MEASURE_WITH_UNIT (LENGTH_MEASURE( 1.000000000000000082E-05 ), #240, 'distance_accuracy_value', 'NONE');
#4 = CARTESIAN_POINT ( 'NONE',  ( 0.04750000000000064587, 6.735557395310483192E-18, 1.500000000000000222 ) ) ;
#5 = VERTEX_POINT ( 'NONE', #97 ) ;
#6 = DIRECTION ( 'NONE',  ( -1.000000000000000000, 0.0000000000000000000, 0.0000000000000000000 ) ) ;
#7 = CARTESIAN_POINT ( 'NONE',  ( 2.547042038894633894E-34, 0.0000000000000000000, 2.079817658991950120E-18 ) ) ;
#8 = AXIS2_PLACEMENT_3D ( 'NONE', #226, #41, #24 ) ;
#9 = DIRECTION ( 'NONE',  ( 1.000000000000000000, 0.0000000000000000000, 0.0000000000000000000 ) ) ;
#10 = CARTESIAN_POINT ( 'NONE',  ( 0.01698300000000001544, 0.0000000000000000000, 0.1019999999999999934 ) ) ;
#11 = ADVANCED_FACE ( 'NONE', ( #83 ), #1, .T. ) ;
#12 = EDGE_LOOP ( 'NONE', ( #158, #161, #118, #233 ) ) ;
#13 = EDGE_LOOP ( 'NONE', ( #163, #56, #211, #54 ) ) ;
#14 = APPLICATION_PROTOCOL_DEFINITION ( 'draft international standard', 'automotive_design', 1998, #225 ) ;
#15 = DIRECTION ( 'NONE',  ( 0.0000000000000000000, 0.0000000000000000000, 1.000000000000000000 ) ) ;
#16 = DIRECTION ( 'NONE',  ( -1.000000000000000000, 0.0000000000000000000, 0.0000000000000000000 ) ) ;
#17 = EDGE_CURVE ( 'NONE', #122, #138, #20, .T. ) ;
#18 = APPLICATION_CONTEXT ( 'automotive_design' ) ;
#19 = CARTESIAN_POINT ( 'NONE',  ( 0.04750000000000064587, 5.817072295950006528E-18, 1.500000000000000222 ) ) ;
#20 = CIRCLE ( 'NONE', #217, 0.01698299999999999810 ) ;
#21 = SURFACE_SIDE_STYLE ('',( #125 ) ) ;
#22 = EDGE_CURVE ( 'NONE', #123, #190, #120, .T. ) ;
#23 = AXIS2_PLACEMENT_3D ( 'NONE', #229, #119, #157 ) ;
#24 = DIRECTION ( 'NONE',  ( -1.000000000000000000, 0.0000000000000000000, 0.0000000000000000000 ) ) ;
#25 = CARTESIAN_POINT ( 'NONE',  ( 0.0000000000000000000, 0.0000000000000000000, 0.0000000000000000000 ) ) ;
#26 = AXIS2_PLACEMENT_3D ( 'NONE', #95, #210, #115 ) ;
#27 = EDGE_CURVE ( 'NONE', #190, #168, #46, .T. ) ;
#28 = ORIENTED_EDGE ( 'NONE', *, *, #218, .F. ) ;
#29 = PRODUCT_DEFINITION_CONTEXT ( 'detailed design', #18, 'design' ) ;
#30 = CYLINDRICAL_SURFACE ( 'NONE', #66, 0.06250000000000002776 ) ;
#31 = EDGE_LOOP ( 'NONE', ( #141, #36, #262, #239 ) ) ;
#32 = DIRECTION ( 'NONE',  ( 1.000000000000000000, 0.0000000000000000000, -0.0000000000000000000 ) ) ;
#33 = DIRECTION ( 'NONE',  ( -1.000000000000000000, 0.0000000000000000000, 1.224646799147353454E-16 ) ) ;
#34 = CLOSED_SHELL ( 'NONE', ( #129, #251, #221, #132, #254, #188, #87, #11, #296, #278 ) ) ;
#35 = ORIENTED_EDGE ( 'NONE', *, *, #47, .F. ) ;
#36 = ORIENTED_EDGE ( 'NONE', *, *, #127, .T. ) ;
#37 = CARTESIAN_POINT ( 'NONE',  ( 0.0000000000000000000, 0.0000000000000000000, 0.0000000000000000000 ) ) ;
#38 = FILL_AREA_STYLE ('',( #219 ) ) ;
#39 = AXIS2_PLACEMENT_3D ( 'NONE', #96, #180, #203 ) ;
#40 = SHAPE_DEFINITION_REPRESENTATION ( #149, #182 ) ;
#41 = DIRECTION ( 'NONE',  ( -1.224646799147353454E-16, -0.0000000000000000000, -1.000000000000000000 ) ) ;
#42 = AXIS2_PLACEMENT_3D ( 'NONE', #37, #124, #220 ) ;
#43 = AXIS2_PLACEMENT_3D ( 'NONE', #25, #242, #274 ) ;
#44 = EDGE_CURVE ( 'NONE', #123, #138, #144, .T. ) ;
#45 = FACE_OUTER_BOUND ( 'NONE', #255, .T. ) ;
#46 = CIRCLE ( 'NONE', #238, 0.06250000000000002776 ) ;
#47 = EDGE_CURVE ( 'NONE', #134, #168, #107, .T. ) ;
#48 = FACE_OUTER_BOUND ( 'NONE', #31, .T. ) ;
#49 = DIMENSIONAL_EXPONENTS ( 1.000000000000000000, 0.0000000000000000000, 0.0000000000000000000, 0.0000000000000000000, 0.0000000000000000000, 0.0000000000000000000, 0.0000000000000000000 ) ;
#50 = DIRECTION ( 'NONE',  ( 1.000000000000000000, 0.0000000000000000000, -0.0000000000000000000 ) ) ;
#51 = UNCERTAINTY_MEASURE_WITH_UNIT (LENGTH_MEASURE( 1.000000000000000082E-05 ), #63, 'distance_accuracy_value', 'NONE');
#52 = CARTESIAN_POINT ( 'NONE',  ( 0.06250000000000002776, 7.654042494670959086E-18, 1.500000000000000222 ) ) ;
#53 = CONICAL_SURFACE ( 'NONE', #160, 0.01698300000000000504, 0.1745329251994338915 ) ;
#54 = ORIENTED_EDGE ( 'NONE', *, *, #22, .F. ) ;
#55 = FACE_OUTER_BOUND ( 'NONE', #12, .T. ) ;
#56 = ORIENTED_EDGE ( 'NONE', *, *, #174, .T. ) ;
#57 = PLANE ( 'NONE',  #227 ) ;
#58 = ORIENTED_EDGE ( 'NONE', *, *, #75, .T. ) ;
#59 = DIRECTION ( 'NONE',  ( 1.000000000000000000, 0.0000000000000000000, 0.0000000000000000000 ) ) ;
#60 = VECTOR ( 'NONE', #249, 39.37007874015748143 ) ;
#61 = FILL_AREA_STYLE ('',( #213 ) ) ;
#62 = ORIENTED_EDGE ( 'NONE', *, *, #110, .F. ) ;
#63 =( CONVERSION_BASED_UNIT ( 'INCH', #202 ) LENGTH_UNIT ( ) NAMED_UNIT ( #49 ) );
#64 = EDGE_CURVE ( 'NONE', #5, #123, #166, .T. ) ;
#65 = CARTESIAN_POINT ( 'NONE',  ( -0.06250000000000002776, 0.0000000000000000000, 1.500000000000000222 ) ) ;
#66 = AXIS2_PLACEMENT_3D ( 'NONE', #117, #207, #6 ) ;
#67 =( LENGTH_UNIT ( ) NAMED_UNIT ( * ) SI_UNIT ( $, .METRE. ) );
#68 = CARTESIAN_POINT ( 'NONE',  ( 0.0000000000000000000, 0.0000000000000000000, 1.500000000000000222 ) ) ;
#69 = STYLED_ITEM ( 'NONE', ( #145 ), #182 ) ;
#70 = LINE ( 'NONE', #131, #284 ) ;
#71 = VECTOR ( 'NONE', #281, 39.37007874015748143 ) ;
#72 = PRESENTATION_STYLE_ASSIGNMENT (( #252 ) ) ;
#73 = CARTESIAN_POINT ( 'NONE',  ( 1.249139735130300433E-17, 0.0000000000000000000, 0.1019999999999999934 ) ) ;
#74 = COLOUR_RGB ( '',0.7921568627450980005, 0.8196078431372548767, 0.9333333333333333481 ) ;
#75 = EDGE_CURVE ( 'NONE', #237, #214, #78, .T. ) ;
#76 = DIRECTION ( 'NONE',  ( 0.0000000000000000000, 0.0000000000000000000, 1.000000000000000000 ) ) ;
#77 = FACE_OUTER_BOUND ( 'NONE', #13, .T. ) ;
#78 = CIRCLE ( 'NONE', #192, 0.04750000000000064587 ) ;
#79 = EDGE_LOOP ( 'NONE', ( #99, #241, #142, #299 ) ) ;
#80 = FACE_OUTER_BOUND ( 'NONE', #156, .T. ) ;
#81 = MECHANICAL_DESIGN_GEOMETRIC_PRESENTATION_REPRESENTATION (  '', ( #69 ), #295 ) ;
#82 = ORIENTED_EDGE ( 'NONE', *, *, #44, .T. ) ;
#83 = FACE_OUTER_BOUND ( 'NONE', #189, .T. ) ;
#84 = ORIENTED_EDGE ( 'NONE', *, *, #264, .T. ) ;
#85 = AXIS2_PLACEMENT_3D ( 'NONE', #2, #231, #140 ) ;
#86 = ORIENTED_EDGE ( 'NONE', *, *, #181, .T. ) ;
#87 = ADVANCED_FACE ( 'NONE', ( #45 ), #277, .T. ) ;
#88 = PRODUCT_CONTEXT ( 'NONE', #225, 'mechanical' ) ;
#89 = LENGTH_MEASURE_WITH_UNIT ( LENGTH_MEASURE( 0.02539999999999999897 ), #67 );
#90 = DIRECTION ( 'NONE',  ( 0.0000000000000000000, 0.0000000000000000000, -1.000000000000000000 ) ) ;
#91 = DIRECTION ( 'NONE',  ( -1.224646799147353454E-16, -0.0000000000000000000, -1.000000000000000000 ) ) ;
#92 = CIRCLE ( 'NONE', #268, 0.01698300000000000504 ) ;
#93 = DIRECTION ( 'NONE',  ( -1.224646799147353454E-16, -0.0000000000000000000, -1.000000000000000000 ) ) ;
#94 = DIRECTION ( 'NONE',  ( -1.000000000000000000, 0.0000000000000000000, 0.0000000000000000000 ) ) ;
#95 = CARTESIAN_POINT ( 'NONE',  ( 4.410439732035072286E-17, 0.0000000000000000000, 0.3601397345835379848 ) ) ;
#96 = CARTESIAN_POINT ( 'NONE',  ( 0.0000000000000000000, 0.0000000000000000000, 1.485000000000000764 ) ) ;
#97 = CARTESIAN_POINT ( 'NONE',  ( -0.01698299999999999116, 4.866930076831455951E-18, 0.1019999999999999934 ) ) ;
#98 = LINE ( 'NONE', #263, #175 ) ;
#99 = ORIENTED_EDGE ( 'NONE', *, *, #44, .F. ) ;
#100 = DIRECTION ( 'NONE',  ( 0.0000000000000000000, 0.0000000000000000000, 1.000000000000000000 ) ) ;
#101 = DIRECTION ( 'NONE',  ( 0.1736481776669313859, 0.0000000000000000000, 0.9848077530122077983 ) ) ;
#102 = ORIENTED_EDGE ( 'NONE', *, *, #174, .F. ) ;
#103 =( NAMED_UNIT ( * ) PLANE_ANGLE_UNIT ( ) SI_UNIT ( $, .RADIAN. ) );
#104 = EDGE_LOOP ( 'NONE', ( #86, #259, #216, #35 ) ) ;
#105 = AXIS2_PLACEMENT_3D ( 'NONE', #282, #76, #9 ) ;
#106 =( LENGTH_UNIT ( ) NAMED_UNIT ( * ) SI_UNIT ( $, .METRE. ) );
#107 = LINE ( 'NONE', #65, #148 ) ;
#108 = VECTOR ( 'NONE', #93, 39.37007874015748143 ) ;
#109 = MANIFOLD_SOLID_BREP ( 'Cut-Revolve1', #34 ) ;
#110 = EDGE_CURVE ( 'NONE', #5, #122, #228, .T. ) ;
#111 = AXIS2_PLACEMENT_3D ( 'NONE', #126, #90, #16 ) ;
#112 =( GEOMETRIC_REPRESENTATION_CONTEXT ( 3 ) GLOBAL_UNCERTAINTY_ASSIGNED_CONTEXT ( ( #3 ) ) GLOBAL_UNIT_ASSIGNED_CONTEXT ( ( #240, #288, #165 ) ) REPRESENTATION_CONTEXT ( 'NONE', 'WORKASPACE' ) );
#113 = CARTESIAN_POINT ( 'NONE',  ( 0.06250000000000002776, 7.654042494670959086E-18, 1.485000000000000764 ) ) ;
#114 = CIRCLE ( 'NONE', #26, 0.06250000000000002776 ) ;
#115 = DIRECTION ( 'NONE',  ( 1.000000000000000000, 0.0000000000000000000, 0.0000000000000000000 ) ) ;
#116 = ORIENTED_EDGE ( 'NONE', *, *, #17, .T. ) ;
#117 = CARTESIAN_POINT ( 'NONE',  ( 0.0000000000000000000, 0.0000000000000000000, 1.500000000000000222 ) ) ;
#118 = ORIENTED_EDGE ( 'NONE', *, *, #47, .T. ) ;
#119 = DIRECTION ( 'NONE',  ( 0.0000000000000000000, 0.0000000000000000000, -1.000000000000000000 ) ) ;
#120 = LINE ( 'NONE', #10, #196 ) ;
#121 =( CONVERSION_BASED_UNIT ( 'INCH', #191 ) LENGTH_UNIT ( ) NAMED_UNIT ( #257 ) );
#122 = VERTEX_POINT ( 'NONE', #276 ) ;
#123 = VERTEX_POINT ( 'NONE', #222 ) ;
#124 = DIRECTION ( 'NONE',  ( 0.0000000000000000000, 0.0000000000000000000, 1.000000000000000000 ) ) ;
#125 = SURFACE_STYLE_FILL_AREA ( #38 ) ;
#126 = CARTESIAN_POINT ( 'NONE',  ( 0.0000000000000000000, 0.0000000000000000000, 1.500000000000000222 ) ) ;
#127 = EDGE_CURVE ( 'NONE', #237, #193, #224, .T. ) ;
#128 = DIRECTION ( 'NONE',  ( 0.7071067811865462405, 8.659560562354916834E-17, -0.7071067811865486830 ) ) ;
#129 = ADVANCED_FACE ( 'NONE', ( #195 ), #199, .T. ) ;
#130 = CONICAL_SURFACE ( 'NONE', #23, 0.04750000000000064587, 0.7853981633974466137 ) ;
#131 = CARTESIAN_POINT ( 'NONE',  ( -0.01698299999999999116, 2.079817658991950505E-18, 0.1019999999999999934 ) ) ;
#132 = ADVANCED_FACE ( 'NONE', ( #147 ), #275, .T. ) ;
#133 = CYLINDRICAL_SURFACE ( 'NONE', #43, 0.01698300000000000157 ) ;
#134 = VERTEX_POINT ( 'NONE', #150 ) ;
#135 = LINE ( 'NONE', #52, #71 ) ;
#136 = CARTESIAN_POINT ( 'NONE',  ( -0.04750000000000064587, 0.0000000000000000000, 1.500000000000000222 ) ) ;
#137 = AXIS2_PLACEMENT_3D ( 'NONE', #258, #159, #205 ) ;
#138 = VERTEX_POINT ( 'NONE', #247 ) ;
#139 = UNCERTAINTY_MEASURE_WITH_UNIT (LENGTH_MEASURE( 1.000000000000000082E-05 ), #121, 'distance_accuracy_value', 'NONE');
#140 = DIRECTION ( 'NONE',  ( 1.000000000000000000, 0.0000000000000000000, 0.0000000000000000000 ) ) ;
#141 = ORIENTED_EDGE ( 'NONE', *, *, #75, .F. ) ;
#142 = ORIENTED_EDGE ( 'NONE', *, *, #110, .T. ) ;
#143 = AXIS2_PLACEMENT_3D ( 'NONE', #184, #208, #187 ) ;
#144 = LINE ( 'NONE', #293, #60 ) ;
#145 = PRESENTATION_STYLE_ASSIGNMENT (( #215 ) ) ;
#146 = EDGE_LOOP ( 'NONE', ( #290, #82, #289, #62 ) ) ;
#147 = FACE_OUTER_BOUND ( 'NONE', #104, .T. ) ;
#148 = VECTOR ( 'NONE', #297, 39.37007874015748143 ) ;
#149 = PRODUCT_DEFINITION_SHAPE ( 'NONE', 'NONE',  #244 ) ;
#150 = CARTESIAN_POINT ( 'NONE',  ( -0.06250000000000002776, 0.0000000000000000000, 1.485000000000000764 ) ) ;
#151 = AXIS2_PLACEMENT_3D ( 'NONE', #256, #179, #50 ) ;
#152 = EDGE_CURVE ( 'NONE', #123, #5, #92, .T. ) ;
#153 = CARTESIAN_POINT ( 'NONE',  ( 0.0000000000000000000, 0.0000000000000000000, 1.500000000000000222 ) ) ;
#154 =( GEOMETRIC_REPRESENTATION_CONTEXT ( 3 ) GLOBAL_UNCERTAINTY_ASSIGNED_CONTEXT ( ( #51 ) ) GLOBAL_UNIT_ASSIGNED_CONTEXT ( ( #63, #194, #169 ) ) REPRESENTATION_CONTEXT ( 'NONE', 'WORKASPACE' ) );
#155 = FACE_OUTER_BOUND ( 'NONE', #235, .T. ) ;
#156 = EDGE_LOOP ( 'NONE', ( #116, #271 ) ) ;
#157 = DIRECTION ( 'NONE',  ( -1.000000000000000000, 0.0000000000000000000, 0.0000000000000000000 ) ) ;
#158 = ORIENTED_EDGE ( 'NONE', *, *, #212, .F. ) ;
#159 = DIRECTION ( 'NONE',  ( -1.224646799147353454E-16, -0.0000000000000000000, -1.000000000000000000 ) ) ;
#160 = AXIS2_PLACEMENT_3D ( 'NONE', #73, #261, #234 ) ;
#161 = ORIENTED_EDGE ( 'NONE', *, *, #198, .T. ) ;
#162 = PRODUCT_RELATED_PRODUCT_CATEGORY ( 'part', '', ( #248 ) ) ;
#163 = ORIENTED_EDGE ( 'NONE', *, *, #64, .F. ) ;
#164 = DIRECTION ( 'NONE',  ( -1.224646799147353454E-16, -0.0000000000000000000, -1.000000000000000000 ) ) ;
#165 =( NAMED_UNIT ( * ) SI_UNIT ( $, .STERADIAN. ) SOLID_ANGLE_UNIT ( ) );
#166 = CIRCLE ( 'NONE', #8, 0.01698300000000000504 ) ;
#167 = ORIENTED_EDGE ( 'NONE', *, *, #22, .T. ) ;
#168 = VERTEX_POINT ( 'NONE', #173 ) ;
#169 =( NAMED_UNIT ( * ) SI_UNIT ( $, .STERADIAN. ) SOLID_ANGLE_UNIT ( ) );
#170 = PRESENTATION_LAYER_ASSIGNMENT (  '', '', ( #178 ) ) ;
#171 = CARTESIAN_POINT ( 'NONE',  ( 0.0000000000000000000, 0.0000000000000000000, 0.0000000000000000000 ) ) ;
#172 = COLOUR_RGB ( '',0.7921568627450980005, 0.8196078431372548767, 0.9333333333333333481 ) ;
#173 = CARTESIAN_POINT ( 'NONE',  ( -0.06249999999999997918, 0.0000000000000000000, 0.3601397345835379848 ) ) ;
#174 = EDGE_CURVE ( 'NONE', #5, #168, #70, .T. ) ;
#175 = VECTOR ( 'NONE', #285, 39.37007874015748854 ) ;
#176 = DIRECTION ( 'NONE',  ( -1.224646799147353454E-16, -0.0000000000000000000, -1.000000000000000000 ) ) ;
#177 = DIRECTION ( 'NONE',  ( -0.1736481776669311916, 2.126576849575783316E-17, 0.9848077530122080203 ) ) ;
#178 = STYLED_ITEM ( 'NONE', ( #72 ), #109 ) ;
#179 = DIRECTION ( 'NONE',  ( 0.0000000000000000000, 0.0000000000000000000, 1.000000000000000000 ) ) ;
#180 = DIRECTION ( 'NONE',  ( 0.0000000000000000000, 0.0000000000000000000, -1.000000000000000000 ) ) ;
#181 = EDGE_CURVE ( 'NONE', #134, #193, #204, .T. ) ;
#182 = ADVANCED_BREP_SHAPE_REPRESENTATION ( 'Micro_RME-034-2X', ( #109, #42 ), #112 ) ;
#183 = CARTESIAN_POINT ( 'NONE',  ( 0.06250000000000006939, 7.654042494670963708E-18, 0.3601397345835379848 ) ) ;
#184 = CARTESIAN_POINT ( 'NONE',  ( 1.249139735130300433E-17, 0.0000000000000000000, 0.1019999999999999934 ) ) ;
#185 = PLANE ( 'NONE',  #151 ) ;
#186 = CIRCLE ( 'NONE', #137, 0.01698299999999999810 ) ;
#187 = DIRECTION ( 'NONE',  ( 1.000000000000000000, 0.0000000000000000000, 0.0000000000000000000 ) ) ;
#188 = ADVANCED_FACE ( 'NONE', ( #155 ), #185, .T. ) ;
#189 = EDGE_LOOP ( 'NONE', ( #102, #283, #167, #269 ) ) ;
#190 = VERTEX_POINT ( 'NONE', #183 ) ;
#191 = LENGTH_MEASURE_WITH_UNIT ( LENGTH_MEASURE( 0.02539999999999999897 ), #106 );
#192 = AXIS2_PLACEMENT_3D ( 'NONE', #153, #15, #298 ) ;
#193 = VERTEX_POINT ( 'NONE', #113 ) ;
#194 =( NAMED_UNIT ( * ) PLANE_ANGLE_UNIT ( ) SI_UNIT ( $, .RADIAN. ) );
#195 = FACE_OUTER_BOUND ( 'NONE', #146, .T. ) ;
#196 = VECTOR ( 'NONE', #101, 39.37007874015748143 ) ;
#197 = DIRECTION ( 'NONE',  ( -1.000000000000000000, 0.0000000000000000000, 1.224646799147353454E-16 ) ) ;
#198 = EDGE_CURVE ( 'NONE', #193, #134, #250, .T. ) ;
#199 = CYLINDRICAL_SURFACE ( 'NONE', #280, 0.01698300000000000157 ) ;
#200 = DIMENSIONAL_EXPONENTS ( 1.000000000000000000, 0.0000000000000000000, 0.0000000000000000000, 0.0000000000000000000, 0.0000000000000000000, 0.0000000000000000000, 0.0000000000000000000 ) ;
#201 = EDGE_CURVE ( 'NONE', #168, #190, #114, .T. ) ;
#202 = LENGTH_MEASURE_WITH_UNIT ( LENGTH_MEASURE( 0.02539999999999999897 ), #246 );
#203 = DIRECTION ( 'NONE',  ( 1.000000000000000000, 0.0000000000000000000, 0.0000000000000000000 ) ) ;
#204 = CIRCLE ( 'NONE', #85, 0.06250000000000002776 ) ;
#205 = DIRECTION ( 'NONE',  ( -1.000000000000000000, 0.0000000000000000000, 1.224646799147353454E-16 ) ) ;
#206 = ORIENTED_EDGE ( 'NONE', *, *, #198, .F. ) ;
#207 = DIRECTION ( 'NONE',  ( -0.0000000000000000000, -0.0000000000000000000, -1.000000000000000000 ) ) ;
#208 = DIRECTION ( 'NONE',  ( 1.224646799147353454E-16, 0.0000000000000000000, 1.000000000000000000 ) ) ;
#209 = VECTOR ( 'NONE', #128, 39.37007874015748854 ) ;
#210 = DIRECTION ( 'NONE',  ( -1.224646799147353454E-16, -0.0000000000000000000, -1.000000000000000000 ) ) ;
#211 = ORIENTED_EDGE ( 'NONE', *, *, #201, .T. ) ;
#212 = EDGE_CURVE ( 'NONE', #193, #190, #135, .T. ) ;
#213 = FILL_AREA_STYLE_COLOUR ( '', #172 ) ;
#214 = VERTEX_POINT ( 'NONE', #136 ) ;
#215 = SURFACE_STYLE_USAGE ( .BOTH. , #223 ) ;
#216 = ORIENTED_EDGE ( 'NONE', *, *, #201, .F. ) ;
#217 = AXIS2_PLACEMENT_3D ( 'NONE', #7, #286, #33 ) ;
#218 = EDGE_CURVE ( 'NONE', #214, #237, #232, .T. ) ;
#219 = FILL_AREA_STYLE_COLOUR ( '', #74 ) ;
#220 = DIRECTION ( 'NONE',  ( 1.000000000000000000, 0.0000000000000000000, 0.0000000000000000000 ) ) ;
#221 = ADVANCED_FACE ( 'NONE', ( #48 ), #130, .T. ) ;
#222 = CARTESIAN_POINT ( 'NONE',  ( 0.01698300000000001544, 0.0000000000000000000, 0.1019999999999999934 ) ) ;
#223 = SURFACE_SIDE_STYLE ('',( #272 ) ) ;
#224 = LINE ( 'NONE', #19, #209 ) ;
#225 = APPLICATION_CONTEXT ( 'automotive_design' ) ;
#226 = CARTESIAN_POINT ( 'NONE',  ( 1.249139735130300433E-17, 0.0000000000000000000, 0.1019999999999999934 ) ) ;
#227 = AXIS2_PLACEMENT_3D ( 'NONE', #236, #100, #32 ) ;
#228 = LINE ( 'NONE', #273, #108 ) ;
#229 = CARTESIAN_POINT ( 'NONE',  ( 0.0000000000000000000, 0.0000000000000000000, 1.500000000000000222 ) ) ;
#230 = EDGE_CURVE ( 'NONE', #138, #122, #186, .T. ) ;
#231 = DIRECTION ( 'NONE',  ( 0.0000000000000000000, 0.0000000000000000000, -1.000000000000000000 ) ) ;
#232 = CIRCLE ( 'NONE', #105, 0.04750000000000064587 ) ;
#233 = ORIENTED_EDGE ( 'NONE', *, *, #27, .F. ) ;
#234 = DIRECTION ( 'NONE',  ( 1.000000000000000000, 0.0000000000000000000, 0.0000000000000000000 ) ) ;
#235 = EDGE_LOOP ( 'NONE', ( #267, #58 ) ) ;
#236 = CARTESIAN_POINT ( 'NONE',  ( 0.0000000000000000000, 0.0000000000000000000, 0.0000000000000000000 ) ) ;
#237 = VERTEX_POINT ( 'NONE', #4 ) ;
#238 = AXIS2_PLACEMENT_3D ( 'NONE', #287, #164, #59 ) ;
#239 = ORIENTED_EDGE ( 'NONE', *, *, #264, .F. ) ;
#240 =( CONVERSION_BASED_UNIT ( 'INCH', #89 ) LENGTH_UNIT ( ) NAMED_UNIT ( #200 ) );
#241 = ORIENTED_EDGE ( 'NONE', *, *, #152, .T. ) ;
#242 = DIRECTION ( 'NONE',  ( -1.224646799147353454E-16, -0.0000000000000000000, -1.000000000000000000 ) ) ;
#243 = DIRECTION ( 'NONE',  ( -0.0000000000000000000, -0.0000000000000000000, -1.000000000000000000 ) ) ;
#244 = PRODUCT_DEFINITION ( 'UNKNOWN', '', #266, #29 ) ;
#245 = MECHANICAL_DESIGN_GEOMETRIC_PRESENTATION_REPRESENTATION (  '', ( #178 ), #154 ) ;
#246 =( LENGTH_UNIT ( ) NAMED_UNIT ( * ) SI_UNIT ( $, .METRE. ) );
#247 = CARTESIAN_POINT ( 'NONE',  ( 0.01698299999999999810, 2.079817658991950120E-18, 0.0000000000000000000 ) ) ;
#248 = PRODUCT ( 'Micro_RME-034-2X', 'Micro_RME-034-2X', '', ( #88 ) ) ;
#249 = DIRECTION ( 'NONE',  ( -1.224646799147353454E-16, -0.0000000000000000000, -1.000000000000000000 ) ) ;
#250 = CIRCLE ( 'NONE', #39, 0.06250000000000002776 ) ;
#251 = ADVANCED_FACE ( 'NONE', ( #77 ), #53, .T. ) ;
#252 = SURFACE_STYLE_USAGE ( .BOTH. , #21 ) ;
#253 = FACE_OUTER_BOUND ( 'NONE', #79, .T. ) ;
#254 = ADVANCED_FACE ( 'NONE', ( #55 ), #30, .T. ) ;
#255 = EDGE_LOOP ( 'NONE', ( #265, #28, #84, #206 ) ) ;
#256 = CARTESIAN_POINT ( 'NONE',  ( 0.0000000000000000000, 0.0000000000000000000, 1.500000000000000222 ) ) ;
#257 = DIMENSIONAL_EXPONENTS ( 1.000000000000000000, 0.0000000000000000000, 0.0000000000000000000, 0.0000000000000000000, 0.0000000000000000000, 0.0000000000000000000, 0.0000000000000000000 ) ;
#258 = CARTESIAN_POINT ( 'NONE',  ( 2.547042038894633894E-34, 0.0000000000000000000, 2.079817658991950120E-18 ) ) ;
#259 = ORIENTED_EDGE ( 'NONE', *, *, #212, .T. ) ;
#260 = AXIS2_PLACEMENT_3D ( 'NONE', #68, #243, #94 ) ;
#261 = DIRECTION ( 'NONE',  ( 1.224646799147353454E-16, 0.0000000000000000000, 1.000000000000000000 ) ) ;
#262 = ORIENTED_EDGE ( 'NONE', *, *, #181, .F. ) ;
#263 = CARTESIAN_POINT ( 'NONE',  ( -0.04750000000000064587, 0.0000000000000000000, 1.500000000000000222 ) ) ;
#264 = EDGE_CURVE ( 'NONE', #214, #134, #98, .T. ) ;
#265 = ORIENTED_EDGE ( 'NONE', *, *, #127, .F. ) ;
#266 = PRODUCT_DEFINITION_FORMATION_WITH_SPECIFIED_SOURCE ( 'ANY', '', #248, .NOT_KNOWN. ) ;
#267 = ORIENTED_EDGE ( 'NONE', *, *, #218, .T. ) ;
#268 = AXIS2_PLACEMENT_3D ( 'NONE', #294, #91, #279 ) ;
#269 = ORIENTED_EDGE ( 'NONE', *, *, #27, .T. ) ;
#270 =( NAMED_UNIT ( * ) SI_UNIT ( $, .STERADIAN. ) SOLID_ANGLE_UNIT ( ) );
#271 = ORIENTED_EDGE ( 'NONE', *, *, #230, .T. ) ;
#272 = SURFACE_STYLE_FILL_AREA ( #61 ) ;
#273 = CARTESIAN_POINT ( 'NONE',  ( -0.01698300000000000157, 0.0000000000000000000, 2.079817658991950505E-18 ) ) ;
#274 = DIRECTION ( 'NONE',  ( -1.000000000000000000, 0.0000000000000000000, 1.224646799147353454E-16 ) ) ;
#275 = CYLINDRICAL_SURFACE ( 'NONE', #260, 0.06250000000000002776 ) ;
#276 = CARTESIAN_POINT ( 'NONE',  ( -0.01698299999999999810, 0.0000000000000000000, 4.159635317983900239E-18 ) ) ;
#277 = CONICAL_SURFACE ( 'NONE', #111, 0.04750000000000064587, 0.7853981633974466137 ) ;
#278 = ADVANCED_FACE ( 'NONE', ( #80 ), #57, .F. ) ;
#279 = DIRECTION ( 'NONE',  ( -1.000000000000000000, 0.0000000000000000000, 0.0000000000000000000 ) ) ;
#280 = AXIS2_PLACEMENT_3D ( 'NONE', #171, #176, #197 ) ;
#281 = DIRECTION ( 'NONE',  ( -0.0000000000000000000, -0.0000000000000000000, -1.000000000000000000 ) ) ;
#282 = CARTESIAN_POINT ( 'NONE',  ( 0.0000000000000000000, 0.0000000000000000000, 1.500000000000000222 ) ) ;
#283 = ORIENTED_EDGE ( 'NONE', *, *, #152, .F. ) ;
#284 = VECTOR ( 'NONE', #177, 39.37007874015747433 ) ;
#285 = DIRECTION ( 'NONE',  ( -0.7071067811865462405, 0.0000000000000000000, -0.7071067811865486830 ) ) ;
#286 = DIRECTION ( 'NONE',  ( -1.224646799147353454E-16, -0.0000000000000000000, -1.000000000000000000 ) ) ;
#287 = CARTESIAN_POINT ( 'NONE',  ( 4.410439732035072286E-17, 0.0000000000000000000, 0.3601397345835379848 ) ) ;
#288 =( NAMED_UNIT ( * ) PLANE_ANGLE_UNIT ( ) SI_UNIT ( $, .RADIAN. ) );
#289 = ORIENTED_EDGE ( 'NONE', *, *, #17, .F. ) ;
#290 = ORIENTED_EDGE ( 'NONE', *, *, #64, .T. ) ;
#291 = PRESENTATION_LAYER_ASSIGNMENT (  '', '', ( #69 ) ) ;
#292 = APPLICATION_PROTOCOL_DEFINITION ( 'draft international standard', 'automotive_design', 1998, #18 ) ;
#293 = CARTESIAN_POINT ( 'NONE',  ( 0.01698300000000000157, 2.079817658991950120E-18, -2.079817658991950505E-18 ) ) ;
#294 = CARTESIAN_POINT ( 'NONE',  ( 1.249139735130300433E-17, 0.0000000000000000000, 0.1019999999999999934 ) ) ;
#295 =( GEOMETRIC_REPRESENTATION_CONTEXT ( 3 ) GLOBAL_UNCERTAINTY_ASSIGNED_CONTEXT ( ( #139 ) ) GLOBAL_UNIT_ASSIGNED_CONTEXT ( ( #121, #103, #270 ) ) REPRESENTATION_CONTEXT ( 'NONE', 'WORKASPACE' ) );
#296 = ADVANCED_FACE ( 'NONE', ( #253 ), #133, .T. ) ;
#297 = DIRECTION ( 'NONE',  ( -0.0000000000000000000, -0.0000000000000000000, -1.000000000000000000 ) ) ;
#298 = DIRECTION ( 'NONE',  ( 1.000000000000000000, 0.0000000000000000000, 0.0000000000000000000 ) ) ;
#299 = ORIENTED_EDGE ( 'NONE', *, *, #230, .F. ) ;
ENDSEC;
END-ISO-10303-21;
