ISO-10303-21;
HEADER;
FILE_DESCRIPTION (( 'STEP AP214' ),
    '1' );
FILE_NAME ('Micro_SEM-265-04X.STEP',
    '2021-09-02T02:40:36',
    ( '' ),
    ( '' ),
    'SwSTEP 2.0',
    'SolidWorks 2020',
    '' );
FILE_SCHEMA (( 'AUTOMOTIVE_DESIGN' ));
ENDSEC;

DATA;
#1 = VERTEX_POINT ( 'NONE', #107 ) ;
#2 =( LENGTH_UNIT ( ) NAMED_UNIT ( * ) SI_UNIT ( $, .METRE. ) );
#3 = EDGE_LOOP ( 'NONE', ( #162, #9, #90, #232 ) ) ;
#4 = UNCERTAINTY_MEASURE_WITH_UNIT (LENGTH_MEASURE( 1.000000000000000082E-05 ), #155, 'distance_accuracy_value', 'NONE');
#5 = AXIS2_PLACEMENT_3D ( 'NONE', #239, #220, #117 ) ;
#6 = LINE ( 'NONE', #61, #67 ) ;
#7 = SURFACE_STYLE_USAGE ( .BOTH. , #46 ) ;
#8 = ORIENTED_EDGE ( 'NONE', *, *, #250, .T. ) ;
#9 = ORIENTED_EDGE ( 'NONE', *, *, #104, .T. ) ;
#10 =( CONVERSION_BASED_UNIT ( 'INCH', #212 ) LENGTH_UNIT ( ) NAMED_UNIT ( #102 ) );
#11 = CARTESIAN_POINT ( 'NONE',  ( 6.123233995736766036E-17, 0.0000000000000000000, 0.5000000000000000000 ) ) ;
#12 = DIRECTION ( 'NONE',  ( 0.0000000000000000000, 0.0000000000000000000, 1.000000000000000000 ) ) ;
#13 = CARTESIAN_POINT ( 'NONE',  ( -0.1326671999999999574, 1.624704618318417549E-17, 0.5000000000000000000 ) ) ;
#14 = COLOUR_RGB ( '',0.7921568627450980005, 0.8196078431372548767, 0.9333333333333333481 ) ;
#15 = LINE ( 'NONE', #13, #157 ) ;
#16 = DIRECTION ( 'NONE',  ( -1.000000000000000000, 0.0000000000000000000, 1.224646799147353207E-16 ) ) ;
#17 = CARTESIAN_POINT ( 'NONE',  ( 0.0000000000000000000, 0.0000000000000000000, 2.000000000000000000 ) ) ;
#18 = DIMENSIONAL_EXPONENTS ( 1.000000000000000000, 0.0000000000000000000, 0.0000000000000000000, 0.0000000000000000000, 0.0000000000000000000, 0.0000000000000000000, 0.0000000000000000000 ) ;
#19 = AXIS2_PLACEMENT_3D ( 'NONE', #173, #261, #35 ) ;
#20 =( LENGTH_UNIT ( ) NAMED_UNIT ( * ) SI_UNIT ( $, .METRE. ) );
#21 = CARTESIAN_POINT ( 'NONE',  ( 0.0000000000000000000, 0.0000000000000000000, 2.000000000000000000 ) ) ;
#22 = VECTOR ( 'NONE', #26, 39.37007874015748143 ) ;
#23 = VERTEX_POINT ( 'NONE', #88 ) ;
#24 = DIRECTION ( 'NONE',  ( 1.000000000000000000, 0.0000000000000000000, 0.0000000000000000000 ) ) ;
#25 = EDGE_LOOP ( 'NONE', ( #251, #78 ) ) ;
#26 = DIRECTION ( 'NONE',  ( -0.0000000000000000000, -0.0000000000000000000, -1.000000000000000000 ) ) ;
#27 = DIRECTION ( 'NONE',  ( -1.000000000000000000, 0.0000000000000000000, 1.224646799147353207E-16 ) ) ;
#28 = ORIENTED_EDGE ( 'NONE', *, *, #160, .T. ) ;
#29 = ORIENTED_EDGE ( 'NONE', *, *, #213, .F. ) ;
#30 = FILL_AREA_STYLE ('',( #199 ) ) ;
#31 = CARTESIAN_POINT ( 'NONE',  ( -0.1412499999999997646, 0.0000000000000000000, 2.000000000000000000 ) ) ;
#32 = CARTESIAN_POINT ( 'NONE',  ( 0.0000000000000000000, 0.0000000000000000000, 2.000000000000000000 ) ) ;
#33 = CARTESIAN_POINT ( 'NONE',  ( 6.123233995736766036E-17, 0.0000000000000000000, 0.5000000000000000000 ) ) ;
#34 = AXIS2_PLACEMENT_3D ( 'NONE', #267, #140, #74 ) ;
#35 = DIRECTION ( 'NONE',  ( 1.000000000000000000, 0.0000000000000000000, -0.0000000000000000000 ) ) ;
#36 = AXIS2_PLACEMENT_3D ( 'NONE', #72, #195, #16 ) ;
#37 = FACE_OUTER_BOUND ( 'NONE', #3, .T. ) ;
#38 = CARTESIAN_POINT ( 'NONE',  ( 6.123233995736766036E-17, 0.0000000000000000000, 0.5000000000000000000 ) ) ;
#39 = ORIENTED_EDGE ( 'NONE', *, *, #270, .T. ) ;
#40 = VECTOR ( 'NONE', #119, 39.37007874015748143 ) ;
#41 = SURFACE_STYLE_USAGE ( .BOTH. , #59 ) ;
#42 = VERTEX_POINT ( 'NONE', #203 ) ;
#43 = ORIENTED_EDGE ( 'NONE', *, *, #154, .F. ) ;
#44 =( NAMED_UNIT ( * ) SI_UNIT ( $, .STERADIAN. ) SOLID_ANGLE_UNIT ( ) );
#45 = EDGE_LOOP ( 'NONE', ( #48, #210, #234, #137 ) ) ;
#46 = SURFACE_SIDE_STYLE ('',( #161 ) ) ;
#47 = AXIS2_PLACEMENT_3D ( 'NONE', #254, #130, #27 ) ;
#48 = ORIENTED_EDGE ( 'NONE', *, *, #99, .T. ) ;
#49 = DIRECTION ( 'NONE',  ( 1.000000000000000000, 0.0000000000000000000, 0.0000000000000000000 ) ) ;
#50 = EDGE_CURVE ( 'NONE', #86, #253, #6, .T. ) ;
#51 = CARTESIAN_POINT ( 'NONE',  ( 0.0000000000000000000, 0.0000000000000000000, 0.0000000000000000000 ) ) ;
#52 = PLANE ( 'NONE',  #19 ) ;
#53 = VECTOR ( 'NONE', #296, 39.37007874015748143 ) ;
#54 = DIRECTION ( 'NONE',  ( -1.000000000000000000, 0.0000000000000000000, 0.0000000000000000000 ) ) ;
#55 = PRODUCT_DEFINITION ( 'UNKNOWN', '', #151, #206 ) ;
#56 = DIRECTION ( 'NONE',  ( -0.1736481776669311916, 2.126576849575783316E-17, 0.9848077530122080203 ) ) ;
#57 = CARTESIAN_POINT ( 'NONE',  ( 7.761134243270779603E-17, 0.0000000000000000000, 0.6337447048956795781 ) ) ;
#58 =( LENGTH_UNIT ( ) NAMED_UNIT ( * ) SI_UNIT ( $, .METRE. ) );
#59 = SURFACE_SIDE_STYLE ('',( #225 ) ) ;
#60 = CARTESIAN_POINT ( 'NONE',  ( 0.0000000000000000000, 0.0000000000000000000, 1.984999999999999654 ) ) ;
#61 = CARTESIAN_POINT ( 'NONE',  ( 0.1562500000000000000, 1.913510623667739463E-17, 2.000000000000000000 ) ) ;
#62 = DIRECTION ( 'NONE',  ( 1.000000000000000000, 0.0000000000000000000, 0.0000000000000000000 ) ) ;
#63 = ORIENTED_EDGE ( 'NONE', *, *, #250, .F. ) ;
#64 = CONICAL_SURFACE ( 'NONE', #81, 0.1326672000000000406, 0.1745329251994338915 ) ;
#65 = VERTEX_POINT ( 'NONE', #85 ) ;
#66 = ORIENTED_EDGE ( 'NONE', *, *, #129, .T. ) ;
#67 = VECTOR ( 'NONE', #233, 39.37007874015748143 ) ;
#68 = CYLINDRICAL_SURFACE ( 'NONE', #47, 0.1326672000000000129 ) ;
#69 = CIRCLE ( 'NONE', #110, 0.1326671999999999851 ) ;
#70 = ADVANCED_FACE ( 'NONE', ( #180 ), #68, .T. ) ;
#71 = DIRECTION ( 'NONE',  ( 1.224646799147353207E-16, 0.0000000000000000000, 1.000000000000000000 ) ) ;
#72 = CARTESIAN_POINT ( 'NONE',  ( 0.0000000000000000000, 0.0000000000000000000, 0.0000000000000000000 ) ) ;
#73 = CIRCLE ( 'NONE', #34, 0.1562500000000000000 ) ;
#74 = DIRECTION ( 'NONE',  ( 1.000000000000000000, 0.0000000000000000000, 0.0000000000000000000 ) ) ;
#75 = DIRECTION ( 'NONE',  ( -1.000000000000000000, 0.0000000000000000000, 0.0000000000000000000 ) ) ;
#76 = AXIS2_PLACEMENT_3D ( 'NONE', #276, #272, #202 ) ;
#77 =( NAMED_UNIT ( * ) SI_UNIT ( $, .STERADIAN. ) SOLID_ANGLE_UNIT ( ) );
#78 = ORIENTED_EDGE ( 'NONE', *, *, #154, .T. ) ;
#79 = DIRECTION ( 'NONE',  ( -0.0000000000000000000, -0.0000000000000000000, -1.000000000000000000 ) ) ;
#80 = LINE ( 'NONE', #248, #53 ) ;
#81 = AXIS2_PLACEMENT_3D ( 'NONE', #170, #71, #168 ) ;
#82 = PLANE ( 'NONE',  #76 ) ;
#83 = ADVANCED_FACE ( 'NONE', ( #209 ), #52, .T. ) ;
#84 = APPLICATION_CONTEXT ( 'automotive_design' ) ;
#85 = CARTESIAN_POINT ( 'NONE',  ( -0.1412499999999997646, 0.0000000000000000000, 2.000000000000000000 ) ) ;
#86 = VERTEX_POINT ( 'NONE', #194 ) ;
#87 = VECTOR ( 'NONE', #92, 39.37007874015748143 ) ;
#88 = CARTESIAN_POINT ( 'NONE',  ( -0.1326671999999999851, 0.0000000000000000000, 3.249409236636834481E-17 ) ) ;
#89 = EDGE_LOOP ( 'NONE', ( #126, #295, #156, #185 ) ) ;
#90 = ORIENTED_EDGE ( 'NONE', *, *, #238, .T. ) ;
#91 = CIRCLE ( 'NONE', #150, 0.1326672000000000406 ) ;
#92 = DIRECTION ( 'NONE',  ( -1.224646799147353207E-16, -0.0000000000000000000, -1.000000000000000000 ) ) ;
#93 = EDGE_CURVE ( 'NONE', #128, #253, #290, .T. ) ;
#94 = DIRECTION ( 'NONE',  ( 1.224646799147353207E-16, 0.0000000000000000000, 1.000000000000000000 ) ) ;
#95 = CARTESIAN_POINT ( 'NONE',  ( 0.1326672000000000962, 0.0000000000000000000, 0.5000000000000000000 ) ) ;
#96 = FACE_OUTER_BOUND ( 'NONE', #271, .T. ) ;
#97 = DIRECTION ( 'NONE',  ( 0.0000000000000000000, 0.0000000000000000000, -1.000000000000000000 ) ) ;
#98 = DIMENSIONAL_EXPONENTS ( 1.000000000000000000, 0.0000000000000000000, 0.0000000000000000000, 0.0000000000000000000, 0.0000000000000000000, 0.0000000000000000000, 0.0000000000000000000 ) ;
#99 = EDGE_CURVE ( 'NONE', #163, #128, #279, .T. ) ;
#100 = LINE ( 'NONE', #191, #284 ) ;
#101 =( NAMED_UNIT ( * ) PLANE_ANGLE_UNIT ( ) SI_UNIT ( $, .RADIAN. ) );
#102 = DIMENSIONAL_EXPONENTS ( 1.000000000000000000, 0.0000000000000000000, 0.0000000000000000000, 0.0000000000000000000, 0.0000000000000000000, 0.0000000000000000000, 0.0000000000000000000 ) ;
#103 =( NAMED_UNIT ( * ) SI_UNIT ( $, .STERADIAN. ) SOLID_ANGLE_UNIT ( ) );
#104 = EDGE_CURVE ( 'NONE', #86, #1, #73, .T. ) ;
#105 = DIRECTION ( 'NONE',  ( -1.000000000000000000, 0.0000000000000000000, 0.0000000000000000000 ) ) ;
#106 = AXIS2_PLACEMENT_3D ( 'NONE', #21, #177, #105 ) ;
#107 = CARTESIAN_POINT ( 'NONE',  ( -0.1562500000000000000, 0.0000000000000000000, 1.984999999999999654 ) ) ;
#108 = PRODUCT_CONTEXT ( 'NONE', #266, 'mechanical' ) ;
#109 = ORIENTED_EDGE ( 'NONE', *, *, #93, .F. ) ;
#110 = AXIS2_PLACEMENT_3D ( 'NONE', #144, #237, #264 ) ;
#111 = ORIENTED_EDGE ( 'NONE', *, *, #213, .T. ) ;
#112 = AXIS2_PLACEMENT_3D ( 'NONE', #17, #79, #247 ) ;
#113 = ORIENTED_EDGE ( 'NONE', *, *, #292, .T. ) ;
#114 = ORIENTED_EDGE ( 'NONE', *, *, #104, .F. ) ;
#115 = CIRCLE ( 'NONE', #5, 0.1562500000000000000 ) ;
#116 = ADVANCED_BREP_SHAPE_REPRESENTATION ( 'Micro_SEM-265-04X', ( #243, #228 ), #269 ) ;
#117 = DIRECTION ( 'NONE',  ( 1.000000000000000000, 0.0000000000000000000, 0.0000000000000000000 ) ) ;
#118 = AXIS2_PLACEMENT_3D ( 'NONE', #32, #97, #54 ) ;
#119 = DIRECTION ( 'NONE',  ( 0.1736481776669313859, 0.0000000000000000000, 0.9848077530122077983 ) ) ;
#120 = EDGE_CURVE ( 'NONE', #253, #167, #178, .T. ) ;
#121 = PRODUCT_RELATED_PRODUCT_CATEGORY ( 'part', '', ( #145 ) ) ;
#122 = AXIS2_PLACEMENT_3D ( 'NONE', #11, #94, #287 ) ;
#123 = APPLICATION_PROTOCOL_DEFINITION ( 'draft international standard', 'automotive_design', 1998, #266 ) ;
#124 = EDGE_CURVE ( 'NONE', #23, #197, #69, .T. ) ;
#125 = DIRECTION ( 'NONE',  ( -1.000000000000000000, 0.0000000000000000000, 0.0000000000000000000 ) ) ;
#126 = ORIENTED_EDGE ( 'NONE', *, *, #143, .F. ) ;
#127 = DIRECTION ( 'NONE',  ( 1.000000000000000000, 0.0000000000000000000, 0.0000000000000000000 ) ) ;
#128 = VERTEX_POINT ( 'NONE', #95 ) ;
#129 = EDGE_CURVE ( 'NONE', #167, #253, #115, .T. ) ;
#130 = DIRECTION ( 'NONE',  ( -1.224646799147353207E-16, -0.0000000000000000000, -1.000000000000000000 ) ) ;
#131 = ADVANCED_FACE ( 'NONE', ( #262 ), #263, .T. ) ;
#132 = STYLED_ITEM ( 'NONE', ( #256 ), #116 ) ;
#133 = ORIENTED_EDGE ( 'NONE', *, *, #143, .T. ) ;
#134 = CARTESIAN_POINT ( 'NONE',  ( 0.0000000000000000000, 0.0000000000000000000, 2.000000000000000000 ) ) ;
#135 = MECHANICAL_DESIGN_GEOMETRIC_PRESENTATION_REPRESENTATION (  '', ( #132 ), #172 ) ;
#136 = FACE_OUTER_BOUND ( 'NONE', #280, .T. ) ;
#137 = ORIENTED_EDGE ( 'NONE', *, *, #217, .F. ) ;
#138 = DIRECTION ( 'NONE',  ( -1.224646799147353207E-16, -0.0000000000000000000, -1.000000000000000000 ) ) ;
#139 = DIRECTION ( 'NONE',  ( 0.0000000000000000000, 0.0000000000000000000, 1.000000000000000000 ) ) ;
#140 = DIRECTION ( 'NONE',  ( 0.0000000000000000000, 0.0000000000000000000, -1.000000000000000000 ) ) ;
#141 = CONICAL_SURFACE ( 'NONE', #257, 0.1412499999999997646, 0.7853981633974482790 ) ;
#142 = DIRECTION ( 'NONE',  ( -1.224646799147353207E-16, -0.0000000000000000000, -1.000000000000000000 ) ) ;
#143 = EDGE_CURVE ( 'NONE', #163, #167, #15, .T. ) ;
#144 = CARTESIAN_POINT ( 'NONE',  ( 1.989689310383572291E-33, 0.0000000000000000000, 1.624704618318417241E-17 ) ) ;
#145 = PRODUCT ( 'Micro_SEM-265-04X', 'Micro_SEM-265-04X', '', ( #108 ) ) ;
#146 = FILL_AREA_STYLE ('',( #229 ) ) ;
#147 = DIRECTION ( 'NONE',  ( 1.000000000000000000, 0.0000000000000000000, 0.0000000000000000000 ) ) ;
#148 = AXIS2_PLACEMENT_3D ( 'NONE', #200, #198, #127 ) ;
#149 = LINE ( 'NONE', #174, #22 ) ;
#150 = AXIS2_PLACEMENT_3D ( 'NONE', #38, #249, #125 ) ;
#151 = PRODUCT_DEFINITION_FORMATION_WITH_SPECIFIED_SOURCE ( 'ANY', '', #145, .NOT_KNOWN. ) ;
#152 = CARTESIAN_POINT ( 'NONE',  ( 0.1562500000000000833, 1.913510623667740080E-17, 0.6337447048956795781 ) ) ;
#153 =( CONVERSION_BASED_UNIT ( 'INCH', #245 ) LENGTH_UNIT ( ) NAMED_UNIT ( #18 ) );
#154 = EDGE_CURVE ( 'NONE', #197, #23, #222, .T. ) ;
#155 =( CONVERSION_BASED_UNIT ( 'INCH', #176 ) LENGTH_UNIT ( ) NAMED_UNIT ( #98 ) );
#156 = ORIENTED_EDGE ( 'NONE', *, *, #93, .T. ) ;
#157 = VECTOR ( 'NONE', #56, 39.37007874015747433 ) ;
#158 = PRESENTATION_LAYER_ASSIGNMENT (  '', '', ( #132 ) ) ;
#159 = ORIENTED_EDGE ( 'NONE', *, *, #294, .T. ) ;
#160 = EDGE_CURVE ( 'NONE', #65, #42, #166, .T. ) ;
#161 = SURFACE_STYLE_FILL_AREA ( #30 ) ;
#162 = ORIENTED_EDGE ( 'NONE', *, *, #50, .F. ) ;
#163 = VERTEX_POINT ( 'NONE', #291 ) ;
#164 = FACE_OUTER_BOUND ( 'NONE', #188, .T. ) ;
#165 = EDGE_CURVE ( 'NONE', #128, #197, #100, .T. ) ;
#166 = CIRCLE ( 'NONE', #293, 0.1412499999999997646 ) ;
#167 = VERTEX_POINT ( 'NONE', #285 ) ;
#168 = DIRECTION ( 'NONE',  ( 1.000000000000000000, 0.0000000000000000000, 0.0000000000000000000 ) ) ;
#169 = CARTESIAN_POINT ( 'NONE',  ( 0.1326672000000000962, 0.0000000000000000000, 0.5000000000000000000 ) ) ;
#170 = CARTESIAN_POINT ( 'NONE',  ( 6.123233995736766036E-17, 0.0000000000000000000, 0.5000000000000000000 ) ) ;
#171 = AXIS2_PLACEMENT_3D ( 'NONE', #221, #223, #218 ) ;
#172 =( GEOMETRIC_REPRESENTATION_CONTEXT ( 3 ) GLOBAL_UNCERTAINTY_ASSIGNED_CONTEXT ( ( #260 ) ) GLOBAL_UNIT_ASSIGNED_CONTEXT ( ( #10, #186, #44 ) ) REPRESENTATION_CONTEXT ( 'NONE', 'WORKASPACE' ) );
#173 = CARTESIAN_POINT ( 'NONE',  ( 0.0000000000000000000, 0.0000000000000000000, 2.000000000000000000 ) ) ;
#174 = CARTESIAN_POINT ( 'NONE',  ( -0.1562500000000000000, 0.0000000000000000000, 2.000000000000000000 ) ) ;
#175 = ORIENTED_EDGE ( 'NONE', *, *, #160, .F. ) ;
#176 = LENGTH_MEASURE_WITH_UNIT ( LENGTH_MEASURE( 0.02539999999999999897 ), #20 );
#177 = DIRECTION ( 'NONE',  ( -0.0000000000000000000, -0.0000000000000000000, -1.000000000000000000 ) ) ;
#178 = CIRCLE ( 'NONE', #252, 0.1562500000000000000 ) ;
#179 = CYLINDRICAL_SURFACE ( 'NONE', #106, 0.1562500000000000000 ) ;
#180 = FACE_OUTER_BOUND ( 'NONE', #45, .T. ) ;
#181 = ADVANCED_FACE ( 'NONE', ( #96 ), #64, .T. ) ;
#182 = ORIENTED_EDGE ( 'NONE', *, *, #165, .F. ) ;
#183 = ORIENTED_EDGE ( 'NONE', *, *, #217, .T. ) ;
#184 = ADVANCED_FACE ( 'NONE', ( #216 ), #215, .T. ) ;
#185 = ORIENTED_EDGE ( 'NONE', *, *, #120, .T. ) ;
#186 =( NAMED_UNIT ( * ) PLANE_ANGLE_UNIT ( ) SI_UNIT ( $, .RADIAN. ) );
#187 = CIRCLE ( 'NONE', #224, 0.1562500000000000000 ) ;
#188 = EDGE_LOOP ( 'NONE', ( #283, #8, #207, #29 ) ) ;
#189 = ADVANCED_FACE ( 'NONE', ( #190 ), #286, .T. ) ;
#190 = FACE_OUTER_BOUND ( 'NONE', #230, .T. ) ;
#191 = CARTESIAN_POINT ( 'NONE',  ( 0.1326672000000000129, 1.624704618318417549E-17, -1.624704618318417549E-17 ) ) ;
#192 = CARTESIAN_POINT ( 'NONE',  ( 0.0000000000000000000, 0.0000000000000000000, 2.000000000000000000 ) ) ;
#193 = AXIS2_PLACEMENT_3D ( 'NONE', #33, #142, #240 ) ;
#194 = CARTESIAN_POINT ( 'NONE',  ( 0.1562500000000000000, 1.913510623667739463E-17, 1.984999999999999654 ) ) ;
#195 = DIRECTION ( 'NONE',  ( -1.224646799147353207E-16, -0.0000000000000000000, -1.000000000000000000 ) ) ;
#196 = PRESENTATION_LAYER_ASSIGNMENT (  '', '', ( #201 ) ) ;
#197 = VERTEX_POINT ( 'NONE', #299 ) ;
#198 = DIRECTION ( 'NONE',  ( 0.0000000000000000000, 0.0000000000000000000, 1.000000000000000000 ) ) ;
#199 = FILL_AREA_STYLE_COLOUR ( '', #273 ) ;
#200 = CARTESIAN_POINT ( 'NONE',  ( 0.0000000000000000000, 0.0000000000000000000, 2.000000000000000000 ) ) ;
#201 = STYLED_ITEM ( 'NONE', ( #227 ), #243 ) ;
#202 = DIRECTION ( 'NONE',  ( 1.000000000000000000, 0.0000000000000000000, -0.0000000000000000000 ) ) ;
#203 = CARTESIAN_POINT ( 'NONE',  ( 0.1412499999999997646, 1.821662113731686019E-17, 2.000000000000000000 ) ) ;
#204 = SHAPE_DEFINITION_REPRESENTATION ( #282, #116 ) ;
#205 = CARTESIAN_POINT ( 'NONE',  ( -0.1326672000000000129, 0.0000000000000000000, 1.624704618318417549E-17 ) ) ;
#206 = PRODUCT_DEFINITION_CONTEXT ( 'detailed design', #84, 'design' ) ;
#207 = ORIENTED_EDGE ( 'NONE', *, *, #292, .F. ) ;
#208 = VECTOR ( 'NONE', #214, 39.37007874015748143 ) ;
#209 = FACE_OUTER_BOUND ( 'NONE', #278, .T. ) ;
#210 = ORIENTED_EDGE ( 'NONE', *, *, #165, .T. ) ;
#211 = ORIENTED_EDGE ( 'NONE', *, *, #99, .F. ) ;
#212 = LENGTH_MEASURE_WITH_UNIT ( LENGTH_MEASURE( 0.02539999999999999897 ), #2 );
#213 = EDGE_CURVE ( 'NONE', #65, #1, #231, .T. ) ;
#214 = DIRECTION ( 'NONE',  ( -0.7071067811865475727, 0.0000000000000000000, -0.7071067811865474617 ) ) ;
#215 = CONICAL_SURFACE ( 'NONE', #122, 0.1326672000000000406, 0.1745329251994338915 ) ;
#216 = FACE_OUTER_BOUND ( 'NONE', #89, .T. ) ;
#217 = EDGE_CURVE ( 'NONE', #163, #23, #297, .T. ) ;
#218 = DIRECTION ( 'NONE',  ( -1.000000000000000000, 0.0000000000000000000, 1.224646799147353207E-16 ) ) ;
#219 = UNCERTAINTY_MEASURE_WITH_UNIT (LENGTH_MEASURE( 1.000000000000000082E-05 ), #153, 'distance_accuracy_value', 'NONE');
#220 = DIRECTION ( 'NONE',  ( -1.224646799147353207E-16, -0.0000000000000000000, -1.000000000000000000 ) ) ;
#221 = CARTESIAN_POINT ( 'NONE',  ( 1.989689310383572291E-33, 0.0000000000000000000, 1.624704618318417241E-17 ) ) ;
#222 = CIRCLE ( 'NONE', #171, 0.1326671999999999851 ) ;
#223 = DIRECTION ( 'NONE',  ( -1.224646799147353207E-16, -0.0000000000000000000, -1.000000000000000000 ) ) ;
#224 = AXIS2_PLACEMENT_3D ( 'NONE', #60, #274, #62 ) ;
#225 = SURFACE_STYLE_FILL_AREA ( #146 ) ;
#226 = ADVANCED_FACE ( 'NONE', ( #136 ), #242, .T. ) ;
#227 = PRESENTATION_STYLE_ASSIGNMENT (( #41 ) ) ;
#228 = AXIS2_PLACEMENT_3D ( 'NONE', #51, #139, #24 ) ;
#229 = FILL_AREA_STYLE_COLOUR ( '', #14 ) ;
#230 = EDGE_LOOP ( 'NONE', ( #182, #159, #183, #43 ) ) ;
#231 = LINE ( 'NONE', #31, #208 ) ;
#232 = ORIENTED_EDGE ( 'NONE', *, *, #120, .F. ) ;
#233 = DIRECTION ( 'NONE',  ( -0.0000000000000000000, -0.0000000000000000000, -1.000000000000000000 ) ) ;
#234 = ORIENTED_EDGE ( 'NONE', *, *, #124, .F. ) ;
#235 = ADVANCED_FACE ( 'NONE', ( #164 ), #141, .T. ) ;
#236 = ORIENTED_EDGE ( 'NONE', *, *, #129, .F. ) ;
#237 = DIRECTION ( 'NONE',  ( -1.224646799147353207E-16, -0.0000000000000000000, -1.000000000000000000 ) ) ;
#238 = EDGE_CURVE ( 'NONE', #1, #167, #149, .T. ) ;
#239 = CARTESIAN_POINT ( 'NONE',  ( 7.761134243270779603E-17, 0.0000000000000000000, 0.6337447048956795781 ) ) ;
#240 = DIRECTION ( 'NONE',  ( -1.000000000000000000, 0.0000000000000000000, 0.0000000000000000000 ) ) ;
#241 = CIRCLE ( 'NONE', #148, 0.1412499999999997646 ) ;
#242 = CYLINDRICAL_SURFACE ( 'NONE', #112, 0.1562500000000000000 ) ;
#243 = MANIFOLD_SOLID_BREP ( 'Cut-Revolve1', #244 ) ;
#244 = CLOSED_SHELL ( 'NONE', ( #70, #181, #235, #226, #268, #83, #131, #184, #189, #277 ) ) ;
#245 = LENGTH_MEASURE_WITH_UNIT ( LENGTH_MEASURE( 0.02539999999999999897 ), #58 );
#246 =( GEOMETRIC_REPRESENTATION_CONTEXT ( 3 ) GLOBAL_UNCERTAINTY_ASSIGNED_CONTEXT ( ( #4 ) ) GLOBAL_UNIT_ASSIGNED_CONTEXT ( ( #155, #275, #103 ) ) REPRESENTATION_CONTEXT ( 'NONE', 'WORKASPACE' ) );
#247 = DIRECTION ( 'NONE',  ( -1.000000000000000000, 0.0000000000000000000, 0.0000000000000000000 ) ) ;
#248 = CARTESIAN_POINT ( 'NONE',  ( 0.1412499999999997646, 1.729813603795632883E-17, 2.000000000000000000 ) ) ;
#249 = DIRECTION ( 'NONE',  ( -1.224646799147353207E-16, -0.0000000000000000000, -1.000000000000000000 ) ) ;
#250 = EDGE_CURVE ( 'NONE', #42, #86, #80, .T. ) ;
#251 = ORIENTED_EDGE ( 'NONE', *, *, #124, .T. ) ;
#252 = AXIS2_PLACEMENT_3D ( 'NONE', #57, #265, #147 ) ;
#253 = VERTEX_POINT ( 'NONE', #152 ) ;
#254 = CARTESIAN_POINT ( 'NONE',  ( 0.0000000000000000000, 0.0000000000000000000, 0.0000000000000000000 ) ) ;
#255 = ORIENTED_EDGE ( 'NONE', *, *, #238, .F. ) ;
#256 = PRESENTATION_STYLE_ASSIGNMENT (( #7 ) ) ;
#257 = AXIS2_PLACEMENT_3D ( 'NONE', #134, #288, #75 ) ;
#258 = EDGE_LOOP ( 'NONE', ( #63, #175, #111, #114 ) ) ;
#259 = APPLICATION_PROTOCOL_DEFINITION ( 'draft international standard', 'automotive_design', 1998, #84 ) ;
#260 = UNCERTAINTY_MEASURE_WITH_UNIT (LENGTH_MEASURE( 1.000000000000000082E-05 ), #10, 'distance_accuracy_value', 'NONE');
#261 = DIRECTION ( 'NONE',  ( 0.0000000000000000000, 0.0000000000000000000, 1.000000000000000000 ) ) ;
#262 = FACE_OUTER_BOUND ( 'NONE', #258, .T. ) ;
#263 = CONICAL_SURFACE ( 'NONE', #118, 0.1412499999999997646, 0.7853981633974482790 ) ;
#264 = DIRECTION ( 'NONE',  ( -1.000000000000000000, 0.0000000000000000000, 1.224646799147353207E-16 ) ) ;
#265 = DIRECTION ( 'NONE',  ( -1.224646799147353207E-16, -0.0000000000000000000, -1.000000000000000000 ) ) ;
#266 = APPLICATION_CONTEXT ( 'automotive_design' ) ;
#267 = CARTESIAN_POINT ( 'NONE',  ( 0.0000000000000000000, 0.0000000000000000000, 1.984999999999999654 ) ) ;
#268 = ADVANCED_FACE ( 'NONE', ( #37 ), #179, .T. ) ;
#269 =( GEOMETRIC_REPRESENTATION_CONTEXT ( 3 ) GLOBAL_UNCERTAINTY_ASSIGNED_CONTEXT ( ( #219 ) ) GLOBAL_UNIT_ASSIGNED_CONTEXT ( ( #153, #101, #77 ) ) REPRESENTATION_CONTEXT ( 'NONE', 'WORKASPACE' ) );
#270 = EDGE_CURVE ( 'NONE', #42, #65, #241, .T. ) ;
#271 = EDGE_LOOP ( 'NONE', ( #211, #133, #66, #109 ) ) ;
#272 = DIRECTION ( 'NONE',  ( 0.0000000000000000000, 0.0000000000000000000, 1.000000000000000000 ) ) ;
#273 = COLOUR_RGB ( '',0.7921568627450980005, 0.8196078431372548767, 0.9333333333333333481 ) ;
#274 = DIRECTION ( 'NONE',  ( 0.0000000000000000000, 0.0000000000000000000, -1.000000000000000000 ) ) ;
#275 =( NAMED_UNIT ( * ) PLANE_ANGLE_UNIT ( ) SI_UNIT ( $, .RADIAN. ) );
#276 = CARTESIAN_POINT ( 'NONE',  ( 0.0000000000000000000, 0.0000000000000000000, 0.0000000000000000000 ) ) ;
#277 = ADVANCED_FACE ( 'NONE', ( #298 ), #82, .F. ) ;
#278 = EDGE_LOOP ( 'NONE', ( #28, #39 ) ) ;
#279 = CIRCLE ( 'NONE', #193, 0.1326672000000000406 ) ;
#280 = EDGE_LOOP ( 'NONE', ( #113, #281, #236, #255 ) ) ;
#281 = ORIENTED_EDGE ( 'NONE', *, *, #50, .T. ) ;
#282 = PRODUCT_DEFINITION_SHAPE ( 'NONE', 'NONE',  #55 ) ;
#283 = ORIENTED_EDGE ( 'NONE', *, *, #270, .F. ) ;
#284 = VECTOR ( 'NONE', #138, 39.37007874015748143 ) ;
#285 = CARTESIAN_POINT ( 'NONE',  ( -0.1562499999999999445, 0.0000000000000000000, 0.6337447048956795781 ) ) ;
#286 = CYLINDRICAL_SURFACE ( 'NONE', #36, 0.1326672000000000129 ) ;
#287 = DIRECTION ( 'NONE',  ( 1.000000000000000000, 0.0000000000000000000, 0.0000000000000000000 ) ) ;
#288 = DIRECTION ( 'NONE',  ( 0.0000000000000000000, 0.0000000000000000000, -1.000000000000000000 ) ) ;
#289 = MECHANICAL_DESIGN_GEOMETRIC_PRESENTATION_REPRESENTATION (  '', ( #201 ), #246 ) ;
#290 = LINE ( 'NONE', #169, #40 ) ;
#291 = CARTESIAN_POINT ( 'NONE',  ( -0.1326671999999999574, 1.769107620993078506E-17, 0.5000000000000000000 ) ) ;
#292 = EDGE_CURVE ( 'NONE', #1, #86, #187, .T. ) ;
#293 = AXIS2_PLACEMENT_3D ( 'NONE', #192, #12, #49 ) ;
#294 = EDGE_CURVE ( 'NONE', #128, #163, #91, .T. ) ;
#295 = ORIENTED_EDGE ( 'NONE', *, *, #294, .F. ) ;
#296 = DIRECTION ( 'NONE',  ( 0.7071067811865475727, 8.659560562354932858E-17, -0.7071067811865474617 ) ) ;
#297 = LINE ( 'NONE', #205, #87 ) ;
#298 = FACE_OUTER_BOUND ( 'NONE', #25, .T. ) ;
#299 = CARTESIAN_POINT ( 'NONE',  ( 0.1326671999999999851, 1.624704618318417549E-17, 0.0000000000000000000 ) ) ;
ENDSEC;
END-ISO-10303-21;
