ISO-10303-21;
HEADER;
FILE_DESCRIPTION (( 'STEP AP214' ),
    '1' );
FILE_NAME ('05067.STEP',
    '2023-06-22T15:50:08',
    ( '' ),
    ( '' ),
    'SwSTEP 2.0',
    'SolidWorks 2023',
    '' );
FILE_SCHEMA (( 'AUTOMOTIVE_DESIGN' ));
ENDSEC;

DATA;
#1 = SURFACE_SIDE_STYLE ('',( #241 ) ) ;
#2 = FILL_AREA_STYLE_COLOUR ( '', #79 ) ;
#3 = CARTESIAN_POINT ( 'NONE',  ( 1.148106374200643401E-17, 0.000000000000000000, 0.09374999999999998612 ) ) ;
#4 = DIMENSIONAL_EXPONENTS ( 1.000000000000000000, 0.000000000000000000, 0.000000000000000000, 0.000000000000000000, 0.000000000000000000, 0.000000000000000000, 0.000000000000000000 ) ;
#5 = DIRECTION ( 'NONE',  ( 3.628583108584750472E-17, 1.000000000000000000, -0.000000000000000000 ) ) ;
#6 = MANIFOLD_SOLID_BREP ( 'Revolve - Tool Body (Straight Shanked)', #287 ) ;
#7 =( NAMED_UNIT ( * ) SI_UNIT ( $, .STERADIAN. ) SOLID_ANGLE_UNIT ( ) );
#8 = LENGTH_MEASURE_WITH_UNIT ( LENGTH_MEASURE( 0.02539999999999999897 ), #266 );
#9 = CARTESIAN_POINT ( 'NONE',  ( -0.09374999999999988898, 2.000000000000000000, 0.000000000000000000 ) ) ;
#10 = DIRECTION ( 'NONE',  ( 0.000000000000000000, 0.000000000000000000, -1.000000000000000000 ) ) ;
#11 = PRESENTATION_LAYER_ASSIGNMENT (  '', '', ( #112 ) ) ;
#12 = UNCERTAINTY_MEASURE_WITH_UNIT (LENGTH_MEASURE( 1.000000000000000082E-05 ), #231, 'distance_accuracy_value', 'NONE');
#13 = DIRECTION ( 'NONE',  ( 0.000000000000000000, 0.000000000000000000, -1.000000000000000000 ) ) ;
#14 = LINE ( 'NONE', #57, #239 ) ;
#15 = LENGTH_MEASURE_WITH_UNIT ( LENGTH_MEASURE( 0.02539999999999999897 ), #218 );
#16 = FACE_OUTER_BOUND ( 'NONE', #98, .T. ) ;
#17 =( CONVERSION_BASED_UNIT ( 'INCH', #159 ) LENGTH_UNIT ( ) NAMED_UNIT ( #130 ) );
#18 = AXIS2_PLACEMENT_3D ( 'NONE', #173, #267, #104 ) ;
#19 = ORIENTED_EDGE ( 'NONE', *, *, #122, .F. ) ;
#20 = DIRECTION ( 'NONE',  ( -0.000000000000000000, -1.000000000000000000, -0.000000000000000000 ) ) ;
#21 = VERTEX_POINT ( 'NONE', #246 ) ;
#22 = PRESENTATION_STYLE_ASSIGNMENT (( #281 ) ) ;
#23 = ORIENTED_EDGE ( 'NONE', *, *, #137, .T. ) ;
#24 = CARTESIAN_POINT ( 'NONE',  ( 0.000000000000000000, 0.000000000000000000, 0.000000000000000000 ) ) ;
#25 = CARTESIAN_POINT ( 'NONE',  ( 0.000000000000000000, 0.3125000000000000000, -0.09374999999999998612 ) ) ;
#26 = COLOUR_RGB ( '',1.000000000000000000, 0.000000000000000000, 0.000000000000000000 ) ;
#27 = FACE_OUTER_BOUND ( 'NONE', #114, .T. ) ;
#28 =( NAMED_UNIT ( * ) PLANE_ANGLE_UNIT ( ) SI_UNIT ( $, .RADIAN. ) );
#29 = ORIENTED_EDGE ( 'NONE', *, *, #169, .T. ) ;
#30 = DIRECTION ( 'NONE',  ( -3.628583108584750472E-17, -1.000000000000000000, 0.000000000000000000 ) ) ;
#31 = CIRCLE ( 'NONE', #45, 0.09374999999999998612 ) ;
#32 = DIRECTION ( 'NONE',  ( -1.000000000000000000, 0.000000000000000000, 0.000000000000000000 ) ) ;
#33 = CYLINDRICAL_SURFACE ( 'NONE', #307, 0.09374999999999995837 ) ;
#34 = PLANE ( 'NONE',  #87 ) ;
#35 = PRESENTATION_LAYER_ASSIGNMENT (  '', '', ( #93 ) ) ;
#36 = DIRECTION ( 'NONE',  ( 0.000000000000000000, 0.000000000000000000, -1.000000000000000000 ) ) ;
#37 = CARTESIAN_POINT ( 'NONE',  ( 0.000000000000000000, 0.000000000000000000, 0.000000000000000000 ) ) ;
#38 = DIRECTION ( 'NONE',  ( 0.000000000000000000, 0.000000000000000000, -1.000000000000000000 ) ) ;
#39 = ADVANCED_FACE ( 'NONE', ( #27 ), #127, .F. ) ;
#40 = AXIS2_PLACEMENT_3D ( 'NONE', #268, #152, #131 ) ;
#41 = VECTOR ( 'NONE', #150, 39.37007874015748143 ) ;
#42 = EDGE_LOOP ( 'NONE', ( #261, #85, #213, #19 ) ) ;
#43 = ORIENTED_EDGE ( 'NONE', *, *, #132, .T. ) ;
#44 = ORIENTED_EDGE ( 'NONE', *, *, #132, .F. ) ;
#45 = AXIS2_PLACEMENT_3D ( 'NONE', #177, #258, #38 ) ;
#46 =( CONVERSION_BASED_UNIT ( 'INCH', #147 ) LENGTH_UNIT ( ) NAMED_UNIT ( #247 ) );
#47 = FACE_OUTER_BOUND ( 'NONE', #264, .T. ) ;
#48 = AXIS2_PLACEMENT_3D ( 'NONE', #37, #20, #13 ) ;
#49 = FILL_AREA_STYLE_COLOUR ( '', #244 ) ;
#50 = EDGE_CURVE ( 'NONE', #215, #291, #78, .T. ) ;
#51 = CARTESIAN_POINT ( 'NONE',  ( 6.123233995736766036E-17, 2.000000000000000000, 0.000000000000000000 ) ) ;
#52 = CARTESIAN_POINT ( 'NONE',  ( 0.000000000000000000, 0.000000000000000000, 0.000000000000000000 ) ) ;
#53 = SURFACE_SIDE_STYLE ('',( #290 ) ) ;
#54 = DIMENSIONAL_EXPONENTS ( 1.000000000000000000, 0.000000000000000000, 0.000000000000000000, 0.000000000000000000, 0.000000000000000000, 0.000000000000000000, 0.000000000000000000 ) ;
#55 = DIRECTION ( 'NONE',  ( 3.628583108584750472E-17, 1.000000000000000000, -0.000000000000000000 ) ) ;
#56 = UNCERTAINTY_MEASURE_WITH_UNIT (LENGTH_MEASURE( 1.000000000000000082E-05 ), #17, 'distance_accuracy_value', 'NONE');
#57 = CARTESIAN_POINT ( 'NONE',  ( 0.000000000000000000, 0.000000000000000000, -0.09374999999999998612 ) ) ;
#58 = EDGE_CURVE ( 'NONE', #162, #215, #248, .T. ) ;
#59 = CARTESIAN_POINT ( 'NONE',  ( -0.09374999999999998612, 0.3125000000000000000, 0.000000000000000000 ) ) ;
#60 = FILL_AREA_STYLE_COLOUR ( '', #209 ) ;
#61 =( GEOMETRIC_REPRESENTATION_CONTEXT ( 3 ) GLOBAL_UNCERTAINTY_ASSIGNED_CONTEXT ( ( #200 ) ) GLOBAL_UNIT_ASSIGNED_CONTEXT ( ( #123, #286, #146 ) ) REPRESENTATION_CONTEXT ( 'NONE', 'WORKASPACE' ) );
#62 = CIRCLE ( 'NONE', #217, 0.09375000000000001388 ) ;
#63 = PLANE ( 'NONE',  #223 ) ;
#64 = CARTESIAN_POINT ( 'NONE',  ( 0.09374999999999998612, 2.000000000000000000, 1.148106374200643247E-17 ) ) ;
#65 =( LENGTH_UNIT ( ) NAMED_UNIT ( * ) SI_UNIT ( $, .METRE. ) );
#66 = EDGE_CURVE ( 'NONE', #162, #21, #92, .T. ) ;
#67 = ORIENTED_EDGE ( 'NONE', *, *, #66, .T. ) ;
#68 = VERTEX_POINT ( 'NONE', #83 ) ;
#69 = LENGTH_MEASURE_WITH_UNIT ( LENGTH_MEASURE( 0.02539999999999999897 ), #194 );
#70 = ORIENTED_EDGE ( 'NONE', *, *, #89, .F. ) ;
#71 =( LENGTH_UNIT ( ) NAMED_UNIT ( * ) SI_UNIT ( $, .METRE. ) );
#72 =( GEOMETRIC_REPRESENTATION_CONTEXT ( 3 ) GLOBAL_UNCERTAINTY_ASSIGNED_CONTEXT ( ( #56 ) ) GLOBAL_UNIT_ASSIGNED_CONTEXT ( ( #17, #110, #259 ) ) REPRESENTATION_CONTEXT ( 'NONE', 'WORKASPACE' ) );
#73 = ORIENTED_EDGE ( 'NONE', *, *, #66, .F. ) ;
#74 = CARTESIAN_POINT ( 'NONE',  ( 0.000000000000000000, 0.000000000000000000, -0.09375000000000001388 ) ) ;
#75 = DIMENSIONAL_EXPONENTS ( 1.000000000000000000, 0.000000000000000000, 0.000000000000000000, 0.000000000000000000, 0.000000000000000000, 0.000000000000000000, 0.000000000000000000 ) ;
#76 = PRODUCT_DEFINITION_CONTEXT ( 'detailed design', #301, 'design' ) ;
#77 = SURFACE_STYLE_USAGE ( .BOTH. , #125 ) ;
#78 = CIRCLE ( 'NONE', #100, 0.09374999999999991673 ) ;
#79 = COLOUR_RGB ( '',0.7921568627450980005, 0.8196078431372548767, 0.9333333333333333481 ) ;
#80 = CARTESIAN_POINT ( 'NONE',  ( 0.09374999999999998612, 2.000000000000000000, 0.000000000000000000 ) ) ;
#81 = DIRECTION ( 'NONE',  ( 0.000000000000000000, 1.000000000000000000, 0.000000000000000000 ) ) ;
#82 = UNCERTAINTY_MEASURE_WITH_UNIT (LENGTH_MEASURE( 1.000000000000000082E-05 ), #46, 'distance_accuracy_value', 'NONE');
#83 = CARTESIAN_POINT ( 'NONE',  ( 1.148106374200643555E-17, 0.000000000000000000, 0.09375000000000001388 ) ) ;
#84 = FILL_AREA_STYLE ('',( #60 ) ) ;
#85 = ORIENTED_EDGE ( 'NONE', *, *, #89, .T. ) ;
#86 = PRESENTATION_STYLE_ASSIGNMENT (( #88 ) ) ;
#87 = AXIS2_PLACEMENT_3D ( 'NONE', #113, #188, #274 ) ;
#88 = SURFACE_STYLE_USAGE ( .BOTH. , #253 ) ;
#89 = EDGE_CURVE ( 'NONE', #21, #162, #116, .T. ) ;
#90 = ADVANCED_FACE ( 'NONE', ( #47 ), #201, .T. ) ;
#91 = DIRECTION ( 'NONE',  ( -1.000000000000000000, 0.000000000000000000, 0.000000000000000000 ) ) ;
#92 = CIRCLE ( 'NONE', #203, 0.09374999999999998612 ) ;
#93 = STYLED_ITEM ( 'NONE', ( #141 ), #198 ) ;
#94 = DIRECTION ( 'NONE',  ( -1.000000000000000000, 0.000000000000000000, 0.000000000000000000 ) ) ;
#95 = SHAPE_DEFINITION_REPRESENTATION ( #270, #211 ) ;
#96 = CARTESIAN_POINT ( 'NONE',  ( 0.000000000000000000, 0.000000000000000000, 0.000000000000000000 ) ) ;
#97 =( GEOMETRIC_REPRESENTATION_CONTEXT ( 3 ) GLOBAL_UNCERTAINTY_ASSIGNED_CONTEXT ( ( #254 ) ) GLOBAL_UNIT_ASSIGNED_CONTEXT ( ( #185, #236, #234 ) ) REPRESENTATION_CONTEXT ( 'NONE', 'WORKASPACE' ) );
#98 = EDGE_LOOP ( 'NONE', ( #73, #70 ) ) ;
#99 = EDGE_CURVE ( 'NONE', #68, #224, #175, .T. ) ;
#100 = AXIS2_PLACEMENT_3D ( 'NONE', #51, #149, #32 ) ;
#101 = VERTEX_POINT ( 'NONE', #25 ) ;
#102 = DIRECTION ( 'NONE',  ( -1.000000000000000000, 0.000000000000000000, 0.000000000000000000 ) ) ;
#103 = ORIENTED_EDGE ( 'NONE', *, *, #229, .T. ) ;
#104 = DIRECTION ( 'NONE',  ( -1.000000000000000000, 0.000000000000000000, 0.000000000000000000 ) ) ;
#105 = FILL_AREA_STYLE_COLOUR ( '', #26 ) ;
#106 = AXIS2_PLACEMENT_3D ( 'NONE', #24, #172, #121 ) ;
#107 = CARTESIAN_POINT ( 'NONE',  ( 0.000000000000000000, 0.3125000000000000000, 0.000000000000000000 ) ) ;
#108 = MANIFOLD_SOLID_BREP ( 'Revolve - Cutting Edge', #216 ) ;
#109 = LENGTH_MEASURE_WITH_UNIT ( LENGTH_MEASURE( 0.02539999999999999897 ), #294 );
#110 =( NAMED_UNIT ( * ) PLANE_ANGLE_UNIT ( ) SI_UNIT ( $, .RADIAN. ) );
#111 = DIRECTION ( 'NONE',  ( -1.000000000000000000, 3.628583108584750472E-17, 0.000000000000000000 ) ) ;
#112 = STYLED_ITEM ( 'NONE', ( #278 ), #265 ) ;
#113 = CARTESIAN_POINT ( 'NONE',  ( 0.000000000000000000, 0.000000000000000000, 0.000000000000000000 ) ) ;
#114 = EDGE_LOOP ( 'NONE', ( #238, #129 ) ) ;
#115 = ORIENTED_EDGE ( 'NONE', *, *, #148, .F. ) ;
#116 = CIRCLE ( 'NONE', #40, 0.09374999999999998612 ) ;
#117 = PRODUCT_DEFINITION_FORMATION_WITH_SPECIFIED_SOURCE ( 'ANY', '', #276, .NOT_KNOWN. ) ;
#118 = VECTOR ( 'NONE', #257, 39.37007874015748143 ) ;
#119 = FACE_OUTER_BOUND ( 'NONE', #164, .T. ) ;
#120 = ORIENTED_EDGE ( 'NONE', *, *, #58, .F. ) ;
#121 = DIRECTION ( 'NONE',  ( 0.000000000000000000, 0.000000000000000000, -1.000000000000000000 ) ) ;
#122 = EDGE_CURVE ( 'NONE', #291, #215, #263, .T. ) ;
#123 =( CONVERSION_BASED_UNIT ( 'INCH', #8 ) LENGTH_UNIT ( ) NAMED_UNIT ( #283 ) );
#124 = FILL_AREA_STYLE ('',( #49 ) ) ;
#125 = SURFACE_SIDE_STYLE ('',( #292 ) ) ;
#126 = DIMENSIONAL_EXPONENTS ( 1.000000000000000000, 0.000000000000000000, 0.000000000000000000, 0.000000000000000000, 0.000000000000000000, 0.000000000000000000, 0.000000000000000000 ) ;
#127 = PLANE ( 'NONE',  #214 ) ;
#128 = PRESENTATION_LAYER_ASSIGNMENT (  '', '', ( #170 ) ) ;
#129 = ORIENTED_EDGE ( 'NONE', *, *, #122, .T. ) ;
#130 = DIMENSIONAL_EXPONENTS ( 1.000000000000000000, 0.000000000000000000, 0.000000000000000000, 0.000000000000000000, 0.000000000000000000, 0.000000000000000000, 0.000000000000000000 ) ;
#131 = DIRECTION ( 'NONE',  ( -1.000000000000000000, 0.000000000000000000, 0.000000000000000000 ) ) ;
#132 = EDGE_CURVE ( 'NONE', #101, #224, #14, .T. ) ;
#133 = APPLICATION_CONTEXT ( 'automotive_design' ) ;
#134 = FACE_OUTER_BOUND ( 'NONE', #242, .T. ) ;
#135 = ADVANCED_FACE ( 'NONE', ( #230 ), #33, .T. ) ;
#136 = LENGTH_MEASURE_WITH_UNIT ( LENGTH_MEASURE( 0.02539999999999999897 ), #139 );
#137 = EDGE_CURVE ( 'NONE', #101, #285, #142, .T. ) ;
#138 = SURFACE_SIDE_STYLE ('',( #237 ) ) ;
#139 =( LENGTH_UNIT ( ) NAMED_UNIT ( * ) SI_UNIT ( $, .METRE. ) );
#140 = ORIENTED_EDGE ( 'NONE', *, *, #99, .F. ) ;
#141 = PRESENTATION_STYLE_ASSIGNMENT (( #304 ) ) ;
#142 = CIRCLE ( 'NONE', #160, 0.09374999999999998612 ) ;
#143 = PLANE ( 'NONE',  #228 ) ;
#144 = DIRECTION ( 'NONE',  ( -0.000000000000000000, -1.000000000000000000, -0.000000000000000000 ) ) ;
#145 = PRESENTATION_LAYER_ASSIGNMENT (  '', '', ( #235 ) ) ;
#146 =( NAMED_UNIT ( * ) SI_UNIT ( $, .STERADIAN. ) SOLID_ANGLE_UNIT ( ) );
#147 = LENGTH_MEASURE_WITH_UNIT ( LENGTH_MEASURE( 0.02539999999999999897 ), #71 );
#148 = EDGE_CURVE ( 'NONE', #224, #68, #62, .T. ) ;
#149 = DIRECTION ( 'NONE',  ( 3.628583108584750472E-17, 1.000000000000000000, -0.000000000000000000 ) ) ;
#150 = DIRECTION ( 'NONE',  ( -0.000000000000000000, -1.000000000000000000, -0.000000000000000000 ) ) ;
#151 = DIRECTION ( 'NONE',  ( 3.628583108584750472E-17, 1.000000000000000000, -0.000000000000000000 ) ) ;
#152 = DIRECTION ( 'NONE',  ( 3.628583108584750472E-17, 1.000000000000000000, -0.000000000000000000 ) ) ;
#153 = DIRECTION ( 'NONE',  ( 3.628583108584750472E-17, 1.000000000000000000, -0.000000000000000000 ) ) ;
#154 =( NAMED_UNIT ( * ) SI_UNIT ( $, .STERADIAN. ) SOLID_ANGLE_UNIT ( ) );
#155 =( CONVERSION_BASED_UNIT ( 'INCH', #109 ) LENGTH_UNIT ( ) NAMED_UNIT ( #126 ) );
#156 = LINE ( 'NONE', #227, #118 ) ;
#157 = CARTESIAN_POINT ( 'NONE',  ( 6.171850957456204517E-35, 0.3125000000000000000, 0.000000000000000000 ) ) ;
#158 = SURFACE_STYLE_USAGE ( .BOTH. , #138 ) ;
#159 = LENGTH_MEASURE_WITH_UNIT ( LENGTH_MEASURE( 0.02539999999999999897 ), #65 );
#160 = AXIS2_PLACEMENT_3D ( 'NONE', #107, #271, #10 ) ;
#161 = APPLICATION_PROTOCOL_DEFINITION ( 'draft international standard', 'automotive_design', 1998, #133 ) ;
#162 = VERTEX_POINT ( 'NONE', #59 ) ;
#163 = SURFACE_SIDE_STYLE ('',( #303 ) ) ;
#164 = EDGE_LOOP ( 'NONE', ( #306, #226 ) ) ;
#165 = AXIS2_PLACEMENT_3D ( 'NONE', #52, #144, #243 ) ;
#166 =( GEOMETRIC_REPRESENTATION_CONTEXT ( 3 ) GLOBAL_UNCERTAINTY_ASSIGNED_CONTEXT ( ( #82 ) ) GLOBAL_UNIT_ASSIGNED_CONTEXT ( ( #46, #28, #7 ) ) REPRESENTATION_CONTEXT ( 'NONE', 'WORKASPACE' ) );
#167 = LINE ( 'NONE', #3, #41 ) ;
#168 = FILL_AREA_STYLE ('',( #2 ) ) ;
#169 = EDGE_CURVE ( 'NONE', #21, #291, #156, .T. ) ;
#170 = STYLED_ITEM ( 'NONE', ( #225 ), #192 ) ;
#171 = DIRECTION ( 'NONE',  ( 1.000000000000000000, -3.628583108584750472E-17, 0.000000000000000000 ) ) ;
#172 = DIRECTION ( 'NONE',  ( -0.000000000000000000, -1.000000000000000000, -0.000000000000000000 ) ) ;
#173 = CARTESIAN_POINT ( 'NONE',  ( 6.123233995736766036E-17, 2.000000000000000000, 0.000000000000000000 ) ) ;
#174 = PRESENTATION_STYLE_ASSIGNMENT (( #77 ) ) ;
#175 = CIRCLE ( 'NONE', #165, 0.09375000000000001388 ) ;
#176 =( GEOMETRIC_REPRESENTATION_CONTEXT ( 3 ) GLOBAL_UNCERTAINTY_ASSIGNED_CONTEXT ( ( #308 ) ) GLOBAL_UNIT_ASSIGNED_CONTEXT ( ( #206, #295, #219 ) ) REPRESENTATION_CONTEXT ( 'NONE', 'WORKASPACE' ) );
#177 = CARTESIAN_POINT ( 'NONE',  ( 0.000000000000000000, 0.3125000000000000000, 0.000000000000000000 ) ) ;
#178 =( NAMED_UNIT ( * ) PLANE_ANGLE_UNIT ( ) SI_UNIT ( $, .RADIAN. ) );
#179 = FACE_OUTER_BOUND ( 'NONE', #240, .T. ) ;
#180 = SURFACE_STYLE_FILL_AREA ( #207 ) ;
#181 = ADVANCED_FACE ( 'NONE', ( #16 ), #63, .F. ) ;
#182 = DIRECTION ( 'NONE',  ( -0.000000000000000000, -1.000000000000000000, -0.000000000000000000 ) ) ;
#183 = PRESENTATION_LAYER_ASSIGNMENT (  '', '', ( #196 ) ) ;
#184 = COLOUR_RGB ( '',1.000000000000000000, 0.000000000000000000, 0.000000000000000000 ) ;
#185 =( CONVERSION_BASED_UNIT ( 'INCH', #136 ) LENGTH_UNIT ( ) NAMED_UNIT ( #4 ) );
#186 =( NAMED_UNIT ( * ) PLANE_ANGLE_UNIT ( ) SI_UNIT ( $, .RADIAN. ) );
#187 = CARTESIAN_POINT ( 'NONE',  ( 0.000000000000000000, 0.000000000000000000, 0.000000000000000000 ) ) ;
#188 = DIRECTION ( 'NONE',  ( 0.000000000000000000, -1.000000000000000000, -0.000000000000000000 ) ) ;
#189 = EDGE_CURVE ( 'NONE', #285, #101, #31, .T. ) ;
#190 = DIRECTION ( 'NONE',  ( 1.000000000000000000, 0.000000000000000000, 0.000000000000000000 ) ) ;
#191 = DIRECTION ( 'NONE',  ( 0.000000000000000000, 0.000000000000000000, 1.000000000000000000 ) ) ;
#192 = ADVANCED_FACE ( 'NONE', ( #134 ), #233, .T. ) ;
#193 = CARTESIAN_POINT ( 'NONE',  ( 1.148106374200643401E-17, 0.3125000000000000000, 0.09374999999999998612 ) ) ;
#194 =( LENGTH_UNIT ( ) NAMED_UNIT ( * ) SI_UNIT ( $, .METRE. ) );
#195 = ORIENTED_EDGE ( 'NONE', *, *, #50, .F. ) ;
#196 = STYLED_ITEM ( 'NONE', ( #174 ), #6 ) ;
#197 = MECHANICAL_DESIGN_GEOMETRIC_PRESENTATION_REPRESENTATION (  '', ( #235 ), #166 ) ;
#198 = ADVANCED_FACE ( 'NONE', ( #210 ), #205, .T. ) ;
#199 = STYLED_ITEM ( 'NONE', ( #86 ), #108 ) ;
#200 = UNCERTAINTY_MEASURE_WITH_UNIT (LENGTH_MEASURE( 1.000000000000000082E-05 ), #123, 'distance_accuracy_value', 'NONE');
#201 = CYLINDRICAL_SURFACE ( 'NONE', #18, 0.09374999999999995837 ) ;
#202 = DIRECTION ( 'NONE',  ( 0.000000000000000000, -0.000000000000000000, 1.000000000000000000 ) ) ;
#203 = AXIS2_PLACEMENT_3D ( 'NONE', #289, #5, #102 ) ;
#204 = FILL_AREA_STYLE ('',( #105 ) ) ;
#205 = CYLINDRICAL_SURFACE ( 'NONE', #106, 0.09374999999999998612 ) ;
#206 =( CONVERSION_BASED_UNIT ( 'INCH', #15 ) LENGTH_UNIT ( ) NAMED_UNIT ( #75 ) );
#207 = FILL_AREA_STYLE ('',( #232 ) ) ;
#208 = MECHANICAL_DESIGN_GEOMETRIC_PRESENTATION_REPRESENTATION (  '', ( #196 ), #61 ) ;
#209 = COLOUR_RGB ( '',1.000000000000000000, 0.000000000000000000, 0.000000000000000000 ) ;
#210 = FACE_OUTER_BOUND ( 'NONE', #282, .T. ) ;
#211 = ADVANCED_BREP_SHAPE_REPRESENTATION ( '05067', ( #108, #6, #256 ), #97 ) ;
#212 = APPLICATION_PROTOCOL_DEFINITION ( 'draft international standard', 'automotive_design', 1998, #301 ) ;
#213 = ORIENTED_EDGE ( 'NONE', *, *, #58, .T. ) ;
#214 = AXIS2_PLACEMENT_3D ( 'NONE', #80, #30, #171 ) ;
#215 = VERTEX_POINT ( 'NONE', #284 ) ;
#216 = CLOSED_SHELL ( 'NONE', ( #192, #245, #198, #265 ) ) ;
#217 = AXIS2_PLACEMENT_3D ( 'NONE', #187, #269, #36 ) ;
#218 =( LENGTH_UNIT ( ) NAMED_UNIT ( * ) SI_UNIT ( $, .METRE. ) );
#219 =( NAMED_UNIT ( * ) SI_UNIT ( $, .STERADIAN. ) SOLID_ANGLE_UNIT ( ) );
#220 = CARTESIAN_POINT ( 'NONE',  ( 6.123233995736766036E-17, 2.000000000000000000, 0.000000000000000000 ) ) ;
#221 = ORIENTED_EDGE ( 'NONE', *, *, #99, .T. ) ;
#222 = VECTOR ( 'NONE', #151, 39.37007874015748143 ) ;
#223 = AXIS2_PLACEMENT_3D ( 'NONE', #157, #153, #111 ) ;
#224 = VERTEX_POINT ( 'NONE', #74 ) ;
#225 = PRESENTATION_STYLE_ASSIGNMENT (( #252 ) ) ;
#226 = ORIENTED_EDGE ( 'NONE', *, *, #189, .F. ) ;
#227 = CARTESIAN_POINT ( 'NONE',  ( 0.09375000000000002776, 2.000000000000000000, 1.148106374200643092E-17 ) ) ;
#228 = AXIS2_PLACEMENT_3D ( 'NONE', #288, #81, #202 ) ;
#229 = EDGE_CURVE ( 'NONE', #285, #68, #167, .T. ) ;
#230 = FACE_OUTER_BOUND ( 'NONE', #42, .T. ) ;
#231 =( CONVERSION_BASED_UNIT ( 'INCH', #69 ) LENGTH_UNIT ( ) NAMED_UNIT ( #54 ) );
#232 = FILL_AREA_STYLE_COLOUR ( '', #262 ) ;
#233 = CYLINDRICAL_SURFACE ( 'NONE', #48, 0.09374999999999998612 ) ;
#234 =( NAMED_UNIT ( * ) SI_UNIT ( $, .STERADIAN. ) SOLID_ANGLE_UNIT ( ) );
#235 = STYLED_ITEM ( 'NONE', ( #22 ), #245 ) ;
#236 =( NAMED_UNIT ( * ) PLANE_ANGLE_UNIT ( ) SI_UNIT ( $, .RADIAN. ) );
#237 = SURFACE_STYLE_FILL_AREA ( #84 ) ;
#238 = ORIENTED_EDGE ( 'NONE', *, *, #50, .T. ) ;
#239 = VECTOR ( 'NONE', #182, 39.37007874015748143 ) ;
#240 = EDGE_LOOP ( 'NONE', ( #279, #221 ) ) ;
#241 = SURFACE_STYLE_FILL_AREA ( #124 ) ;
#242 = EDGE_LOOP ( 'NONE', ( #23, #103, #115, #44 ) ) ;
#243 = DIRECTION ( 'NONE',  ( 0.000000000000000000, 0.000000000000000000, -1.000000000000000000 ) ) ;
#244 = COLOUR_RGB ( '',1.000000000000000000, 0.000000000000000000, 0.000000000000000000 ) ;
#245 = ADVANCED_FACE ( 'NONE', ( #119 ), #143, .T. ) ;
#246 = CARTESIAN_POINT ( 'NONE',  ( 0.09374999999999998612, 0.3125000000000000000, 1.148106374200643247E-17 ) ) ;
#247 = DIMENSIONAL_EXPONENTS ( 1.000000000000000000, 0.000000000000000000, 0.000000000000000000, 0.000000000000000000, 0.000000000000000000, 0.000000000000000000, 0.000000000000000000 ) ;
#248 = LINE ( 'NONE', #9, #222 ) ;
#249 = ORIENTED_EDGE ( 'NONE', *, *, #229, .F. ) ;
#250 = PRODUCT_RELATED_PRODUCT_CATEGORY ( 'part', '', ( #276 ) ) ;
#251 = MECHANICAL_DESIGN_GEOMETRIC_PRESENTATION_REPRESENTATION (  '', ( #112 ), #72 ) ;
#252 = SURFACE_STYLE_USAGE ( .BOTH. , #53 ) ;
#253 = SURFACE_SIDE_STYLE ('',( #180 ) ) ;
#254 = UNCERTAINTY_MEASURE_WITH_UNIT (LENGTH_MEASURE( 1.000000000000000082E-05 ), #185, 'distance_accuracy_value', 'NONE');
#255 = AXIS2_PLACEMENT_3D ( 'NONE', #220, #273, #91 ) ;
#256 = AXIS2_PLACEMENT_3D ( 'NONE', #96, #191, #190 ) ;
#257 = DIRECTION ( 'NONE',  ( 3.628583108584750472E-17, 1.000000000000000000, -0.000000000000000000 ) ) ;
#258 = DIRECTION ( 'NONE',  ( -0.000000000000000000, -1.000000000000000000, -0.000000000000000000 ) ) ;
#259 =( NAMED_UNIT ( * ) SI_UNIT ( $, .STERADIAN. ) SOLID_ANGLE_UNIT ( ) );
#260 = PRESENTATION_LAYER_ASSIGNMENT (  '', '', ( #199 ) ) ;
#261 = ORIENTED_EDGE ( 'NONE', *, *, #169, .F. ) ;
#262 = COLOUR_RGB ( '',0.7921568627450980005, 0.8196078431372548767, 0.9333333333333333481 ) ;
#263 = CIRCLE ( 'NONE', #255, 0.09374999999999991673 ) ;
#264 = EDGE_LOOP ( 'NONE', ( #67, #29, #195, #120 ) ) ;
#265 = ADVANCED_FACE ( 'NONE', ( #179 ), #34, .T. ) ;
#266 =( LENGTH_UNIT ( ) NAMED_UNIT ( * ) SI_UNIT ( $, .METRE. ) );
#267 = DIRECTION ( 'NONE',  ( 3.628583108584750472E-17, 1.000000000000000000, -0.000000000000000000 ) ) ;
#268 = CARTESIAN_POINT ( 'NONE',  ( 0.000000000000000000, 0.3125000000000000000, 0.000000000000000000 ) ) ;
#269 = DIRECTION ( 'NONE',  ( -0.000000000000000000, -1.000000000000000000, -0.000000000000000000 ) ) ;
#270 = PRODUCT_DEFINITION_SHAPE ( 'NONE', 'NONE',  #275 ) ;
#271 = DIRECTION ( 'NONE',  ( -0.000000000000000000, -1.000000000000000000, -0.000000000000000000 ) ) ;
#272 =( GEOMETRIC_REPRESENTATION_CONTEXT ( 3 ) GLOBAL_UNCERTAINTY_ASSIGNED_CONTEXT ( ( #305 ) ) GLOBAL_UNIT_ASSIGNED_CONTEXT ( ( #155, #178, #296 ) ) REPRESENTATION_CONTEXT ( 'NONE', 'WORKASPACE' ) );
#273 = DIRECTION ( 'NONE',  ( 3.628583108584750472E-17, 1.000000000000000000, -0.000000000000000000 ) ) ;
#274 = DIRECTION ( 'NONE',  ( 0.000000000000000000, 0.000000000000000000, -1.000000000000000000 ) ) ;
#275 = PRODUCT_DEFINITION ( 'UNKNOWN', '', #117, #76 ) ;
#276 = PRODUCT ( '05067', '05067', '', ( #277 ) ) ;
#277 = PRODUCT_CONTEXT ( 'NONE', #133, 'mechanical' ) ;
#278 = PRESENTATION_STYLE_ASSIGNMENT (( #158 ) ) ;
#279 = ORIENTED_EDGE ( 'NONE', *, *, #148, .T. ) ;
#280 = FILL_AREA_STYLE_COLOUR ( '', #184 ) ;
#281 = SURFACE_STYLE_USAGE ( .BOTH. , #1 ) ;
#282 = EDGE_LOOP ( 'NONE', ( #249, #309, #43, #140 ) ) ;
#283 = DIMENSIONAL_EXPONENTS ( 1.000000000000000000, 0.000000000000000000, 0.000000000000000000, 0.000000000000000000, 0.000000000000000000, 0.000000000000000000, 0.000000000000000000 ) ;
#284 = CARTESIAN_POINT ( 'NONE',  ( -0.09374999999999984734, 2.000000000000000000, 0.000000000000000000 ) ) ;
#285 = VERTEX_POINT ( 'NONE', #193 ) ;
#286 =( NAMED_UNIT ( * ) PLANE_ANGLE_UNIT ( ) SI_UNIT ( $, .RADIAN. ) );
#287 = CLOSED_SHELL ( 'NONE', ( #90, #181, #135, #39 ) ) ;
#288 = CARTESIAN_POINT ( 'NONE',  ( 0.000000000000000000, 0.3125000000000000000, 0.000000000000000000 ) ) ;
#289 = CARTESIAN_POINT ( 'NONE',  ( 0.000000000000000000, 0.3125000000000000000, 0.000000000000000000 ) ) ;
#290 = SURFACE_STYLE_FILL_AREA ( #204 ) ;
#291 = VERTEX_POINT ( 'NONE', #64 ) ;
#292 = SURFACE_STYLE_FILL_AREA ( #168 ) ;
#293 =( GEOMETRIC_REPRESENTATION_CONTEXT ( 3 ) GLOBAL_UNCERTAINTY_ASSIGNED_CONTEXT ( ( #12 ) ) GLOBAL_UNIT_ASSIGNED_CONTEXT ( ( #231, #186, #154 ) ) REPRESENTATION_CONTEXT ( 'NONE', 'WORKASPACE' ) );
#294 =( LENGTH_UNIT ( ) NAMED_UNIT ( * ) SI_UNIT ( $, .METRE. ) );
#295 =( NAMED_UNIT ( * ) PLANE_ANGLE_UNIT ( ) SI_UNIT ( $, .RADIAN. ) );
#296 =( NAMED_UNIT ( * ) SI_UNIT ( $, .STERADIAN. ) SOLID_ANGLE_UNIT ( ) );
#297 = FILL_AREA_STYLE ('',( #280 ) ) ;
#298 = MECHANICAL_DESIGN_GEOMETRIC_PRESENTATION_REPRESENTATION (  '', ( #199 ), #272 ) ;
#299 = MECHANICAL_DESIGN_GEOMETRIC_PRESENTATION_REPRESENTATION (  '', ( #93 ), #176 ) ;
#300 = CARTESIAN_POINT ( 'NONE',  ( 6.123233995736766036E-17, 2.000000000000000000, 0.000000000000000000 ) ) ;
#301 = APPLICATION_CONTEXT ( 'automotive_design' ) ;
#302 = MECHANICAL_DESIGN_GEOMETRIC_PRESENTATION_REPRESENTATION (  '', ( #170 ), #293 ) ;
#303 = SURFACE_STYLE_FILL_AREA ( #297 ) ;
#304 = SURFACE_STYLE_USAGE ( .BOTH. , #163 ) ;
#305 = UNCERTAINTY_MEASURE_WITH_UNIT (LENGTH_MEASURE( 1.000000000000000082E-05 ), #155, 'distance_accuracy_value', 'NONE');
#306 = ORIENTED_EDGE ( 'NONE', *, *, #137, .F. ) ;
#307 = AXIS2_PLACEMENT_3D ( 'NONE', #300, #55, #94 ) ;
#308 = UNCERTAINTY_MEASURE_WITH_UNIT (LENGTH_MEASURE( 1.000000000000000082E-05 ), #206, 'distance_accuracy_value', 'NONE');
#309 = ORIENTED_EDGE ( 'NONE', *, *, #189, .T. ) ;
ENDSEC;
END-ISO-10303-21;
