ISO-10303-21;
HEADER;
FILE_DESCRIPTION (( 'STEP AP214' ),
    '1' );
FILE_NAME ('81925.STEP',
    '2023-06-30T22:32:48',
    ( '' ),
    ( '' ),
    'SwSTEP 2.0',
    'SolidWorks 2023',
    '' );
FILE_SCHEMA (( 'AUTOMOTIVE_DESIGN' ));
ENDSEC;

DATA;
#1 = DIRECTION ( 'NONE',  ( -1.000000000000000000, 0.000000000000000000, 0.000000000000000000 ) ) ;
#2 = EDGE_CURVE ( 'NONE', #184, #286, #9, .T. ) ;
#3 = VERTEX_POINT ( 'NONE', #274 ) ;
#4 =( GEOMETRIC_REPRESENTATION_CONTEXT ( 3 ) GLOBAL_UNCERTAINTY_ASSIGNED_CONTEXT ( ( #112 ) ) GLOBAL_UNIT_ASSIGNED_CONTEXT ( ( #37, #7, #141 ) ) REPRESENTATION_CONTEXT ( 'NONE', 'WORKASPACE' ) );
#5 = CIRCLE ( 'NONE', #199, 0.1249999999999999584 ) ;
#6 = EDGE_CURVE ( 'NONE', #3, #266, #367, .T. ) ;
#7 =( NAMED_UNIT ( * ) PLANE_ANGLE_UNIT ( ) SI_UNIT ( $, .RADIAN. ) );
#8 = AXIS2_PLACEMENT_3D ( 'NONE', #92, #175, #145 ) ;
#9 = CIRCLE ( 'NONE', #330, 0.1249999999999999584 ) ;
#10 = DIRECTION ( 'NONE',  ( 1.000000000000000000, 1.224646799147352961E-16, 0.000000000000000000 ) ) ;
#11 = PRESENTATION_LAYER_ASSIGNMENT (  '', '', ( #296 ) ) ;
#12 = CARTESIAN_POINT ( 'NONE',  ( 0.000000000000000000, 0.5000000000000000000, 0.000000000000000000 ) ) ;
#13 = VECTOR ( 'NONE', #103, 39.37007874015748143 ) ;
#14 = PRODUCT_DEFINITION ( 'UNKNOWN', '', #278, #64 ) ;
#15 = LENGTH_MEASURE_WITH_UNIT ( LENGTH_MEASURE( 0.02539999999999999897 ), #308 );
#16 = UNCERTAINTY_MEASURE_WITH_UNIT (LENGTH_MEASURE( 1.000000000000000082E-05 ), #202, 'distance_accuracy_value', 'NONE');
#17 = DIRECTION ( 'NONE',  ( 0.000000000000000000, 1.000000000000000000, 0.000000000000000000 ) ) ;
#18 = AXIS2_PLACEMENT_3D ( 'NONE', #268, #357, #170 ) ;
#19 = EDGE_LOOP ( 'NONE', ( #258, #75, #285, #205 ) ) ;
#20 = DIMENSIONAL_EXPONENTS ( 1.000000000000000000, 0.000000000000000000, 0.000000000000000000, 0.000000000000000000, 0.000000000000000000, 0.000000000000000000, 0.000000000000000000 ) ;
#21 = AXIS2_PLACEMENT_3D ( 'NONE', #46, #17, #132 ) ;
#22 = SURFACE_STYLE_FILL_AREA ( #359 ) ;
#23 = DIRECTION ( 'NONE',  ( 0.000000000000000000, 0.000000000000000000, -1.000000000000000000 ) ) ;
#24 = SHAPE_DEFINITION_REPRESENTATION ( #99, #190 ) ;
#25 = FILL_AREA_STYLE_COLOUR ( '', #331 ) ;
#26 = FILL_AREA_STYLE ('',( #222 ) ) ;
#27 = DIRECTION ( 'NONE',  ( -1.000000000000000000, 0.000000000000000000, 0.000000000000000000 ) ) ;
#28 = CIRCLE ( 'NONE', #162, 0.1249999999999997641 ) ;
#29 = STYLED_ITEM ( 'NONE', ( #105 ), #311 ) ;
#30 = PRODUCT_RELATED_PRODUCT_CATEGORY ( 'part', '', ( #79 ) ) ;
#31 = FACE_OUTER_BOUND ( 'NONE', #181, .T. ) ;
#32 = CYLINDRICAL_SURFACE ( 'NONE', #320, 0.1249999999999999445 ) ;
#33 = CARTESIAN_POINT ( 'NONE',  ( 0.000000000000000000, 0.000000000000000000, 0.000000000000000000 ) ) ;
#34 = MECHANICAL_DESIGN_GEOMETRIC_PRESENTATION_REPRESENTATION (  '', ( #29 ), #113 ) ;
#35 = EDGE_CURVE ( 'NONE', #328, #184, #5, .T. ) ;
#36 = CIRCLE ( 'NONE', #81, 0.1250000000000000000 ) ;
#37 =( CONVERSION_BASED_UNIT ( 'INCH', #354 ) LENGTH_UNIT ( ) NAMED_UNIT ( #140 ) );
#38 = CYLINDRICAL_SURFACE ( 'NONE', #171, 0.1249999999999999445 ) ;
#39 = DIRECTION ( 'NONE',  ( 1.224646799147352961E-16, -1.000000000000000000, 0.000000000000000000 ) ) ;
#40 = DIRECTION ( 'NONE',  ( 1.000000000000000000, 0.000000000000000000, 0.000000000000000000 ) ) ;
#41 =( CONVERSION_BASED_UNIT ( 'INCH', #77 ) LENGTH_UNIT ( ) NAMED_UNIT ( #20 ) );
#42 = APPLICATION_CONTEXT ( 'automotive_design' ) ;
#43 = CARTESIAN_POINT ( 'NONE',  ( 1.530808498934190893E-17, 0.000000000000000000, 0.1249999999999999445 ) ) ;
#44 = DIRECTION ( 'NONE',  ( -0.000000000000000000, -1.000000000000000000, -0.000000000000000000 ) ) ;
#45 = EDGE_CURVE ( 'NONE', #251, #184, #220, .T. ) ;
#46 = CARTESIAN_POINT ( 'NONE',  ( 0.000000000000000000, 0.5000000000000000000, 0.000000000000000000 ) ) ;
#47 = APPLICATION_PROTOCOL_DEFINITION ( 'draft international standard', 'automotive_design', 1998, #42 ) ;
#48 = FACE_OUTER_BOUND ( 'NONE', #218, .T. ) ;
#49 =( CONVERSION_BASED_UNIT ( 'INCH', #15 ) LENGTH_UNIT ( ) NAMED_UNIT ( #302 ) );
#50 = FILL_AREA_STYLE_COLOUR ( '', #255 ) ;
#51 = AXIS2_PLACEMENT_3D ( 'NONE', #339, #282, #106 ) ;
#52 = COLOUR_RGB ( '',1.000000000000000000, 0.000000000000000000, 0.000000000000000000 ) ;
#53 = ORIENTED_EDGE ( 'NONE', *, *, #318, .T. ) ;
#54 = STYLED_ITEM ( 'NONE', ( #152 ), #82 ) ;
#55 = ORIENTED_EDGE ( 'NONE', *, *, #358, .T. ) ;
#56 =( NAMED_UNIT ( * ) SI_UNIT ( $, .STERADIAN. ) SOLID_ANGLE_UNIT ( ) );
#57 =( NAMED_UNIT ( * ) PLANE_ANGLE_UNIT ( ) SI_UNIT ( $, .RADIAN. ) );
#58 = MANIFOLD_SOLID_BREP ( 'Revolve - Tool Body (Straight Shanked)', #153 ) ;
#59 = SURFACE_SIDE_STYLE ('',( #65 ) ) ;
#60 = CIRCLE ( 'NONE', #211, 0.1249999999999999584 ) ;
#61 = PLANE ( 'NONE',  #214 ) ;
#62 = AXIS2_PLACEMENT_3D ( 'NONE', #125, #257, #27 ) ;
#63 = CARTESIAN_POINT ( 'NONE',  ( 0.000000000000000000, 0.1250000000000000278, 0.000000000000000000 ) ) ;
#64 = PRODUCT_DEFINITION_CONTEXT ( 'detailed design', #42, 'design' ) ;
#65 = SURFACE_STYLE_FILL_AREA ( #147 ) ;
#66 = ORIENTED_EDGE ( 'NONE', *, *, #6, .F. ) ;
#67 = FACE_OUTER_BOUND ( 'NONE', #107, .T. ) ;
#68 = EDGE_CURVE ( 'NONE', #310, #150, #334, .T. ) ;
#69 = ORIENTED_EDGE ( 'NONE', *, *, #123, .F. ) ;
#70 = CARTESIAN_POINT ( 'NONE',  ( 0.000000000000000000, 0.1250000000000000278, 0.000000000000000000 ) ) ;
#71 = SURFACE_SIDE_STYLE ('',( #252 ) ) ;
#72 = ORIENTED_EDGE ( 'NONE', *, *, #35, .F. ) ;
#73 = DIRECTION ( 'NONE',  ( -1.224646799147352961E-16, 1.000000000000000000, -0.000000000000000000 ) ) ;
#74 =( NAMED_UNIT ( * ) PLANE_ANGLE_UNIT ( ) SI_UNIT ( $, .RADIAN. ) );
#75 = ORIENTED_EDGE ( 'NONE', *, *, #35, .T. ) ;
#76 =( NAMED_UNIT ( * ) SI_UNIT ( $, .STERADIAN. ) SOLID_ANGLE_UNIT ( ) );
#77 = LENGTH_MEASURE_WITH_UNIT ( LENGTH_MEASURE( 0.02539999999999999897 ), #230 );
#78 = FACE_OUTER_BOUND ( 'NONE', #336, .T. ) ;
#79 = PRODUCT ( '81925', '81925', '', ( #273 ) ) ;
#80 = MECHANICAL_DESIGN_GEOMETRIC_PRESENTATION_REPRESENTATION (  '', ( #128 ), #97 ) ;
#81 = AXIS2_PLACEMENT_3D ( 'NONE', #343, #109, #306 ) ;
#82 = ADVANCED_FACE ( 'NONE', ( #78 ), #373, .T. ) ;
#83 = PRESENTATION_LAYER_ASSIGNMENT (  '', '', ( #54 ) ) ;
#84 = STYLED_ITEM ( 'NONE', ( #326 ), #341 ) ;
#85 = PRESENTATION_STYLE_ASSIGNMENT (( #241 ) ) ;
#86 = EDGE_CURVE ( 'NONE', #316, #259, #28, .T. ) ;
#87 =( CONVERSION_BASED_UNIT ( 'INCH', #245 ) LENGTH_UNIT ( ) NAMED_UNIT ( #219 ) );
#88 = EDGE_LOOP ( 'NONE', ( #137, #53, #111, #72, #349 ) ) ;
#89 = DIRECTION ( 'NONE',  ( -0.000000000000000000, -1.000000000000000000, -0.000000000000000000 ) ) ;
#90 =( NAMED_UNIT ( * ) PLANE_ANGLE_UNIT ( ) SI_UNIT ( $, .RADIAN. ) );
#91 = CARTESIAN_POINT ( 'NONE',  ( 0.000000000000000000, 0.000000000000000000, 0.000000000000000000 ) ) ;
#92 = CARTESIAN_POINT ( 'NONE',  ( -6.123233995736766036E-17, 2.500000000000000000, 0.000000000000000000 ) ) ;
#93 = ORIENTED_EDGE ( 'NONE', *, *, #86, .T. ) ;
#94 = CARTESIAN_POINT ( 'NONE',  ( -0.1249999999999995698, 0.5000000000000001110, 0.000000000000000000 ) ) ;
#95 = CIRCLE ( 'NONE', #315, 0.1250000000000000000 ) ;
#96 = SURFACE_STYLE_FILL_AREA ( #158 ) ;
#97 =( GEOMETRIC_REPRESENTATION_CONTEXT ( 3 ) GLOBAL_UNCERTAINTY_ASSIGNED_CONTEXT ( ( #271 ) ) GLOBAL_UNIT_ASSIGNED_CONTEXT ( ( #41, #229, #151 ) ) REPRESENTATION_CONTEXT ( 'NONE', 'WORKASPACE' ) );
#98 = CARTESIAN_POINT ( 'NONE',  ( 1.530808498934191201E-17, 0.1250000000000000278, 0.1249999999999999861 ) ) ;
#99 = PRODUCT_DEFINITION_SHAPE ( 'NONE', 'NONE',  #14 ) ;
#100 =( CONVERSION_BASED_UNIT ( 'INCH', #299 ) LENGTH_UNIT ( ) NAMED_UNIT ( #126 ) );
#101 = DIMENSIONAL_EXPONENTS ( 1.000000000000000000, 0.000000000000000000, 0.000000000000000000, 0.000000000000000000, 0.000000000000000000, 0.000000000000000000, 0.000000000000000000 ) ;
#102 = CARTESIAN_POINT ( 'NONE',  ( -0.1249999999999999306, 2.500000000000000000, 0.000000000000000000 ) ) ;
#103 = DIRECTION ( 'NONE',  ( -0.000000000000000000, -1.000000000000000000, -0.000000000000000000 ) ) ;
#104 = SURFACE_SIDE_STYLE ('',( #301 ) ) ;
#105 = PRESENTATION_STYLE_ASSIGNMENT (( #307 ) ) ;
#106 = DIRECTION ( 'NONE',  ( -1.000000000000000000, 0.000000000000000000, 0.000000000000000000 ) ) ;
#107 = EDGE_LOOP ( 'NONE', ( #124, #178, #300, #200, #356 ) ) ;
#108 = CIRCLE ( 'NONE', #283, 0.1249999999999999306 ) ;
#109 = DIRECTION ( 'NONE',  ( 1.224646799147353207E-16, -0.000000000000000000, 1.000000000000000000 ) ) ;
#110 = EDGE_CURVE ( 'NONE', #328, #194, #36, .T. ) ;
#111 = ORIENTED_EDGE ( 'NONE', *, *, #45, .T. ) ;
#112 = UNCERTAINTY_MEASURE_WITH_UNIT (LENGTH_MEASURE( 1.000000000000000082E-05 ), #37, 'distance_accuracy_value', 'NONE');
#113 =( GEOMETRIC_REPRESENTATION_CONTEXT ( 3 ) GLOBAL_UNCERTAINTY_ASSIGNED_CONTEXT ( ( #360 ) ) GLOBAL_UNIT_ASSIGNED_CONTEXT ( ( #314, #57, #209 ) ) REPRESENTATION_CONTEXT ( 'NONE', 'WORKASPACE' ) );
#114 =( LENGTH_UNIT ( ) NAMED_UNIT ( * ) SI_UNIT ( $, .METRE. ) );
#115 = DIRECTION ( 'NONE',  ( 0.000000000000000000, 0.000000000000000000, 1.000000000000000000 ) ) ;
#116 = UNCERTAINTY_MEASURE_WITH_UNIT (LENGTH_MEASURE( 1.000000000000000082E-05 ), #100, 'distance_accuracy_value', 'NONE');
#117 = ADVANCED_FACE ( 'NONE', ( #31 ), #159, .T. ) ;
#118 = CLOSED_SHELL ( 'NONE', ( #82, #298, #117, #341, #275 ) ) ;
#119 = SURFACE_STYLE_FILL_AREA ( #236 ) ;
#120 = DIRECTION ( 'NONE',  ( 0.000000000000000000, 0.000000000000000000, -1.000000000000000000 ) ) ;
#121 = SURFACE_STYLE_USAGE ( .BOTH. , #59 ) ;
#122 = PRESENTATION_STYLE_ASSIGNMENT (( #250 ) ) ;
#123 = EDGE_CURVE ( 'NONE', #259, #316, #249, .T. ) ;
#124 = ORIENTED_EDGE ( 'NONE', *, *, #243, .T. ) ;
#125 = CARTESIAN_POINT ( 'NONE',  ( 1.836970198721029194E-16, 0.5000000000000001110, 0.000000000000000000 ) ) ;
#126 = DIMENSIONAL_EXPONENTS ( 1.000000000000000000, 0.000000000000000000, 0.000000000000000000, 0.000000000000000000, 0.000000000000000000, 0.000000000000000000, 0.000000000000000000 ) ;
#127 = COLOUR_RGB ( '',1.000000000000000000, 0.000000000000000000, 0.000000000000000000 ) ;
#128 = STYLED_ITEM ( 'NONE', ( #338 ), #117 ) ;
#129 =( CONVERSION_BASED_UNIT ( 'INCH', #182 ) LENGTH_UNIT ( ) NAMED_UNIT ( #101 ) );
#130 = DIMENSIONAL_EXPONENTS ( 1.000000000000000000, 0.000000000000000000, 0.000000000000000000, 0.000000000000000000, 0.000000000000000000, 0.000000000000000000, 0.000000000000000000 ) ;
#131 = APPLICATION_CONTEXT ( 'automotive_design' ) ;
#132 = DIRECTION ( 'NONE',  ( 0.000000000000000000, -0.000000000000000000, 1.000000000000000000 ) ) ;
#133 =( GEOMETRIC_REPRESENTATION_CONTEXT ( 3 ) GLOBAL_UNCERTAINTY_ASSIGNED_CONTEXT ( ( #317 ) ) GLOBAL_UNIT_ASSIGNED_CONTEXT ( ( #49, #215, #180 ) ) REPRESENTATION_CONTEXT ( 'NONE', 'WORKASPACE' ) );
#134 =( GEOMETRIC_REPRESENTATION_CONTEXT ( 3 ) GLOBAL_UNCERTAINTY_ASSIGNED_CONTEXT ( ( #263 ) ) GLOBAL_UNIT_ASSIGNED_CONTEXT ( ( #129, #333, #279 ) ) REPRESENTATION_CONTEXT ( 'NONE', 'WORKASPACE' ) );
#135 = ORIENTED_EDGE ( 'NONE', *, *, #269, .T. ) ;
#136 = SURFACE_STYLE_FILL_AREA ( #26 ) ;
#137 = ORIENTED_EDGE ( 'NONE', *, *, #68, .F. ) ;
#138 = DIRECTION ( 'NONE',  ( 1.000000000000000000, 0.000000000000000000, 0.000000000000000000 ) ) ;
#139 = DIRECTION ( 'NONE',  ( -0.000000000000000000, -1.000000000000000000, -0.000000000000000000 ) ) ;
#140 = DIMENSIONAL_EXPONENTS ( 1.000000000000000000, 0.000000000000000000, 0.000000000000000000, 0.000000000000000000, 0.000000000000000000, 0.000000000000000000, 0.000000000000000000 ) ;
#141 =( NAMED_UNIT ( * ) SI_UNIT ( $, .STERADIAN. ) SOLID_ANGLE_UNIT ( ) );
#142 = PLANE ( 'NONE',  #231 ) ;
#143 = DIRECTION ( 'NONE',  ( 0.000000000000000000, 0.000000000000000000, -1.000000000000000000 ) ) ;
#144 = ORIENTED_EDGE ( 'NONE', *, *, #198, .T. ) ;
#145 = DIRECTION ( 'NONE',  ( -1.000000000000000000, 0.000000000000000000, 0.000000000000000000 ) ) ;
#146 = MECHANICAL_DESIGN_GEOMETRIC_PRESENTATION_REPRESENTATION (  '', ( #296 ), #163 ) ;
#147 = FILL_AREA_STYLE ('',( #210 ) ) ;
#148 = EDGE_CURVE ( 'NONE', #316, #266, #179, .T. ) ;
#149 = CARTESIAN_POINT ( 'NONE',  ( 0.1249999999999999445, 0.5000000000000001110, 1.530808498934190893E-17 ) ) ;
#150 = VERTEX_POINT ( 'NONE', #98 ) ;
#151 =( NAMED_UNIT ( * ) SI_UNIT ( $, .STERADIAN. ) SOLID_ANGLE_UNIT ( ) );
#152 = PRESENTATION_STYLE_ASSIGNMENT (( #187 ) ) ;
#153 = CLOSED_SHELL ( 'NONE', ( #350, #309, #228, #371 ) ) ;
#154 = CARTESIAN_POINT ( 'NONE',  ( -0.1250000000000000555, 2.500000000000000000, 0.000000000000000000 ) ) ;
#155 = DIRECTION ( 'NONE',  ( -1.000000000000000000, 0.000000000000000000, 0.000000000000000000 ) ) ;
#156 = ORIENTED_EDGE ( 'NONE', *, *, #243, .F. ) ;
#157 = CARTESIAN_POINT ( 'NONE',  ( 0.1249999999999997918, 2.500000000000000000, 1.530808498934189660E-17 ) ) ;
#158 = FILL_AREA_STYLE ('',( #224 ) ) ;
#159 = PLANE ( 'NONE',  #21 ) ;
#160 = CIRCLE ( 'NONE', #8, 0.1250000000000000000 ) ;
#161 = ORIENTED_EDGE ( 'NONE', *, *, #269, .F. ) ;
#162 = AXIS2_PLACEMENT_3D ( 'NONE', #364, #204, #1 ) ;
#163 =( GEOMETRIC_REPRESENTATION_CONTEXT ( 3 ) GLOBAL_UNCERTAINTY_ASSIGNED_CONTEXT ( ( #16 ) ) GLOBAL_UNIT_ASSIGNED_CONTEXT ( ( #202, #353, #56 ) ) REPRESENTATION_CONTEXT ( 'NONE', 'WORKASPACE' ) );
#164 = ORIENTED_EDGE ( 'NONE', *, *, #313, .F. ) ;
#165 = ORIENTED_EDGE ( 'NONE', *, *, #148, .T. ) ;
#166 = UNCERTAINTY_MEASURE_WITH_UNIT (LENGTH_MEASURE( 1.000000000000000082E-05 ), #87, 'distance_accuracy_value', 'NONE');
#167 =( GEOMETRIC_REPRESENTATION_CONTEXT ( 3 ) GLOBAL_UNCERTAINTY_ASSIGNED_CONTEXT ( ( #116 ) ) GLOBAL_UNIT_ASSIGNED_CONTEXT ( ( #100, #74, #76 ) ) REPRESENTATION_CONTEXT ( 'NONE', 'WORKASPACE' ) );
#168 = SPHERICAL_SURFACE ( 'NONE', #327, 0.1250000000000000000 ) ;
#169 = CARTESIAN_POINT ( 'NONE',  ( 0.000000000000000000, 0.000000000000000000, 0.000000000000000000 ) ) ;
#170 = DIRECTION ( 'NONE',  ( -1.000000000000000000, 0.000000000000000000, 0.000000000000000000 ) ) ;
#171 = AXIS2_PLACEMENT_3D ( 'NONE', #33, #174, #293 ) ;
#172 = MECHANICAL_DESIGN_GEOMETRIC_PRESENTATION_REPRESENTATION (  '', ( #240 ), #167 ) ;
#173 = DIRECTION ( 'NONE',  ( 1.000000000000000000, 0.000000000000000000, 0.000000000000000000 ) ) ;
#174 = DIRECTION ( 'NONE',  ( -0.000000000000000000, -1.000000000000000000, -0.000000000000000000 ) ) ;
#175 = DIRECTION ( 'NONE',  ( -1.224646799147352961E-16, 1.000000000000000000, -0.000000000000000000 ) ) ;
#176 = AXIS2_PLACEMENT_3D ( 'NONE', #227, #115, #138 ) ;
#177 = DIRECTION ( 'NONE',  ( -0.000000000000000000, -1.000000000000000000, -0.000000000000000000 ) ) ;
#178 = ORIENTED_EDGE ( 'NONE', *, *, #68, .T. ) ;
#179 = LINE ( 'NONE', #102, #277 ) ;
#180 =( NAMED_UNIT ( * ) SI_UNIT ( $, .STERADIAN. ) SOLID_ANGLE_UNIT ( ) );
#181 = EDGE_LOOP ( 'NONE', ( #156, #188 ) ) ;
#182 = LENGTH_MEASURE_WITH_UNIT ( LENGTH_MEASURE( 0.02539999999999999897 ), #216 );
#183 = DIMENSIONAL_EXPONENTS ( 1.000000000000000000, 0.000000000000000000, 0.000000000000000000, 0.000000000000000000, 0.000000000000000000, 0.000000000000000000, 0.000000000000000000 ) ;
#184 = VERTEX_POINT ( 'NONE', #185 ) ;
#185 = CARTESIAN_POINT ( 'NONE',  ( 0.000000000000000000, 0.1250000000000000278, -0.1249999999999999584 ) ) ;
#186 = SURFACE_STYLE_USAGE ( .BOTH. , #347 ) ;
#187 = SURFACE_STYLE_USAGE ( .BOTH. , #332 ) ;
#188 = ORIENTED_EDGE ( 'NONE', *, *, #318, .F. ) ;
#189 = CARTESIAN_POINT ( 'NONE',  ( 0.000000000000000000, 0.5000000000000000000, -0.1249999999999999306 ) ) ;
#190 = ADVANCED_BREP_SHAPE_REPRESENTATION ( '81925', ( #311, #58, #295 ), #4 ) ;
#191 = FILL_AREA_STYLE ('',( #50 ) ) ;
#192 = PRESENTATION_LAYER_ASSIGNMENT (  '', '', ( #29 ) ) ;
#193 = PRESENTATION_LAYER_ASSIGNMENT (  '', '', ( #128 ) ) ;
#194 = VERTEX_POINT ( 'NONE', #221 ) ;
#195 = DIRECTION ( 'NONE',  ( 0.000000000000000000, 0.000000000000000000, 1.000000000000000000 ) ) ;
#196 = ORIENTED_EDGE ( 'NONE', *, *, #313, .T. ) ;
#197 = LENGTH_MEASURE_WITH_UNIT ( LENGTH_MEASURE( 0.02539999999999999897 ), #294 );
#198 = EDGE_CURVE ( 'NONE', #286, #150, #60, .T. ) ;
#199 = AXIS2_PLACEMENT_3D ( 'NONE', #272, #44, #23 ) ;
#200 = ORIENTED_EDGE ( 'NONE', *, *, #2, .F. ) ;
#201 = DIRECTION ( 'NONE',  ( -1.000000000000000000, 0.000000000000000000, 0.000000000000000000 ) ) ;
#202 =( CONVERSION_BASED_UNIT ( 'INCH', #325 ) LENGTH_UNIT ( ) NAMED_UNIT ( #130 ) );
#203 = CARTESIAN_POINT ( 'NONE',  ( -0.1250000000000000000, 0.1250000000000000278, 1.530808498934191201E-17 ) ) ;
#204 = DIRECTION ( 'NONE',  ( -1.224646799147352961E-16, 1.000000000000000000, -0.000000000000000000 ) ) ;
#205 = ORIENTED_EDGE ( 'NONE', *, *, #292, .T. ) ;
#206 = SURFACE_SIDE_STYLE ('',( #119 ) ) ;
#207 = DIRECTION ( 'NONE',  ( 0.000000000000000000, 0.000000000000000000, -1.000000000000000000 ) ) ;
#208 = VECTOR ( 'NONE', #369, 39.37007874015748143 ) ;
#209 =( NAMED_UNIT ( * ) SI_UNIT ( $, .STERADIAN. ) SOLID_ANGLE_UNIT ( ) );
#210 = FILL_AREA_STYLE_COLOUR ( '', #52 ) ;
#211 = AXIS2_PLACEMENT_3D ( 'NONE', #305, #177, #337 ) ;
#212 = PRESENTATION_LAYER_ASSIGNMENT (  '', '', ( #240 ) ) ;
#213 = CARTESIAN_POINT ( 'NONE',  ( 1.530808498934190893E-17, 0.5000000000000000000, 0.1249999999999999306 ) ) ;
#214 = AXIS2_PLACEMENT_3D ( 'NONE', #291, #246, #363 ) ;
#215 =( NAMED_UNIT ( * ) PLANE_ANGLE_UNIT ( ) SI_UNIT ( $, .RADIAN. ) );
#216 =( LENGTH_UNIT ( ) NAMED_UNIT ( * ) SI_UNIT ( $, .METRE. ) );
#217 =( LENGTH_UNIT ( ) NAMED_UNIT ( * ) SI_UNIT ( $, .METRE. ) );
#218 = EDGE_LOOP ( 'NONE', ( #161, #234, #165, #66 ) ) ;
#219 = DIMENSIONAL_EXPONENTS ( 1.000000000000000000, 0.000000000000000000, 0.000000000000000000, 0.000000000000000000, 0.000000000000000000, 0.000000000000000000, 0.000000000000000000 ) ;
#220 = LINE ( 'NONE', #280, #208 ) ;
#221 = CARTESIAN_POINT ( 'NONE',  ( -7.654042494670957545E-18, 0.000000000000000000, 0.000000000000000000 ) ) ;
#222 = FILL_AREA_STYLE_COLOUR ( '', #289 ) ;
#223 = SURFACE_SIDE_STYLE ('',( #22 ) ) ;
#224 = FILL_AREA_STYLE_COLOUR ( '', #225 ) ;
#225 = COLOUR_RGB ( '',1.000000000000000000, 0.000000000000000000, 0.000000000000000000 ) ;
#226 = SURFACE_STYLE_USAGE ( .BOTH. , #104 ) ;
#227 = CARTESIAN_POINT ( 'NONE',  ( -1.530808498934191509E-17, 0.1250000000000000000, 0.000000000000000000 ) ) ;
#228 = ADVANCED_FACE ( 'NONE', ( #48 ), #254, .T. ) ;
#229 =( NAMED_UNIT ( * ) PLANE_ANGLE_UNIT ( ) SI_UNIT ( $, .RADIAN. ) );
#230 =( LENGTH_UNIT ( ) NAMED_UNIT ( * ) SI_UNIT ( $, .METRE. ) );
#231 = AXIS2_PLACEMENT_3D ( 'NONE', #267, #39, #10 ) ;
#232 = MECHANICAL_DESIGN_GEOMETRIC_PRESENTATION_REPRESENTATION (  '', ( #54 ), #133 ) ;
#233 = ORIENTED_EDGE ( 'NONE', *, *, #110, .T. ) ;
#234 = ORIENTED_EDGE ( 'NONE', *, *, #123, .T. ) ;
#235 = ORIENTED_EDGE ( 'NONE', *, *, #86, .F. ) ;
#236 = FILL_AREA_STYLE ('',( #351 ) ) ;
#237 = APPLICATION_PROTOCOL_DEFINITION ( 'draft international standard', 'automotive_design', 1998, #131 ) ;
#238 = ORIENTED_EDGE ( 'NONE', *, *, #292, .F. ) ;
#239 = AXIS2_PLACEMENT_3D ( 'NONE', #70, #89, #207 ) ;
#240 = STYLED_ITEM ( 'NONE', ( #122 ), #58 ) ;
#241 = SURFACE_STYLE_USAGE ( .BOTH. , #206 ) ;
#242 =( NAMED_UNIT ( * ) SI_UNIT ( $, .STERADIAN. ) SOLID_ANGLE_UNIT ( ) );
#243 = EDGE_CURVE ( 'NONE', #251, #310, #108, .T. ) ;
#244 = DIRECTION ( 'NONE',  ( -0.000000000000000000, -1.000000000000000000, -0.000000000000000000 ) ) ;
#245 = LENGTH_MEASURE_WITH_UNIT ( LENGTH_MEASURE( 0.02539999999999999897 ), #287 );
#246 = DIRECTION ( 'NONE',  ( -1.224646799147352961E-16, 1.000000000000000000, 0.000000000000000000 ) ) ;
#247 = FACE_OUTER_BOUND ( 'NONE', #19, .T. ) ;
#248 =( GEOMETRIC_REPRESENTATION_CONTEXT ( 3 ) GLOBAL_UNCERTAINTY_ASSIGNED_CONTEXT ( ( #166 ) ) GLOBAL_UNIT_ASSIGNED_CONTEXT ( ( #87, #90, #242 ) ) REPRESENTATION_CONTEXT ( 'NONE', 'WORKASPACE' ) );
#249 = CIRCLE ( 'NONE', #62, 0.1249999999999997641 ) ;
#250 = SURFACE_STYLE_USAGE ( .BOTH. , #71 ) ;
#251 = VERTEX_POINT ( 'NONE', #189 ) ;
#252 = SURFACE_STYLE_FILL_AREA ( #191 ) ;
#253 = ORIENTED_EDGE ( 'NONE', *, *, #6, .T. ) ;
#254 = CYLINDRICAL_SURFACE ( 'NONE', #51, 0.1249999999999998612 ) ;
#255 = COLOUR_RGB ( '',0.7921568627450980005, 0.8196078431372548767, 0.9333333333333333481 ) ;
#256 = AXIS2_PLACEMENT_3D ( 'NONE', #12, #324, #120 ) ;
#257 = DIRECTION ( 'NONE',  ( -1.224646799147352961E-16, 1.000000000000000000, -0.000000000000000000 ) ) ;
#258 = ORIENTED_EDGE ( 'NONE', *, *, #110, .F. ) ;
#259 = VERTEX_POINT ( 'NONE', #149 ) ;
#260 = CARTESIAN_POINT ( 'NONE',  ( -1.530808498934191509E-17, 0.1250000000000000000, 0.000000000000000000 ) ) ;
#261 = MECHANICAL_DESIGN_GEOMETRIC_PRESENTATION_REPRESENTATION (  '', ( #265 ), #134 ) ;
#262 = DIRECTION ( 'NONE',  ( 0.000000000000000000, 0.000000000000000000, -1.000000000000000000 ) ) ;
#263 = UNCERTAINTY_MEASURE_WITH_UNIT (LENGTH_MEASURE( 1.000000000000000082E-05 ), #129, 'distance_accuracy_value', 'NONE');
#264 = AXIS2_PLACEMENT_3D ( 'NONE', #303, #344, #155 ) ;
#265 = STYLED_ITEM ( 'NONE', ( #342 ), #275 ) ;
#266 = VERTEX_POINT ( 'NONE', #154 ) ;
#267 = CARTESIAN_POINT ( 'NONE',  ( 0.1249999999999999306, 2.500000000000000000, 0.000000000000000000 ) ) ;
#268 = CARTESIAN_POINT ( 'NONE',  ( -6.123233995736766036E-17, 2.500000000000000000, 0.000000000000000000 ) ) ;
#269 = EDGE_CURVE ( 'NONE', #259, #3, #304, .T. ) ;
#270 = CARTESIAN_POINT ( 'NONE',  ( -1.530808498934191509E-17, 0.1250000000000000000, 0.000000000000000000 ) ) ;
#271 = UNCERTAINTY_MEASURE_WITH_UNIT (LENGTH_MEASURE( 1.000000000000000082E-05 ), #41, 'distance_accuracy_value', 'NONE');
#272 = CARTESIAN_POINT ( 'NONE',  ( 0.000000000000000000, 0.1250000000000000278, 0.000000000000000000 ) ) ;
#273 = PRODUCT_CONTEXT ( 'NONE', #131, 'mechanical' ) ;
#274 = CARTESIAN_POINT ( 'NONE',  ( 0.1249999999999999167, 2.500000000000000000, 1.530808498934190585E-17 ) ) ;
#275 = ADVANCED_FACE ( 'NONE', ( #247 ), #168, .T. ) ;
#276 = EDGE_LOOP ( 'NONE', ( #93, #135, #164, #323 ) ) ;
#277 = VECTOR ( 'NONE', #370, 39.37007874015748143 ) ;
#278 = PRODUCT_DEFINITION_FORMATION_WITH_SPECIFIED_SOURCE ( 'ANY', '', #79, .NOT_KNOWN. ) ;
#279 =( NAMED_UNIT ( * ) SI_UNIT ( $, .STERADIAN. ) SOLID_ANGLE_UNIT ( ) );
#280 = CARTESIAN_POINT ( 'NONE',  ( 0.000000000000000000, 0.000000000000000000, -0.1249999999999999445 ) ) ;
#281 = CARTESIAN_POINT ( 'NONE',  ( 0.1249999999999999584, 0.1250000000000000278, 0.000000000000000000 ) ) ;
#282 = DIRECTION ( 'NONE',  ( -1.224646799147352961E-16, 1.000000000000000000, -0.000000000000000000 ) ) ;
#283 = AXIS2_PLACEMENT_3D ( 'NONE', #345, #372, #297 ) ;
#284 = EDGE_LOOP ( 'NONE', ( #235, #69 ) ) ;
#285 = ORIENTED_EDGE ( 'NONE', *, *, #2, .T. ) ;
#286 = VERTEX_POINT ( 'NONE', #281 ) ;
#287 =( LENGTH_UNIT ( ) NAMED_UNIT ( * ) SI_UNIT ( $, .METRE. ) );
#288 = PRESENTATION_LAYER_ASSIGNMENT (  '', '', ( #265 ) ) ;
#289 = COLOUR_RGB ( '',1.000000000000000000, 0.000000000000000000, 0.000000000000000000 ) ;
#290 = PRESENTATION_LAYER_ASSIGNMENT (  '', '', ( #84 ) ) ;
#291 = CARTESIAN_POINT ( 'NONE',  ( 1.836970198721029441E-16, 0.5000000000000000000, 0.000000000000000000 ) ) ;
#292 = EDGE_CURVE ( 'NONE', #286, #194, #95, .T. ) ;
#293 = DIRECTION ( 'NONE',  ( 0.000000000000000000, 0.000000000000000000, -1.000000000000000000 ) ) ;
#294 =( LENGTH_UNIT ( ) NAMED_UNIT ( * ) SI_UNIT ( $, .METRE. ) );
#295 = AXIS2_PLACEMENT_3D ( 'NONE', #91, #335, #40 ) ;
#296 = STYLED_ITEM ( 'NONE', ( #85 ), #298 ) ;
#297 = DIRECTION ( 'NONE',  ( 0.000000000000000000, 0.000000000000000000, -1.000000000000000000 ) ) ;
#298 = ADVANCED_FACE ( 'NONE', ( #67 ), #32, .T. ) ;
#299 = LENGTH_MEASURE_WITH_UNIT ( LENGTH_MEASURE( 0.02539999999999999897 ), #217 );
#300 = ORIENTED_EDGE ( 'NONE', *, *, #198, .F. ) ;
#301 = SURFACE_STYLE_FILL_AREA ( #366 ) ;
#302 = DIMENSIONAL_EXPONENTS ( 1.000000000000000000, 0.000000000000000000, 0.000000000000000000, 0.000000000000000000, 0.000000000000000000, 0.000000000000000000, 0.000000000000000000 ) ;
#303 = CARTESIAN_POINT ( 'NONE',  ( -6.123233995736766036E-17, 2.500000000000000000, 0.000000000000000000 ) ) ;
#304 = LINE ( 'NONE', #157, #312 ) ;
#305 = CARTESIAN_POINT ( 'NONE',  ( 0.000000000000000000, 0.1250000000000000278, 0.000000000000000000 ) ) ;
#306 = DIRECTION ( 'NONE',  ( 1.000000000000000000, 0.000000000000000000, -1.224646799147353207E-16 ) ) ;
#307 = SURFACE_STYLE_USAGE ( .BOTH. , #223 ) ;
#308 =( LENGTH_UNIT ( ) NAMED_UNIT ( * ) SI_UNIT ( $, .METRE. ) );
#309 = ADVANCED_FACE ( 'NONE', ( #321 ), #61, .F. ) ;
#310 = VERTEX_POINT ( 'NONE', #213 ) ;
#311 = MANIFOLD_SOLID_BREP ( 'Revolve - Cutting Edge', #118 ) ;
#312 = VECTOR ( 'NONE', #73, 39.37007874015748143 ) ;
#313 = EDGE_CURVE ( 'NONE', #266, #3, #160, .T. ) ;
#314 =( CONVERSION_BASED_UNIT ( 'INCH', #197 ) LENGTH_UNIT ( ) NAMED_UNIT ( #183 ) );
#315 = AXIS2_PLACEMENT_3D ( 'NONE', #270, #262, #201 ) ;
#316 = VERTEX_POINT ( 'NONE', #94 ) ;
#317 = UNCERTAINTY_MEASURE_WITH_UNIT (LENGTH_MEASURE( 1.000000000000000082E-05 ), #49, 'distance_accuracy_value', 'NONE');
#318 = EDGE_CURVE ( 'NONE', #310, #251, #368, .T. ) ;
#319 = FILL_AREA_STYLE_COLOUR ( '', #365 ) ;
#320 = AXIS2_PLACEMENT_3D ( 'NONE', #169, #139, #143 ) ;
#321 = FACE_OUTER_BOUND ( 'NONE', #284, .T. ) ;
#322 = FACE_OUTER_BOUND ( 'NONE', #346, .T. ) ;
#323 = ORIENTED_EDGE ( 'NONE', *, *, #148, .F. ) ;
#324 = DIRECTION ( 'NONE',  ( -0.000000000000000000, -1.000000000000000000, -0.000000000000000000 ) ) ;
#325 = LENGTH_MEASURE_WITH_UNIT ( LENGTH_MEASURE( 0.02539999999999999897 ), #362 );
#326 = PRESENTATION_STYLE_ASSIGNMENT (( #121 ) ) ;
#327 = AXIS2_PLACEMENT_3D ( 'NONE', #260, #195, #173 ) ;
#328 = VERTEX_POINT ( 'NONE', #203 ) ;
#329 = CYLINDRICAL_SURFACE ( 'NONE', #18, 0.1249999999999998612 ) ;
#330 = AXIS2_PLACEMENT_3D ( 'NONE', #63, #244, #340 ) ;
#331 = COLOUR_RGB ( '',1.000000000000000000, 0.000000000000000000, 0.000000000000000000 ) ;
#332 = SURFACE_SIDE_STYLE ('',( #96 ) ) ;
#333 =( NAMED_UNIT ( * ) PLANE_ANGLE_UNIT ( ) SI_UNIT ( $, .RADIAN. ) );
#334 = LINE ( 'NONE', #43, #13 ) ;
#335 = DIRECTION ( 'NONE',  ( 0.000000000000000000, 0.000000000000000000, 1.000000000000000000 ) ) ;
#336 = EDGE_LOOP ( 'NONE', ( #55, #233, #238, #144 ) ) ;
#337 = DIRECTION ( 'NONE',  ( 0.000000000000000000, 0.000000000000000000, -1.000000000000000000 ) ) ;
#338 = PRESENTATION_STYLE_ASSIGNMENT (( #186 ) ) ;
#339 = CARTESIAN_POINT ( 'NONE',  ( -6.123233995736766036E-17, 2.500000000000000000, 0.000000000000000000 ) ) ;
#340 = DIRECTION ( 'NONE',  ( 0.000000000000000000, 0.000000000000000000, -1.000000000000000000 ) ) ;
#341 = ADVANCED_FACE ( 'NONE', ( #355 ), #38, .T. ) ;
#342 = PRESENTATION_STYLE_ASSIGNMENT (( #226 ) ) ;
#343 = CARTESIAN_POINT ( 'NONE',  ( -1.530808498934191509E-17, 0.1250000000000000000, 0.000000000000000000 ) ) ;
#344 = DIRECTION ( 'NONE',  ( -1.224646799147352961E-16, 1.000000000000000000, -0.000000000000000000 ) ) ;
#345 = CARTESIAN_POINT ( 'NONE',  ( 0.000000000000000000, 0.5000000000000000000, 0.000000000000000000 ) ) ;
#346 = EDGE_LOOP ( 'NONE', ( #196, #253 ) ) ;
#347 = SURFACE_SIDE_STYLE ('',( #136 ) ) ;
#348 = CIRCLE ( 'NONE', #239, 0.1249999999999999584 ) ;
#349 = ORIENTED_EDGE ( 'NONE', *, *, #358, .F. ) ;
#350 = ADVANCED_FACE ( 'NONE', ( #361 ), #329, .T. ) ;
#351 = FILL_AREA_STYLE_COLOUR ( '', #127 ) ;
#352 = MECHANICAL_DESIGN_GEOMETRIC_PRESENTATION_REPRESENTATION (  '', ( #84 ), #248 ) ;
#353 =( NAMED_UNIT ( * ) PLANE_ANGLE_UNIT ( ) SI_UNIT ( $, .RADIAN. ) );
#354 = LENGTH_MEASURE_WITH_UNIT ( LENGTH_MEASURE( 0.02539999999999999897 ), #114 );
#355 = FACE_OUTER_BOUND ( 'NONE', #88, .T. ) ;
#356 = ORIENTED_EDGE ( 'NONE', *, *, #45, .F. ) ;
#357 = DIRECTION ( 'NONE',  ( -1.224646799147352961E-16, 1.000000000000000000, -0.000000000000000000 ) ) ;
#358 = EDGE_CURVE ( 'NONE', #150, #328, #348, .T. ) ;
#359 = FILL_AREA_STYLE ('',( #319 ) ) ;
#360 = UNCERTAINTY_MEASURE_WITH_UNIT (LENGTH_MEASURE( 1.000000000000000082E-05 ), #314, 'distance_accuracy_value', 'NONE');
#361 = FACE_OUTER_BOUND ( 'NONE', #276, .T. ) ;
#362 =( LENGTH_UNIT ( ) NAMED_UNIT ( * ) SI_UNIT ( $, .METRE. ) );
#363 = DIRECTION ( 'NONE',  ( -1.000000000000000000, -1.224646799147352961E-16, 0.000000000000000000 ) ) ;
#364 = CARTESIAN_POINT ( 'NONE',  ( 1.836970198721029194E-16, 0.5000000000000001110, 0.000000000000000000 ) ) ;
#365 = COLOUR_RGB ( '',0.7921568627450980005, 0.8196078431372548767, 0.9333333333333333481 ) ;
#366 = FILL_AREA_STYLE ('',( #25 ) ) ;
#367 = CIRCLE ( 'NONE', #264, 0.1250000000000000000 ) ;
#368 = CIRCLE ( 'NONE', #256, 0.1249999999999999306 ) ;
#369 = DIRECTION ( 'NONE',  ( -0.000000000000000000, -1.000000000000000000, -0.000000000000000000 ) ) ;
#370 = DIRECTION ( 'NONE',  ( -1.224646799147352961E-16, 1.000000000000000000, -0.000000000000000000 ) ) ;
#371 = ADVANCED_FACE ( 'NONE', ( #322 ), #142, .F. ) ;
#372 = DIRECTION ( 'NONE',  ( -0.000000000000000000, -1.000000000000000000, -0.000000000000000000 ) ) ;
#373 = SPHERICAL_SURFACE ( 'NONE', #176, 0.1250000000000000000 ) ;
ENDSEC;
END-ISO-10303-21;
