ISO-10303-21;
HEADER;
FILE_DESCRIPTION (( 'STEP AP214' ),
    '1' );
FILE_NAME ('01165.STEP',
    '2023-06-22T14:21:34',
    ( '' ),
    ( '' ),
    'SwSTEP 2.0',
    'SolidWorks 2023',
    '' );
FILE_SCHEMA (( 'AUTOMOTIVE_DESIGN' ));
ENDSEC;

DATA;
#1 =( CONVERSION_BASED_UNIT ( 'INCH', #240 ) LENGTH_UNIT ( ) NAMED_UNIT ( #153 ) );
#2 = CIRCLE ( 'NONE', #159, 0.1250000000000000000 ) ;
#3 = DIRECTION ( 'NONE',  ( 3.265724797726275178E-17, -1.000000000000000000, 0.000000000000000000 ) ) ;
#4 = UNCERTAINTY_MEASURE_WITH_UNIT (LENGTH_MEASURE( 1.000000000000000082E-05 ), #200, 'distance_accuracy_value', 'NONE');
#5 = EDGE_LOOP ( 'NONE', ( #302, #106 ) ) ;
#6 = VERTEX_POINT ( 'NONE', #175 ) ;
#7 = VERTEX_POINT ( 'NONE', #282 ) ;
#8 = AXIS2_PLACEMENT_3D ( 'NONE', #245, #220, #266 ) ;
#9 =( GEOMETRIC_REPRESENTATION_CONTEXT ( 3 ) GLOBAL_UNCERTAINTY_ASSIGNED_CONTEXT ( ( #4 ) ) GLOBAL_UNIT_ASSIGNED_CONTEXT ( ( #200, #288, #178 ) ) REPRESENTATION_CONTEXT ( 'NONE', 'WORKASPACE' ) );
#10 = CARTESIAN_POINT ( 'NONE',  ( -0.1250000000000001110, 2.500000000000000000, 0.000000000000000000 ) ) ;
#11 = FILL_AREA_STYLE ('',( #269 ) ) ;
#12 = LINE ( 'NONE', #10, #290 ) ;
#13 = AXIS2_PLACEMENT_3D ( 'NONE', #22, #169, #195 ) ;
#14 =( GEOMETRIC_REPRESENTATION_CONTEXT ( 3 ) GLOBAL_UNCERTAINTY_ASSIGNED_CONTEXT ( ( #120 ) ) GLOBAL_UNIT_ASSIGNED_CONTEXT ( ( #102, #123, #249 ) ) REPRESENTATION_CONTEXT ( 'NONE', 'WORKASPACE' ) );
#15 = CYLINDRICAL_SURFACE ( 'NONE', #8, 0.1250000000000000000 ) ;
#16 = DIMENSIONAL_EXPONENTS ( 1.000000000000000000, 0.000000000000000000, 0.000000000000000000, 0.000000000000000000, 0.000000000000000000, 0.000000000000000000, 0.000000000000000000 ) ;
#17 = PRODUCT ( '01165', '01165', '', ( #125 ) ) ;
#18 = COLOUR_RGB ( '',1.000000000000000000, 0.000000000000000000, 0.000000000000000000 ) ;
#19 = DIRECTION ( 'NONE',  ( 0.000000000000000000, -1.000000000000000000, -0.000000000000000000 ) ) ;
#20 = FACE_OUTER_BOUND ( 'NONE', #5, .T. ) ;
#21 = VECTOR ( 'NONE', #72, 39.37007874015748143 ) ;
#22 = CARTESIAN_POINT ( 'NONE',  ( 0.000000000000000000, 0.6250000000000000000, 0.000000000000000000 ) ) ;
#23 = LINE ( 'NONE', #257, #21 ) ;
#24 = PRESENTATION_STYLE_ASSIGNMENT (( #238 ) ) ;
#25 = VERTEX_POINT ( 'NONE', #80 ) ;
#26 = PRESENTATION_STYLE_ASSIGNMENT (( #168 ) ) ;
#27 = EDGE_CURVE ( 'NONE', #193, #239, #111, .T. ) ;
#28 = FACE_OUTER_BOUND ( 'NONE', #262, .T. ) ;
#29 = CYLINDRICAL_SURFACE ( 'NONE', #39, 0.1250000000000000000 ) ;
#30 = AXIS2_PLACEMENT_3D ( 'NONE', #203, #202, #207 ) ;
#31 = PRESENTATION_STYLE_ASSIGNMENT (( #174 ) ) ;
#32 = ORIENTED_EDGE ( 'NONE', *, *, #226, .T. ) ;
#33 = VERTEX_POINT ( 'NONE', #60 ) ;
#34 = LENGTH_MEASURE_WITH_UNIT ( LENGTH_MEASURE( 0.02539999999999999897 ), #83 );
#35 = PRODUCT_DEFINITION ( 'UNKNOWN', '', #142, #55 ) ;
#36 = LINE ( 'NONE', #146, #252 ) ;
#37 = SURFACE_STYLE_FILL_AREA ( #264 ) ;
#38 = SURFACE_SIDE_STYLE ('',( #37 ) ) ;
#39 = AXIS2_PLACEMENT_3D ( 'NONE', #145, #68, #253 ) ;
#40 =( CONVERSION_BASED_UNIT ( 'INCH', #301 ) LENGTH_UNIT ( ) NAMED_UNIT ( #127 ) );
#41 = APPLICATION_CONTEXT ( 'automotive_design' ) ;
#42 = DIMENSIONAL_EXPONENTS ( 1.000000000000000000, 0.000000000000000000, 0.000000000000000000, 0.000000000000000000, 0.000000000000000000, 0.000000000000000000, 0.000000000000000000 ) ;
#43 = ADVANCED_FACE ( 'NONE', ( #152 ), #50, .T. ) ;
#44 = EDGE_CURVE ( 'NONE', #6, #239, #23, .T. ) ;
#45 = PRESENTATION_LAYER_ASSIGNMENT (  '', '', ( #263 ) ) ;
#46 = ADVANCED_BREP_SHAPE_REPRESENTATION ( '01165', ( #135, #237, #79 ), #9 ) ;
#47 = PRESENTATION_STYLE_ASSIGNMENT (( #107 ) ) ;
#48 = EDGE_CURVE ( 'NONE', #196, #287, #300, .T. ) ;
#49 = CARTESIAN_POINT ( 'NONE',  ( 1.530808498934191817E-17, 0.6250000000000000000, 0.1250000000000000278 ) ) ;
#50 = CYLINDRICAL_SURFACE ( 'NONE', #98, 0.1250000000000000278 ) ;
#51 = ORIENTED_EDGE ( 'NONE', *, *, #165, .T. ) ;
#52 = MECHANICAL_DESIGN_GEOMETRIC_PRESENTATION_REPRESENTATION (  '', ( #263 ), #66 ) ;
#53 = EDGE_LOOP ( 'NONE', ( #242, #32, #243, #280 ) ) ;
#54 = CARTESIAN_POINT ( 'NONE',  ( 6.665599034052701263E-35, 0.6250000000000000000, 0.000000000000000000 ) ) ;
#55 = PRODUCT_DEFINITION_CONTEXT ( 'detailed design', #150, 'design' ) ;
#56 = DIRECTION ( 'NONE',  ( -1.000000000000000000, 0.000000000000000000, 0.000000000000000000 ) ) ;
#57 = LENGTH_MEASURE_WITH_UNIT ( LENGTH_MEASURE( 0.02539999999999999897 ), #276 );
#58 = ADVANCED_FACE ( 'NONE', ( #90 ), #191, .T. ) ;
#59 = MECHANICAL_DESIGN_GEOMETRIC_PRESENTATION_REPRESENTATION (  '', ( #86 ), #210 ) ;
#60 = CARTESIAN_POINT ( 'NONE',  ( 0.000000000000000000, 0.000000000000000000, -0.1250000000000000000 ) ) ;
#61 = CARTESIAN_POINT ( 'NONE',  ( 0.000000000000000000, 0.000000000000000000, 0.000000000000000000 ) ) ;
#62 = FILL_AREA_STYLE ('',( #265 ) ) ;
#63 = STYLED_ITEM ( 'NONE', ( #65 ), #135 ) ;
#64 = CARTESIAN_POINT ( 'NONE',  ( 0.000000000000000000, 0.6250000000000000000, -0.1250000000000000278 ) ) ;
#65 = PRESENTATION_STYLE_ASSIGNMENT (( #103 ) ) ;
#66 =( GEOMETRIC_REPRESENTATION_CONTEXT ( 3 ) GLOBAL_UNCERTAINTY_ASSIGNED_CONTEXT ( ( #188 ) ) GLOBAL_UNIT_ASSIGNED_CONTEXT ( ( #250, #246, #155 ) ) REPRESENTATION_CONTEXT ( 'NONE', 'WORKASPACE' ) );
#67 = PRODUCT_RELATED_PRODUCT_CATEGORY ( 'part', '', ( #17 ) ) ;
#68 = DIRECTION ( 'NONE',  ( -0.000000000000000000, -1.000000000000000000, -0.000000000000000000 ) ) ;
#69 = DIRECTION ( 'NONE',  ( -3.265724797726275178E-17, 1.000000000000000000, 0.000000000000000000 ) ) ;
#70 = DIRECTION ( 'NONE',  ( -3.265724797726275178E-17, 1.000000000000000000, -0.000000000000000000 ) ) ;
#71 = ORIENTED_EDGE ( 'NONE', *, *, #199, .F. ) ;
#72 = DIRECTION ( 'NONE',  ( -3.265724797726275178E-17, 1.000000000000000000, -0.000000000000000000 ) ) ;
#73 = FILL_AREA_STYLE_COLOUR ( '', #297 ) ;
#74 = FILL_AREA_STYLE ('',( #256 ) ) ;
#75 = ORIENTED_EDGE ( 'NONE', *, *, #137, .F. ) ;
#76 = ORIENTED_EDGE ( 'NONE', *, *, #226, .F. ) ;
#77 = DIMENSIONAL_EXPONENTS ( 1.000000000000000000, 0.000000000000000000, 0.000000000000000000, 0.000000000000000000, 0.000000000000000000, 0.000000000000000000, 0.000000000000000000 ) ;
#78 = LENGTH_MEASURE_WITH_UNIT ( LENGTH_MEASURE( 0.02539999999999999897 ), #96 );
#79 = AXIS2_PLACEMENT_3D ( 'NONE', #61, #154, #260 ) ;
#80 = CARTESIAN_POINT ( 'NONE',  ( 1.530808498934191509E-17, 0.000000000000000000, 0.1250000000000000000 ) ) ;
#81 = DIRECTION ( 'NONE',  ( -0.000000000000000000, -1.000000000000000000, -0.000000000000000000 ) ) ;
#82 = SURFACE_STYLE_USAGE ( .BOTH. , #38 ) ;
#83 =( LENGTH_UNIT ( ) NAMED_UNIT ( * ) SI_UNIT ( $, .METRE. ) );
#84 = FILL_AREA_STYLE_COLOUR ( '', #182 ) ;
#85 = EDGE_CURVE ( 'NONE', #239, #193, #141, .T. ) ;
#86 = STYLED_ITEM ( 'NONE', ( #31 ), #237 ) ;
#87 = MECHANICAL_DESIGN_GEOMETRIC_PRESENTATION_REPRESENTATION (  '', ( #179 ), #14 ) ;
#88 = EDGE_LOOP ( 'NONE', ( #122, #76 ) ) ;
#89 = DIRECTION ( 'NONE',  ( 0.000000000000000000, 0.000000000000000000, -1.000000000000000000 ) ) ;
#90 = FACE_OUTER_BOUND ( 'NONE', #53, .T. ) ;
#91 = ORIENTED_EDGE ( 'NONE', *, *, #258, .T. ) ;
#92 = CARTESIAN_POINT ( 'NONE',  ( 0.000000000000000000, 0.6250000000000000000, 0.000000000000000000 ) ) ;
#93 = CARTESIAN_POINT ( 'NONE',  ( 0.000000000000000000, 0.000000000000000000, -0.1250000000000000000 ) ) ;
#94 = ORIENTED_EDGE ( 'NONE', *, *, #27, .T. ) ;
#95 = ORIENTED_EDGE ( 'NONE', *, *, #272, .T. ) ;
#96 =( LENGTH_UNIT ( ) NAMED_UNIT ( * ) SI_UNIT ( $, .METRE. ) );
#97 = SHAPE_DEFINITION_REPRESENTATION ( #185, #46 ) ;
#98 = AXIS2_PLACEMENT_3D ( 'NONE', #140, #236, #56 ) ;
#99 = PRESENTATION_LAYER_ASSIGNMENT (  '', '', ( #63 ) ) ;
#100 =( GEOMETRIC_REPRESENTATION_CONTEXT ( 3 ) GLOBAL_UNCERTAINTY_ASSIGNED_CONTEXT ( ( #171 ) ) GLOBAL_UNIT_ASSIGNED_CONTEXT ( ( #1, #233, #304 ) ) REPRESENTATION_CONTEXT ( 'NONE', 'WORKASPACE' ) );
#101 = SURFACE_STYLE_FILL_AREA ( #11 ) ;
#102 =( CONVERSION_BASED_UNIT ( 'INCH', #197 ) LENGTH_UNIT ( ) NAMED_UNIT ( #77 ) );
#103 = SURFACE_STYLE_USAGE ( .BOTH. , #227 ) ;
#104 = CLOSED_SHELL ( 'NONE', ( #167, #292, #281, #261 ) ) ;
#105 = CARTESIAN_POINT ( 'NONE',  ( 0.000000000000000000, 0.000000000000000000, 0.000000000000000000 ) ) ;
#106 = ORIENTED_EDGE ( 'NONE', *, *, #209, .F. ) ;
#107 = SURFACE_STYLE_USAGE ( .BOTH. , #251 ) ;
#108 = AXIS2_PLACEMENT_3D ( 'NONE', #138, #19, #112 ) ;
#109 = UNCERTAINTY_MEASURE_WITH_UNIT (LENGTH_MEASURE( 1.000000000000000082E-05 ), #181, 'distance_accuracy_value', 'NONE');
#110 = EDGE_LOOP ( 'NONE', ( #124, #289, #75, #198 ) ) ;
#111 = CIRCLE ( 'NONE', #235, 0.1250000000000000555 ) ;
#112 = DIRECTION ( 'NONE',  ( 0.000000000000000000, 0.000000000000000000, -1.000000000000000000 ) ) ;
#113 = AXIS2_PLACEMENT_3D ( 'NONE', #119, #3, #213 ) ;
#114 = PLANE ( 'NONE',  #194 ) ;
#115 = CARTESIAN_POINT ( 'NONE',  ( 0.000000000000000000, 0.6250000000000000000, 0.000000000000000000 ) ) ;
#116 = ORIENTED_EDGE ( 'NONE', *, *, #137, .T. ) ;
#117 = SURFACE_STYLE_FILL_AREA ( #306 ) ;
#118 = CARTESIAN_POINT ( 'NONE',  ( 0.000000000000000000, 0.6250000000000000000, 0.000000000000000000 ) ) ;
#119 = CARTESIAN_POINT ( 'NONE',  ( 0.1249999999999999861, 2.500000000000000000, 0.000000000000000000 ) ) ;
#120 = UNCERTAINTY_MEASURE_WITH_UNIT (LENGTH_MEASURE( 1.000000000000000082E-05 ), #102, 'distance_accuracy_value', 'NONE');
#121 = CIRCLE ( 'NONE', #221, 0.1250000000000000278 ) ;
#122 = ORIENTED_EDGE ( 'NONE', *, *, #272, .F. ) ;
#123 =( NAMED_UNIT ( * ) PLANE_ANGLE_UNIT ( ) SI_UNIT ( $, .RADIAN. ) );
#124 = ORIENTED_EDGE ( 'NONE', *, *, #48, .T. ) ;
#125 = PRODUCT_CONTEXT ( 'NONE', #41, 'mechanical' ) ;
#126 = PRESENTATION_STYLE_ASSIGNMENT (( #82 ) ) ;
#127 = DIMENSIONAL_EXPONENTS ( 1.000000000000000000, 0.000000000000000000, 0.000000000000000000, 0.000000000000000000, 0.000000000000000000, 0.000000000000000000, 0.000000000000000000 ) ;
#128 = DIRECTION ( 'NONE',  ( -0.000000000000000000, -1.000000000000000000, -0.000000000000000000 ) ) ;
#129 = DIRECTION ( 'NONE',  ( -3.265724797726275178E-17, 1.000000000000000000, -0.000000000000000000 ) ) ;
#130 =( NAMED_UNIT ( * ) SI_UNIT ( $, .STERADIAN. ) SOLID_ANGLE_UNIT ( ) );
#131 = CARTESIAN_POINT ( 'NONE',  ( 0.000000000000000000, 0.000000000000000000, 0.000000000000000000 ) ) ;
#132 = LENGTH_MEASURE_WITH_UNIT ( LENGTH_MEASURE( 0.02539999999999999897 ), #156 );
#133 = PRESENTATION_LAYER_ASSIGNMENT (  '', '', ( #86 ) ) ;
#134 = PRESENTATION_LAYER_ASSIGNMENT (  '', '', ( #230 ) ) ;
#135 = MANIFOLD_SOLID_BREP ( 'Revolve - Cutting Edge', #104 ) ;
#136 =( GEOMETRIC_REPRESENTATION_CONTEXT ( 3 ) GLOBAL_UNCERTAINTY_ASSIGNED_CONTEXT ( ( #232 ) ) GLOBAL_UNIT_ASSIGNED_CONTEXT ( ( #293, #228, #268 ) ) REPRESENTATION_CONTEXT ( 'NONE', 'WORKASPACE' ) );
#137 = EDGE_CURVE ( 'NONE', #33, #25, #162, .T. ) ;
#138 = CARTESIAN_POINT ( 'NONE',  ( 0.000000000000000000, 0.000000000000000000, 0.000000000000000000 ) ) ;
#139 = EDGE_LOOP ( 'NONE', ( #71, #147, #91, #285 ) ) ;
#140 = CARTESIAN_POINT ( 'NONE',  ( -6.123233995736766036E-17, 2.500000000000000000, 0.000000000000000000 ) ) ;
#141 = CIRCLE ( 'NONE', #30, 0.1250000000000000555 ) ;
#142 = PRODUCT_DEFINITION_FORMATION_WITH_SPECIFIED_SOURCE ( 'ANY', '', #17, .NOT_KNOWN. ) ;
#143 = FILL_AREA_STYLE ('',( #73 ) ) ;
#144 = CIRCLE ( 'NONE', #208, 0.1250000000000000278 ) ;
#145 = CARTESIAN_POINT ( 'NONE',  ( 0.000000000000000000, 0.000000000000000000, 0.000000000000000000 ) ) ;
#146 = CARTESIAN_POINT ( 'NONE',  ( 1.530808498934191509E-17, 0.000000000000000000, 0.1250000000000000000 ) ) ;
#147 = ORIENTED_EDGE ( 'NONE', *, *, #209, .T. ) ;
#148 = DIRECTION ( 'NONE',  ( -3.265724797726275178E-17, 1.000000000000000000, -0.000000000000000000 ) ) ;
#149 = LINE ( 'NONE', #93, #291 ) ;
#150 = APPLICATION_CONTEXT ( 'automotive_design' ) ;
#151 = MECHANICAL_DESIGN_GEOMETRIC_PRESENTATION_REPRESENTATION (  '', ( #63 ), #136 ) ;
#152 = FACE_OUTER_BOUND ( 'NONE', #201, .T. ) ;
#153 = DIMENSIONAL_EXPONENTS ( 1.000000000000000000, 0.000000000000000000, 0.000000000000000000, 0.000000000000000000, 0.000000000000000000, 0.000000000000000000, 0.000000000000000000 ) ;
#154 = DIRECTION ( 'NONE',  ( 0.000000000000000000, 0.000000000000000000, 1.000000000000000000 ) ) ;
#155 =( NAMED_UNIT ( * ) SI_UNIT ( $, .STERADIAN. ) SOLID_ANGLE_UNIT ( ) );
#156 =( LENGTH_UNIT ( ) NAMED_UNIT ( * ) SI_UNIT ( $, .METRE. ) );
#157 = DIMENSIONAL_EXPONENTS ( 1.000000000000000000, 0.000000000000000000, 0.000000000000000000, 0.000000000000000000, 0.000000000000000000, 0.000000000000000000, 0.000000000000000000 ) ;
#158 = EDGE_CURVE ( 'NONE', #7, #193, #12, .T. ) ;
#159 = AXIS2_PLACEMENT_3D ( 'NONE', #105, #294, #184 ) ;
#160 = COLOUR_RGB ( '',1.000000000000000000, 0.000000000000000000, 0.000000000000000000 ) ;
#161 = ORIENTED_EDGE ( 'NONE', *, *, #158, .F. ) ;
#162 = CIRCLE ( 'NONE', #270, 0.1250000000000000000 ) ;
#163 = PRESENTATION_LAYER_ASSIGNMENT (  '', '', ( #275 ) ) ;
#164 = FACE_OUTER_BOUND ( 'NONE', #88, .T. ) ;
#165 = EDGE_CURVE ( 'NONE', #25, #33, #2, .T. ) ;
#166 = DIRECTION ( 'NONE',  ( -3.265724797726275178E-17, 1.000000000000000000, -0.000000000000000000 ) ) ;
#167 = ADVANCED_FACE ( 'NONE', ( #183 ), #15, .T. ) ;
#168 = SURFACE_STYLE_USAGE ( .BOTH. , #278 ) ;
#169 = DIRECTION ( 'NONE',  ( -3.265724797726275178E-17, 1.000000000000000000, -0.000000000000000000 ) ) ;
#170 = DIRECTION ( 'NONE',  ( -1.000000000000000000, 0.000000000000000000, 0.000000000000000000 ) ) ;
#171 = UNCERTAINTY_MEASURE_WITH_UNIT (LENGTH_MEASURE( 1.000000000000000082E-05 ), #1, 'distance_accuracy_value', 'NONE');
#172 = CARTESIAN_POINT ( 'NONE',  ( -6.123233995736766036E-17, 2.500000000000000000, 0.000000000000000000 ) ) ;
#173 = SURFACE_STYLE_FILL_AREA ( #143 ) ;
#174 = SURFACE_STYLE_USAGE ( .BOTH. , #254 ) ;
#175 = CARTESIAN_POINT ( 'NONE',  ( 0.1250000000000000278, 0.6250000000000000000, 1.530808498934192125E-17 ) ) ;
#176 = APPLICATION_PROTOCOL_DEFINITION ( 'draft international standard', 'automotive_design', 1998, #41 ) ;
#177 = DIRECTION ( 'NONE',  ( -1.000000000000000000, 0.000000000000000000, 0.000000000000000000 ) ) ;
#178 =( NAMED_UNIT ( * ) SI_UNIT ( $, .STERADIAN. ) SOLID_ANGLE_UNIT ( ) );
#179 = STYLED_ITEM ( 'NONE', ( #26 ), #292 ) ;
#180 =( LENGTH_UNIT ( ) NAMED_UNIT ( * ) SI_UNIT ( $, .METRE. ) );
#181 =( CONVERSION_BASED_UNIT ( 'INCH', #57 ) LENGTH_UNIT ( ) NAMED_UNIT ( #42 ) );
#182 = COLOUR_RGB ( '',1.000000000000000000, 0.000000000000000000, 0.000000000000000000 ) ;
#183 = FACE_OUTER_BOUND ( 'NONE', #110, .T. ) ;
#184 = DIRECTION ( 'NONE',  ( 0.000000000000000000, 0.000000000000000000, -1.000000000000000000 ) ) ;
#185 = PRODUCT_DEFINITION_SHAPE ( 'NONE', 'NONE',  #35 ) ;
#186 = CLOSED_SHELL ( 'NONE', ( #43, #214, #58, #244 ) ) ;
#187 =( LENGTH_UNIT ( ) NAMED_UNIT ( * ) SI_UNIT ( $, .METRE. ) );
#188 = UNCERTAINTY_MEASURE_WITH_UNIT (LENGTH_MEASURE( 1.000000000000000082E-05 ), #250, 'distance_accuracy_value', 'NONE');
#189 = COLOUR_RGB ( '',0.7921568627450980005, 0.8196078431372548767, 0.9333333333333333481 ) ;
#190 = DIRECTION ( 'NONE',  ( -0.000000000000000000, -1.000000000000000000, -0.000000000000000000 ) ) ;
#191 = CYLINDRICAL_SURFACE ( 'NONE', #229, 0.1250000000000000278 ) ;
#192 = SURFACE_STYLE_FILL_AREA ( #74 ) ;
#193 = VERTEX_POINT ( 'NONE', #248 ) ;
#194 = AXIS2_PLACEMENT_3D ( 'NONE', #223, #218, #286 ) ;
#195 = DIRECTION ( 'NONE',  ( -1.000000000000000000, 0.000000000000000000, 0.000000000000000000 ) ) ;
#196 = VERTEX_POINT ( 'NONE', #64 ) ;
#197 = LENGTH_MEASURE_WITH_UNIT ( LENGTH_MEASURE( 0.02539999999999999897 ), #180 );
#198 = ORIENTED_EDGE ( 'NONE', *, *, #258, .F. ) ;
#199 = EDGE_CURVE ( 'NONE', #287, #25, #36, .T. ) ;
#200 =( CONVERSION_BASED_UNIT ( 'INCH', #78 ) LENGTH_UNIT ( ) NAMED_UNIT ( #157 ) );
#201 = EDGE_LOOP ( 'NONE', ( #95, #309, #217, #161 ) ) ;
#202 = DIRECTION ( 'NONE',  ( -3.265724797726275178E-17, 1.000000000000000000, -0.000000000000000000 ) ) ;
#203 = CARTESIAN_POINT ( 'NONE',  ( -6.123233995736766036E-17, 2.500000000000000000, 0.000000000000000000 ) ) ;
#204 = DIRECTION ( 'NONE',  ( 0.000000000000000000, 0.000000000000000000, -1.000000000000000000 ) ) ;
#205 = COLOUR_RGB ( '',0.7921568627450980005, 0.8196078431372548767, 0.9333333333333333481 ) ;
#206 = MECHANICAL_DESIGN_GEOMETRIC_PRESENTATION_REPRESENTATION (  '', ( #230 ), #305 ) ;
#207 = DIRECTION ( 'NONE',  ( -1.000000000000000000, 0.000000000000000000, 0.000000000000000000 ) ) ;
#208 = AXIS2_PLACEMENT_3D ( 'NONE', #92, #166, #283 ) ;
#209 = EDGE_CURVE ( 'NONE', #287, #196, #121, .T. ) ;
#210 =( GEOMETRIC_REPRESENTATION_CONTEXT ( 3 ) GLOBAL_UNCERTAINTY_ASSIGNED_CONTEXT ( ( #109 ) ) GLOBAL_UNIT_ASSIGNED_CONTEXT ( ( #181, #247, #130 ) ) REPRESENTATION_CONTEXT ( 'NONE', 'WORKASPACE' ) );
#211 = FILL_AREA_STYLE_COLOUR ( '', #18 ) ;
#212 = DIRECTION ( 'NONE',  ( -0.000000000000000000, -1.000000000000000000, -0.000000000000000000 ) ) ;
#213 = DIRECTION ( 'NONE',  ( 1.000000000000000000, 3.265724797726275178E-17, 0.000000000000000000 ) ) ;
#214 = ADVANCED_FACE ( 'NONE', ( #164 ), #225, .F. ) ;
#215 = ORIENTED_EDGE ( 'NONE', *, *, #85, .T. ) ;
#216 = SURFACE_SIDE_STYLE ('',( #173 ) ) ;
#217 = ORIENTED_EDGE ( 'NONE', *, *, #27, .F. ) ;
#218 = DIRECTION ( 'NONE',  ( 0.000000000000000000, 1.000000000000000000, 0.000000000000000000 ) ) ;
#219 = APPLICATION_PROTOCOL_DEFINITION ( 'draft international standard', 'automotive_design', 1998, #150 ) ;
#220 = DIRECTION ( 'NONE',  ( -0.000000000000000000, -1.000000000000000000, -0.000000000000000000 ) ) ;
#221 = AXIS2_PLACEMENT_3D ( 'NONE', #118, #81, #89 ) ;
#222 = MECHANICAL_DESIGN_GEOMETRIC_PRESENTATION_REPRESENTATION (  '', ( #275 ), #100 ) ;
#223 = CARTESIAN_POINT ( 'NONE',  ( 0.000000000000000000, 0.6250000000000000000, 0.000000000000000000 ) ) ;
#224 = PLANE ( 'NONE',  #113 ) ;
#225 = PLANE ( 'NONE',  #296 ) ;
#226 = EDGE_CURVE ( 'NONE', #6, #7, #271, .T. ) ;
#227 = SURFACE_SIDE_STYLE ('',( #101 ) ) ;
#228 =( NAMED_UNIT ( * ) PLANE_ANGLE_UNIT ( ) SI_UNIT ( $, .RADIAN. ) );
#229 = AXIS2_PLACEMENT_3D ( 'NONE', #172, #148, #170 ) ;
#230 = STYLED_ITEM ( 'NONE', ( #47 ), #261 ) ;
#231 =( NAMED_UNIT ( * ) PLANE_ANGLE_UNIT ( ) SI_UNIT ( $, .RADIAN. ) );
#232 = UNCERTAINTY_MEASURE_WITH_UNIT (LENGTH_MEASURE( 1.000000000000000082E-05 ), #293, 'distance_accuracy_value', 'NONE');
#233 =( NAMED_UNIT ( * ) PLANE_ANGLE_UNIT ( ) SI_UNIT ( $, .RADIAN. ) );
#234 = CARTESIAN_POINT ( 'NONE',  ( 0.1250000000000000000, 2.500000000000000000, 1.530808498934192125E-17 ) ) ;
#235 = AXIS2_PLACEMENT_3D ( 'NONE', #259, #70, #177 ) ;
#236 = DIRECTION ( 'NONE',  ( -3.265724797726275178E-17, 1.000000000000000000, -0.000000000000000000 ) ) ;
#237 = MANIFOLD_SOLID_BREP ( 'Revolve - Tool Body (Straight Shanked)', #186 ) ;
#238 = SURFACE_STYLE_USAGE ( .BOTH. , #216 ) ;
#239 = VERTEX_POINT ( 'NONE', #234 ) ;
#240 = LENGTH_MEASURE_WITH_UNIT ( LENGTH_MEASURE( 0.02539999999999999897 ), #308 );
#241 = EDGE_LOOP ( 'NONE', ( #116, #51 ) ) ;
#242 = ORIENTED_EDGE ( 'NONE', *, *, #44, .F. ) ;
#243 = ORIENTED_EDGE ( 'NONE', *, *, #158, .T. ) ;
#244 = ADVANCED_FACE ( 'NONE', ( #28 ), #224, .F. ) ;
#245 = CARTESIAN_POINT ( 'NONE',  ( 0.000000000000000000, 0.000000000000000000, 0.000000000000000000 ) ) ;
#246 =( NAMED_UNIT ( * ) PLANE_ANGLE_UNIT ( ) SI_UNIT ( $, .RADIAN. ) );
#247 =( NAMED_UNIT ( * ) PLANE_ANGLE_UNIT ( ) SI_UNIT ( $, .RADIAN. ) );
#248 = CARTESIAN_POINT ( 'NONE',  ( -0.1250000000000001110, 2.500000000000000000, 0.000000000000000000 ) ) ;
#249 =( NAMED_UNIT ( * ) SI_UNIT ( $, .STERADIAN. ) SOLID_ANGLE_UNIT ( ) );
#250 =( CONVERSION_BASED_UNIT ( 'INCH', #34 ) LENGTH_UNIT ( ) NAMED_UNIT ( #16 ) );
#251 = SURFACE_SIDE_STYLE ('',( #273 ) ) ;
#252 = VECTOR ( 'NONE', #190, 39.37007874015748143 ) ;
#253 = DIRECTION ( 'NONE',  ( 0.000000000000000000, 0.000000000000000000, -1.000000000000000000 ) ) ;
#254 = SURFACE_SIDE_STYLE ('',( #192 ) ) ;
#255 = FACE_OUTER_BOUND ( 'NONE', #139, .T. ) ;
#256 = FILL_AREA_STYLE_COLOUR ( '', #189 ) ;
#257 = CARTESIAN_POINT ( 'NONE',  ( 0.1249999999999999584, 2.500000000000000000, 1.530808498934191817E-17 ) ) ;
#258 = EDGE_CURVE ( 'NONE', #196, #33, #149, .T. ) ;
#259 = CARTESIAN_POINT ( 'NONE',  ( -6.123233995736766036E-17, 2.500000000000000000, 0.000000000000000000 ) ) ;
#260 = DIRECTION ( 'NONE',  ( 1.000000000000000000, 0.000000000000000000, 0.000000000000000000 ) ) ;
#261 = ADVANCED_FACE ( 'NONE', ( #284 ), #277, .T. ) ;
#262 = EDGE_LOOP ( 'NONE', ( #94, #215 ) ) ;
#263 = STYLED_ITEM ( 'NONE', ( #126 ), #167 ) ;
#264 = FILL_AREA_STYLE ('',( #84 ) ) ;
#265 = FILL_AREA_STYLE_COLOUR ( '', #160 ) ;
#266 = DIRECTION ( 'NONE',  ( 0.000000000000000000, 0.000000000000000000, -1.000000000000000000 ) ) ;
#267 = PRESENTATION_LAYER_ASSIGNMENT (  '', '', ( #179 ) ) ;
#268 =( NAMED_UNIT ( * ) SI_UNIT ( $, .STERADIAN. ) SOLID_ANGLE_UNIT ( ) );
#269 = FILL_AREA_STYLE_COLOUR ( '', #205 ) ;
#270 = AXIS2_PLACEMENT_3D ( 'NONE', #131, #298, #204 ) ;
#271 = CIRCLE ( 'NONE', #13, 0.1250000000000000278 ) ;
#272 = EDGE_CURVE ( 'NONE', #7, #6, #144, .T. ) ;
#273 = SURFACE_STYLE_FILL_AREA ( #62 ) ;
#274 = AXIS2_PLACEMENT_3D ( 'NONE', #115, #212, #307 ) ;
#275 = STYLED_ITEM ( 'NONE', ( #24 ), #281 ) ;
#276 =( LENGTH_UNIT ( ) NAMED_UNIT ( * ) SI_UNIT ( $, .METRE. ) );
#277 = PLANE ( 'NONE',  #108 ) ;
#278 = SURFACE_SIDE_STYLE ('',( #117 ) ) ;
#279 = DIRECTION ( 'NONE',  ( -1.000000000000000000, -3.265724797726275178E-17, 0.000000000000000000 ) ) ;
#280 = ORIENTED_EDGE ( 'NONE', *, *, #85, .F. ) ;
#281 = ADVANCED_FACE ( 'NONE', ( #255 ), #29, .T. ) ;
#282 = CARTESIAN_POINT ( 'NONE',  ( -0.1250000000000000278, 0.6250000000000000000, 0.000000000000000000 ) ) ;
#283 = DIRECTION ( 'NONE',  ( -1.000000000000000000, 0.000000000000000000, 0.000000000000000000 ) ) ;
#284 = FACE_OUTER_BOUND ( 'NONE', #241, .T. ) ;
#285 = ORIENTED_EDGE ( 'NONE', *, *, #165, .F. ) ;
#286 = DIRECTION ( 'NONE',  ( 0.000000000000000000, -0.000000000000000000, 1.000000000000000000 ) ) ;
#287 = VERTEX_POINT ( 'NONE', #49 ) ;
#288 =( NAMED_UNIT ( * ) PLANE_ANGLE_UNIT ( ) SI_UNIT ( $, .RADIAN. ) );
#289 = ORIENTED_EDGE ( 'NONE', *, *, #199, .T. ) ;
#290 = VECTOR ( 'NONE', #129, 39.37007874015748143 ) ;
#291 = VECTOR ( 'NONE', #128, 39.37007874015748143 ) ;
#292 = ADVANCED_FACE ( 'NONE', ( #20 ), #114, .T. ) ;
#293 =( CONVERSION_BASED_UNIT ( 'INCH', #132 ) LENGTH_UNIT ( ) NAMED_UNIT ( #295 ) );
#294 = DIRECTION ( 'NONE',  ( -0.000000000000000000, -1.000000000000000000, -0.000000000000000000 ) ) ;
#295 = DIMENSIONAL_EXPONENTS ( 1.000000000000000000, 0.000000000000000000, 0.000000000000000000, 0.000000000000000000, 0.000000000000000000, 0.000000000000000000, 0.000000000000000000 ) ;
#296 = AXIS2_PLACEMENT_3D ( 'NONE', #54, #69, #279 ) ;
#297 = COLOUR_RGB ( '',1.000000000000000000, 0.000000000000000000, 0.000000000000000000 ) ;
#298 = DIRECTION ( 'NONE',  ( -0.000000000000000000, -1.000000000000000000, -0.000000000000000000 ) ) ;
#299 =( NAMED_UNIT ( * ) SI_UNIT ( $, .STERADIAN. ) SOLID_ANGLE_UNIT ( ) );
#300 = CIRCLE ( 'NONE', #274, 0.1250000000000000278 ) ;
#301 = LENGTH_MEASURE_WITH_UNIT ( LENGTH_MEASURE( 0.02539999999999999897 ), #187 );
#302 = ORIENTED_EDGE ( 'NONE', *, *, #48, .F. ) ;
#303 = UNCERTAINTY_MEASURE_WITH_UNIT (LENGTH_MEASURE( 1.000000000000000082E-05 ), #40, 'distance_accuracy_value', 'NONE');
#304 =( NAMED_UNIT ( * ) SI_UNIT ( $, .STERADIAN. ) SOLID_ANGLE_UNIT ( ) );
#305 =( GEOMETRIC_REPRESENTATION_CONTEXT ( 3 ) GLOBAL_UNCERTAINTY_ASSIGNED_CONTEXT ( ( #303 ) ) GLOBAL_UNIT_ASSIGNED_CONTEXT ( ( #40, #231, #299 ) ) REPRESENTATION_CONTEXT ( 'NONE', 'WORKASPACE' ) );
#306 = FILL_AREA_STYLE ('',( #211 ) ) ;
#307 = DIRECTION ( 'NONE',  ( 0.000000000000000000, 0.000000000000000000, -1.000000000000000000 ) ) ;
#308 =( LENGTH_UNIT ( ) NAMED_UNIT ( * ) SI_UNIT ( $, .METRE. ) );
#309 = ORIENTED_EDGE ( 'NONE', *, *, #44, .T. ) ;
ENDSEC;
END-ISO-10303-21;
