ISO-10303-21;
HEADER;
FILE_DESCRIPTION (( 'STEP AP214' ),
    '1' );
FILE_NAME ('59698.STEP',
    '2023-07-24T15:25:25',
    ( '' ),
    ( '' ),
    'SwSTEP 2.0',
    'SolidWorks 2023',
    '' );
FILE_SCHEMA (( 'AUTOMOTIVE_DESIGN' ));
ENDSEC;

DATA;
#1 = CARTESIAN_POINT ( 'NONE',  ( 3.999999999999999112, 11.99999999999999645, 4.898587196589409870E-16 ) ) ;
#2 = UNCERTAINTY_MEASURE_WITH_UNIT (LENGTH_MEASURE( 1.000000000000000082E-05 ), #358, 'distance_accuracy_value', 'NONE');
#3 = DIRECTION ( 'NONE',  ( -0.000000000000000000, -1.000000000000000000, -0.000000000000000000 ) ) ;
#4 = CARTESIAN_POINT ( 'NONE',  ( 0.000000000000000000, 0.5000000000000000000, -3.500000000000000000 ) ) ;
#5 = CIRCLE ( 'NONE', #82, 3.500000000000000000 ) ;
#6 = CIRCLE ( 'NONE', #77, 4.000000000000000000 ) ;
#7 = ORIENTED_EDGE ( 'NONE', *, *, #266, .T. ) ;
#8 = PRODUCT_DEFINITION_SHAPE ( 'NONE', 'NONE',  #33 ) ;
#9 = LINE ( 'NONE', #244, #255 ) ;
#10 = FILL_AREA_STYLE_COLOUR ( '', #20 ) ;
#11 = ADVANCED_FACE ( 'NONE', ( #281 ), #21, .T. ) ;
#12 = ORIENTED_EDGE ( 'NONE', *, *, #271, .T. ) ;
#13 = CIRCLE ( 'NONE', #212, 0.5000000000000000000 ) ;
#14 = MECHANICAL_DESIGN_GEOMETRIC_PRESENTATION_REPRESENTATION (  '', ( #325 ), #280 ) ;
#15 = CIRCLE ( 'NONE', #301, 4.000000000000000000 ) ;
#16 = PRODUCT_DEFINITION_CONTEXT ( 'detailed design', #350, 'design' ) ;
#17 = EDGE_CURVE ( 'NONE', #78, #330, #238, .T. ) ;
#18 = ORIENTED_EDGE ( 'NONE', *, *, #226, .T. ) ;
#19 = DIRECTION ( 'NONE',  ( -1.000000000000000000, 0.000000000000000000, 0.000000000000000000 ) ) ;
#20 = COLOUR_RGB ( '',1.000000000000000000, 0.000000000000000000, 0.000000000000000000 ) ;
#21 = CYLINDRICAL_SURFACE ( 'NONE', #106, 3.999999999999996447 ) ;
#22 = ADVANCED_FACE ( 'NONE', ( #272 ), #59, .T. ) ;
#23 = CARTESIAN_POINT ( 'NONE',  ( -3.999999999999987121, 11.99999999999999645, 0.000000000000000000 ) ) ;
#24 = DIRECTION ( 'NONE',  ( -0.000000000000000000, -1.000000000000000000, -0.000000000000000000 ) ) ;
#25 = CYLINDRICAL_SURFACE ( 'NONE', #65, 4.000000000000000000 ) ;
#26 = CIRCLE ( 'NONE', #195, 4.000000000000000000 ) ;
#27 = SURFACE_STYLE_USAGE ( .BOTH. , #153 ) ;
#28 = DIRECTION ( 'NONE',  ( -0.000000000000000000, -1.000000000000000000, -0.000000000000000000 ) ) ;
#29 = CARTESIAN_POINT ( 'NONE',  ( 4.898587196589412829E-16, 0.5000000000000000000, 4.000000000000000000 ) ) ;
#30 = ORIENTED_EDGE ( 'NONE', *, *, #75, .F. ) ;
#31 = CARTESIAN_POINT ( 'NONE',  ( -3.999999999999996447, 63.00000000000000000, 0.000000000000000000 ) ) ;
#32 =( NAMED_UNIT ( * ) PLANE_ANGLE_UNIT ( ) SI_UNIT ( $, .RADIAN. ) );
#33 = PRODUCT_DEFINITION ( 'UNKNOWN', '', #152, #16 ) ;
#34 = ADVANCED_BREP_SHAPE_REPRESENTATION ( '59698', ( #294, #172, #261 ), #170 ) ;
#35 = ORIENTED_EDGE ( 'NONE', *, *, #68, .T. ) ;
#36 = FACE_OUTER_BOUND ( 'NONE', #304, .T. ) ;
#37 = DIRECTION ( 'NONE',  ( -9.448620473410002383E-17, 1.000000000000000000, -0.000000000000000000 ) ) ;
#38 = APPLICATION_CONTEXT ( 'automotive_design' ) ;
#39 =( LENGTH_UNIT ( ) NAMED_UNIT ( * ) SI_UNIT ( .MILLI., .METRE. ) );
#40 = COLOUR_RGB ( '',1.000000000000000000, 0.000000000000000000, 0.000000000000000000 ) ;
#41 =( NAMED_UNIT ( * ) SI_UNIT ( $, .STERADIAN. ) SOLID_ANGLE_UNIT ( ) );
#42 = DIRECTION ( 'NONE',  ( -9.448620473410002383E-17, 1.000000000000000000, -0.000000000000000000 ) ) ;
#43 = DIRECTION ( 'NONE',  ( 0.000000000000000000, 0.000000000000000000, -1.000000000000000000 ) ) ;
#44 =( LENGTH_UNIT ( ) NAMED_UNIT ( * ) SI_UNIT ( .MILLI., .METRE. ) );
#45 = ORIENTED_EDGE ( 'NONE', *, *, #327, .T. ) ;
#46 = VERTEX_POINT ( 'NONE', #1 ) ;
#47 = SURFACE_SIDE_STYLE ('',( #178 ) ) ;
#48 = PRESENTATION_LAYER_ASSIGNMENT (  '', '', ( #231 ) ) ;
#49 = DIRECTION ( 'NONE',  ( -9.448620473410002383E-17, 1.000000000000000000, -0.000000000000000000 ) ) ;
#50 = FACE_OUTER_BOUND ( 'NONE', #74, .T. ) ;
#51 = ORIENTED_EDGE ( 'NONE', *, *, #226, .F. ) ;
#52 = DIRECTION ( 'NONE',  ( -1.000000000000000000, 0.000000000000000000, 0.000000000000000000 ) ) ;
#53 = CARTESIAN_POINT ( 'NONE',  ( 0.000000000000000000, 0.000000000000000000, 0.000000000000000000 ) ) ;
#54 = CLOSED_SHELL ( 'NONE', ( #237, #221, #113, #119, #126, #201 ) ) ;
#55 =( GEOMETRIC_REPRESENTATION_CONTEXT ( 3 ) GLOBAL_UNCERTAINTY_ASSIGNED_CONTEXT ( ( #2 ) ) GLOBAL_UNIT_ASSIGNED_CONTEXT ( ( #358, #173, #137 ) ) REPRESENTATION_CONTEXT ( 'NONE', 'WORKASPACE' ) );
#56 = DIRECTION ( 'NONE',  ( 0.000000000000000000, 0.000000000000000000, -1.000000000000000000 ) ) ;
#57 = UNCERTAINTY_MEASURE_WITH_UNIT (LENGTH_MEASURE( 1.000000000000000082E-05 ), #58, 'distance_accuracy_value', 'NONE');
#58 =( LENGTH_UNIT ( ) NAMED_UNIT ( * ) SI_UNIT ( .MILLI., .METRE. ) );
#59 = CYLINDRICAL_SURFACE ( 'NONE', #348, 3.999999999999996447 ) ;
#60 = VERTEX_POINT ( 'NONE', #31 ) ;
#61 = CARTESIAN_POINT ( 'NONE',  ( 0.000000000000000000, 0.000000000000000000, -4.000000000000000000 ) ) ;
#62 = SHAPE_DEFINITION_REPRESENTATION ( #8, #34 ) ;
#63 = COLOUR_RGB ( '',1.000000000000000000, 0.000000000000000000, 0.000000000000000000 ) ;
#64 = MECHANICAL_DESIGN_GEOMETRIC_PRESENTATION_REPRESENTATION (  '', ( #176 ), #336 ) ;
#65 = AXIS2_PLACEMENT_3D ( 'NONE', #53, #147, #370 ) ;
#66 = SURFACE_STYLE_FILL_AREA ( #186 ) ;
#67 = VERTEX_POINT ( 'NONE', #23 ) ;
#68 = EDGE_CURVE ( 'NONE', #351, #60, #216, .T. ) ;
#69 = VECTOR ( 'NONE', #42, 1000.000000000000000 ) ;
#70 =( GEOMETRIC_REPRESENTATION_CONTEXT ( 3 ) GLOBAL_UNCERTAINTY_ASSIGNED_CONTEXT ( ( #73 ) ) GLOBAL_UNIT_ASSIGNED_CONTEXT ( ( #200, #32, #230 ) ) REPRESENTATION_CONTEXT ( 'NONE', 'WORKASPACE' ) );
#71 = SURFACE_SIDE_STYLE ('',( #133 ) ) ;
#72 =( NAMED_UNIT ( * ) SI_UNIT ( $, .STERADIAN. ) SOLID_ANGLE_UNIT ( ) );
#73 = UNCERTAINTY_MEASURE_WITH_UNIT (LENGTH_MEASURE( 1.000000000000000082E-05 ), #200, 'distance_accuracy_value', 'NONE');
#74 = EDGE_LOOP ( 'NONE', ( #97, #12, #220, #354 ) ) ;
#75 = EDGE_CURVE ( 'NONE', #164, #214, #26, .T. ) ;
#76 = DIRECTION ( 'NONE',  ( -0.000000000000000000, -1.000000000000000000, -0.000000000000000000 ) ) ;
#77 = AXIS2_PLACEMENT_3D ( 'NONE', #290, #125, #345 ) ;
#78 = VERTEX_POINT ( 'NONE', #319 ) ;
#79 = EDGE_LOOP ( 'NONE', ( #190, #315 ) ) ;
#80 = PRESENTATION_STYLE_ASSIGNMENT (( #283 ) ) ;
#81 = CARTESIAN_POINT ( 'NONE',  ( 0.000000000000000000, 0.5000000000000000000, 0.000000000000000000 ) ) ;
#82 = AXIS2_PLACEMENT_3D ( 'NONE', #189, #302, #298 ) ;
#83 = DIRECTION ( 'NONE',  ( -1.000000000000000000, 0.000000000000000000, 0.000000000000000000 ) ) ;
#84 = AXIS2_PLACEMENT_3D ( 'NONE', #341, #28, #263 ) ;
#85 = FILL_AREA_STYLE_COLOUR ( '', #93 ) ;
#86 = PRODUCT_CONTEXT ( 'NONE', #38, 'mechanical' ) ;
#87 = ORIENTED_EDGE ( 'NONE', *, *, #174, .F. ) ;
#88 = FILL_AREA_STYLE ('',( #339 ) ) ;
#89 = SURFACE_STYLE_USAGE ( .BOTH. , #108 ) ;
#90 = DIRECTION ( 'NONE',  ( 0.000000000000000000, 0.000000000000000000, -1.000000000000000000 ) ) ;
#91 = PLANE ( 'NONE',  #276 ) ;
#92 = STYLED_ITEM ( 'NONE', ( #80 ), #126 ) ;
#93 = COLOUR_RGB ( '',1.000000000000000000, 0.000000000000000000, 0.000000000000000000 ) ;
#94 = UNCERTAINTY_MEASURE_WITH_UNIT (LENGTH_MEASURE( 1.000000000000000082E-05 ), #44, 'distance_accuracy_value', 'NONE');
#95 = ORIENTED_EDGE ( 'NONE', *, *, #258, .T. ) ;
#96 = PLANE ( 'NONE',  #166 ) ;
#97 = ORIENTED_EDGE ( 'NONE', *, *, #183, .F. ) ;
#98 = CARTESIAN_POINT ( 'NONE',  ( 0.000000000000000000, 12.00000000000000000, -4.000000000000000000 ) ) ;
#99 = MECHANICAL_DESIGN_GEOMETRIC_PRESENTATION_REPRESENTATION (  '', ( #92 ), #191 ) ;
#100 = AXIS2_PLACEMENT_3D ( 'NONE', #154, #236, #206 ) ;
#101 = ORIENTED_EDGE ( 'NONE', *, *, #193, .F. ) ;
#102 = FILL_AREA_STYLE_COLOUR ( '', #116 ) ;
#103 = LINE ( 'NONE', #296, #69 ) ;
#104 = EDGE_CURVE ( 'NONE', #214, #164, #15, .T. ) ;
#105 = DIRECTION ( 'NONE',  ( -1.000000000000000000, 0.000000000000000000, 0.000000000000000000 ) ) ;
#106 = AXIS2_PLACEMENT_3D ( 'NONE', #144, #257, #227 ) ;
#107 = MECHANICAL_DESIGN_GEOMETRIC_PRESENTATION_REPRESENTATION (  '', ( #265 ), #260 ) ;
#108 = SURFACE_SIDE_STYLE ('',( #66 ) ) ;
#109 = CARTESIAN_POINT ( 'NONE',  ( 0.000000000000000000, 12.00000000000000000, 0.000000000000000000 ) ) ;
#110 = LINE ( 'NONE', #317, #136 ) ;
#111 = DIRECTION ( 'NONE',  ( 0.000000000000000000, 0.000000000000000000, 1.000000000000000000 ) ) ;
#112 =( NAMED_UNIT ( * ) PLANE_ANGLE_UNIT ( ) SI_UNIT ( $, .RADIAN. ) );
#113 = ADVANCED_FACE ( 'NONE', ( #145 ), #180, .T. ) ;
#114 = CARTESIAN_POINT ( 'NONE',  ( 1.469576158976823750E-15, 63.00000000000000000, 0.000000000000000000 ) ) ;
#115 = AXIS2_PLACEMENT_3D ( 'NONE', #362, #228, #334 ) ;
#116 = COLOUR_RGB ( '',0.7921568627450980005, 0.8196078431372548767, 0.9333333333333333481 ) ;
#117 = DIRECTION ( 'NONE',  ( -0.000000000000000000, -1.000000000000000000, -0.000000000000000000 ) ) ;
#118 = CARTESIAN_POINT ( 'NONE',  ( 0.000000000000000000, 0.000000000000000000, 0.000000000000000000 ) ) ;
#119 = ADVANCED_FACE ( 'NONE', ( #50 ), #232, .T. ) ;
#120 = FILL_AREA_STYLE ('',( #203 ) ) ;
#121 = CARTESIAN_POINT ( 'NONE',  ( 0.000000000000000000, 0.5000000000000000000, 0.000000000000000000 ) ) ;
#122 = DIRECTION ( 'NONE',  ( 9.448620473410002383E-17, -1.000000000000000000, 0.000000000000000000 ) ) ;
#123 = COLOUR_RGB ( '',1.000000000000000000, 0.000000000000000000, 0.000000000000000000 ) ;
#124 = DIRECTION ( 'NONE',  ( 0.000000000000000000, 0.000000000000000000, -1.000000000000000000 ) ) ;
#125 = DIRECTION ( 'NONE',  ( -0.000000000000000000, -1.000000000000000000, -0.000000000000000000 ) ) ;
#126 = ADVANCED_FACE ( 'NONE', ( #204 ), #171, .T. ) ;
#127 = DIRECTION ( 'NONE',  ( -9.448620473410002383E-17, 1.000000000000000000, 0.000000000000000000 ) ) ;
#128 = ORIENTED_EDGE ( 'NONE', *, *, #68, .F. ) ;
#129 = PRESENTATION_STYLE_ASSIGNMENT (( #89 ) ) ;
#130 = APPLICATION_PROTOCOL_DEFINITION ( 'draft international standard', 'automotive_design', 1998, #350 ) ;
#131 = EDGE_LOOP ( 'NONE', ( #45, #35 ) ) ;
#132 = DIRECTION ( 'NONE',  ( 1.000000000000000000, 9.448620473410002383E-17, 0.000000000000000000 ) ) ;
#133 = SURFACE_STYLE_FILL_AREA ( #245 ) ;
#134 =( GEOMETRIC_REPRESENTATION_CONTEXT ( 3 ) GLOBAL_UNCERTAINTY_ASSIGNED_CONTEXT ( ( #57 ) ) GLOBAL_UNIT_ASSIGNED_CONTEXT ( ( #58, #289, #240 ) ) REPRESENTATION_CONTEXT ( 'NONE', 'WORKASPACE' ) );
#135 = ORIENTED_EDGE ( 'NONE', *, *, #286, .T. ) ;
#136 = VECTOR ( 'NONE', #49, 1000.000000000000000 ) ;
#137 =( NAMED_UNIT ( * ) SI_UNIT ( $, .STERADIAN. ) SOLID_ANGLE_UNIT ( ) );
#138 =( GEOMETRIC_REPRESENTATION_CONTEXT ( 3 ) GLOBAL_UNCERTAINTY_ASSIGNED_CONTEXT ( ( #235 ) ) GLOBAL_UNIT_ASSIGNED_CONTEXT ( ( #39, #346, #41 ) ) REPRESENTATION_CONTEXT ( 'NONE', 'WORKASPACE' ) );
#139 = PRODUCT_RELATED_PRODUCT_CATEGORY ( 'part', '', ( #321 ) ) ;
#140 = FILL_AREA_STYLE_COLOUR ( '', #123 ) ;
#141 = ORIENTED_EDGE ( 'NONE', *, *, #104, .T. ) ;
#142 = SURFACE_STYLE_USAGE ( .BOTH. , #329 ) ;
#143 = FACE_OUTER_BOUND ( 'NONE', #284, .T. ) ;
#144 = CARTESIAN_POINT ( 'NONE',  ( 1.469576158976823750E-15, 63.00000000000000000, 0.000000000000000000 ) ) ;
#145 = FACE_OUTER_BOUND ( 'NONE', #79, .T. ) ;
#146 =( NAMED_UNIT ( * ) SI_UNIT ( $, .STERADIAN. ) SOLID_ANGLE_UNIT ( ) );
#147 = DIRECTION ( 'NONE',  ( -0.000000000000000000, -1.000000000000000000, -0.000000000000000000 ) ) ;
#148 = ADVANCED_FACE ( 'NONE', ( #242 ), #96, .F. ) ;
#149 = CARTESIAN_POINT ( 'NONE',  ( 0.000000000000000000, 0.000000000000000000, 0.000000000000000000 ) ) ;
#150 = CLOSED_SHELL ( 'NONE', ( #22, #148, #11, #262 ) ) ;
#151 = UNCERTAINTY_MEASURE_WITH_UNIT (LENGTH_MEASURE( 1.000000000000000082E-05 ), #355, 'distance_accuracy_value', 'NONE');
#152 = PRODUCT_DEFINITION_FORMATION_WITH_SPECIFIED_SOURCE ( 'ANY', '', #321, .NOT_KNOWN. ) ;
#153 = SURFACE_SIDE_STYLE ('',( #310 ) ) ;
#154 = CARTESIAN_POINT ( 'NONE',  ( 6.288372600415924928E-15, 11.99999999999999645, 0.000000000000000000 ) ) ;
#155 =( LENGTH_UNIT ( ) NAMED_UNIT ( * ) SI_UNIT ( .MILLI., .METRE. ) );
#156 = PRESENTATION_STYLE_ASSIGNMENT (( #27 ) ) ;
#157 = FACE_OUTER_BOUND ( 'NONE', #131, .T. ) ;
#158 =( NAMED_UNIT ( * ) SI_UNIT ( $, .STERADIAN. ) SOLID_ANGLE_UNIT ( ) );
#159 = CARTESIAN_POINT ( 'NONE',  ( 0.000000000000000000, 12.00000000000000000, 0.000000000000000000 ) ) ;
#160 =( NAMED_UNIT ( * ) PLANE_ANGLE_UNIT ( ) SI_UNIT ( $, .RADIAN. ) );
#161 = CIRCLE ( 'NONE', #84, 3.500000000000000000 ) ;
#162 = PRESENTATION_STYLE_ASSIGNMENT (( #165 ) ) ;
#163 = PLANE ( 'NONE',  #269 ) ;
#164 = VERTEX_POINT ( 'NONE', #98 ) ;
#165 = SURFACE_STYLE_USAGE ( .BOTH. , #210 ) ;
#166 = AXIS2_PLACEMENT_3D ( 'NONE', #267, #127, #259 ) ;
#167 = CIRCLE ( 'NONE', #100, 3.999999999999993339 ) ;
#168 = VERTEX_POINT ( 'NONE', #353 ) ;
#169 = UNCERTAINTY_MEASURE_WITH_UNIT (LENGTH_MEASURE( 1.000000000000000082E-05 ), #155, 'distance_accuracy_value', 'NONE');
#170 =( GEOMETRIC_REPRESENTATION_CONTEXT ( 3 ) GLOBAL_UNCERTAINTY_ASSIGNED_CONTEXT ( ( #169 ) ) GLOBAL_UNIT_ASSIGNED_CONTEXT ( ( #155, #175, #146 ) ) REPRESENTATION_CONTEXT ( 'NONE', 'WORKASPACE' ) );
#171 = CYLINDRICAL_SURFACE ( 'NONE', #253, 4.000000000000000000 ) ;
#172 = MANIFOLD_SOLID_BREP ( 'Revolve - Tool Body (Straight Shanked)', #150 ) ;
#173 =( NAMED_UNIT ( * ) PLANE_ANGLE_UNIT ( ) SI_UNIT ( $, .RADIAN. ) );
#174 = EDGE_CURVE ( 'NONE', #168, #352, #5, .T. ) ;
#175 =( NAMED_UNIT ( * ) PLANE_ANGLE_UNIT ( ) SI_UNIT ( $, .RADIAN. ) );
#176 = STYLED_ITEM ( 'NONE', ( #359 ), #221 ) ;
#177 = PRESENTATION_LAYER_ASSIGNMENT (  '', '', ( #325 ) ) ;
#178 = SURFACE_STYLE_FILL_AREA ( #222 ) ;
#179 = EDGE_LOOP ( 'NONE', ( #219, #320, #87, #293 ) ) ;
#180 = PLANE ( 'NONE',  #115 ) ;
#181 =( NAMED_UNIT ( * ) PLANE_ANGLE_UNIT ( ) SI_UNIT ( $, .RADIAN. ) );
#182 = PRESENTATION_LAYER_ASSIGNMENT (  '', '', ( #92 ) ) ;
#183 = EDGE_CURVE ( 'NONE', #330, #352, #13, .T. ) ;
#184 = EDGE_LOOP ( 'NONE', ( #247, #328 ) ) ;
#185 = CARTESIAN_POINT ( 'NONE',  ( 1.469576158976823750E-15, 63.00000000000000000, 0.000000000000000000 ) ) ;
#186 = FILL_AREA_STYLE ('',( #102 ) ) ;
#187 = PRESENTATION_LAYER_ASSIGNMENT (  '', '', ( #176 ) ) ;
#188 = DIRECTION ( 'NONE',  ( -1.224646799147353454E-16, 0.000000000000000000, -1.000000000000000000 ) ) ;
#189 = CARTESIAN_POINT ( 'NONE',  ( 0.000000000000000000, 0.000000000000000000, 0.000000000000000000 ) ) ;
#190 = ORIENTED_EDGE ( 'NONE', *, *, #174, .T. ) ;
#191 =( GEOMETRIC_REPRESENTATION_CONTEXT ( 3 ) GLOBAL_UNCERTAINTY_ASSIGNED_CONTEXT ( ( #367 ) ) GLOBAL_UNIT_ASSIGNED_CONTEXT ( ( #313, #160, #264 ) ) REPRESENTATION_CONTEXT ( 'NONE', 'WORKASPACE' ) );
#192 = UNCERTAINTY_MEASURE_WITH_UNIT (LENGTH_MEASURE( 1.000000000000000082E-05 ), #234, 'distance_accuracy_value', 'NONE');
#193 = EDGE_CURVE ( 'NONE', #67, #60, #103, .T. ) ;
#194 = FILL_AREA_STYLE ('',( #10 ) ) ;
#195 = AXIS2_PLACEMENT_3D ( 'NONE', #340, #117, #90 ) ;
#196 = STYLED_ITEM ( 'NONE', ( #311 ), #237 ) ;
#197 = ORIENTED_EDGE ( 'NONE', *, *, #104, .F. ) ;
#198 = DIRECTION ( 'NONE',  ( 0.000000000000000000, -0.000000000000000000, 1.000000000000000000 ) ) ;
#199 = FILL_AREA_STYLE ('',( #249 ) ) ;
#200 =( LENGTH_UNIT ( ) NAMED_UNIT ( * ) SI_UNIT ( .MILLI., .METRE. ) );
#201 = ADVANCED_FACE ( 'NONE', ( #36 ), #163, .T. ) ;
#202 = PRESENTATION_LAYER_ASSIGNMENT (  '', '', ( #273 ) ) ;
#203 = FILL_AREA_STYLE_COLOUR ( '', #342 ) ;
#204 = FACE_OUTER_BOUND ( 'NONE', #268, .T. ) ;
#205 = SURFACE_STYLE_FILL_AREA ( #88 ) ;
#206 = DIRECTION ( 'NONE',  ( -1.000000000000000000, 0.000000000000000000, 0.000000000000000000 ) ) ;
#207 = MECHANICAL_DESIGN_GEOMETRIC_PRESENTATION_REPRESENTATION (  '', ( #196 ), #70 ) ;
#208 = CARTESIAN_POINT ( 'NONE',  ( 4.000000000000000000, 63.00000000000000000, 0.000000000000000000 ) ) ;
#209 = EDGE_CURVE ( 'NONE', #78, #168, #335, .T. ) ;
#210 = SURFACE_SIDE_STYLE ('',( #205 ) ) ;
#211 = DIRECTION ( 'NONE',  ( -9.448620473410002383E-17, 1.000000000000000000, -0.000000000000000000 ) ) ;
#212 = AXIS2_PLACEMENT_3D ( 'NONE', #246, #349, #188 ) ;
#213 = AXIS2_PLACEMENT_3D ( 'NONE', #270, #211, #105 ) ;
#214 = VERTEX_POINT ( 'NONE', #305 ) ;
#215 = EDGE_LOOP ( 'NONE', ( #51, #7, #368, #128 ) ) ;
#216 = CIRCLE ( 'NONE', #309, 3.999999999999998224 ) ;
#217 = STYLED_ITEM ( 'NONE', ( #356 ), #201 ) ;
#218 = CIRCLE ( 'NONE', #343, 3.999999999999998224 ) ;
#219 = ORIENTED_EDGE ( 'NONE', *, *, #17, .T. ) ;
#220 = ORIENTED_EDGE ( 'NONE', *, *, #209, .T. ) ;
#221 = ADVANCED_FACE ( 'NONE', ( #275 ), #274, .T. ) ;
#222 = FILL_AREA_STYLE ('',( #140 ) ) ;
#223 = AXIS2_PLACEMENT_3D ( 'NONE', #81, #24, #56 ) ;
#224 = CARTESIAN_POINT ( 'NONE',  ( 0.000000000000000000, 0.5000000000000000000, 0.000000000000000000 ) ) ;
#225 = SURFACE_STYLE_USAGE ( .BOTH. , #312 ) ;
#226 = EDGE_CURVE ( 'NONE', #46, #351, #110, .T. ) ;
#227 = DIRECTION ( 'NONE',  ( -1.000000000000000000, 0.000000000000000000, 0.000000000000000000 ) ) ;
#228 = DIRECTION ( 'NONE',  ( 0.000000000000000000, -1.000000000000000000, -0.000000000000000000 ) ) ;
#229 = ORIENTED_EDGE ( 'NONE', *, *, #271, .F. ) ;
#230 =( NAMED_UNIT ( * ) SI_UNIT ( $, .STERADIAN. ) SOLID_ANGLE_UNIT ( ) );
#231 = STYLED_ITEM ( 'NONE', ( #156 ), #113 ) ;
#232 = TOROIDAL_SURFACE ( 'NONE', #322, 3.500000000000000000, 0.5000000000000000000 ) ;
#233 = DIRECTION ( 'NONE',  ( 0.000000000000000000, 0.000000000000000000, 1.000000000000000000 ) ) ;
#234 =( LENGTH_UNIT ( ) NAMED_UNIT ( * ) SI_UNIT ( .MILLI., .METRE. ) );
#235 = UNCERTAINTY_MEASURE_WITH_UNIT (LENGTH_MEASURE( 1.000000000000000082E-05 ), #39, 'distance_accuracy_value', 'NONE');
#236 = DIRECTION ( 'NONE',  ( -9.448620473410002383E-17, 1.000000000000000000, -0.000000000000000000 ) ) ;
#237 = ADVANCED_FACE ( 'NONE', ( #143 ), #25, .T. ) ;
#238 = CIRCLE ( 'NONE', #223, 4.000000000000000000 ) ;
#239 = MECHANICAL_DESIGN_GEOMETRIC_PRESENTATION_REPRESENTATION (  '', ( #217 ), #55 ) ;
#240 =( NAMED_UNIT ( * ) SI_UNIT ( $, .STERADIAN. ) SOLID_ANGLE_UNIT ( ) );
#241 = LINE ( 'NONE', #61, #295 ) ;
#242 = FACE_OUTER_BOUND ( 'NONE', #184, .T. ) ;
#243 = FILL_AREA_STYLE_COLOUR ( '', #303 ) ;
#244 = CARTESIAN_POINT ( 'NONE',  ( 4.898587196589412829E-16, 0.000000000000000000, 4.000000000000000000 ) ) ;
#245 = FILL_AREA_STYLE ('',( #243 ) ) ;
#246 = CARTESIAN_POINT ( 'NONE',  ( 4.286263797015736595E-16, 0.5000000000000000000, 3.500000000000000000 ) ) ;
#247 = ORIENTED_EDGE ( 'NONE', *, *, #258, .F. ) ;
#248 = EDGE_CURVE ( 'NONE', #352, #168, #161, .T. ) ;
#249 = FILL_AREA_STYLE_COLOUR ( '', #40 ) ;
#250 = ORIENTED_EDGE ( 'NONE', *, *, #286, .F. ) ;
#251 = ORIENTED_EDGE ( 'NONE', *, *, #75, .T. ) ;
#252 = SURFACE_SIDE_STYLE ('',( #357 ) ) ;
#253 = AXIS2_PLACEMENT_3D ( 'NONE', #149, #3, #124 ) ;
#254 = DIRECTION ( 'NONE',  ( -1.000000000000000000, 0.000000000000000000, 0.000000000000000000 ) ) ;
#255 = VECTOR ( 'NONE', #347, 1000.000000000000000 ) ;
#256 = FILL_AREA_STYLE ('',( #85 ) ) ;
#257 = DIRECTION ( 'NONE',  ( -9.448620473410002383E-17, 1.000000000000000000, -0.000000000000000000 ) ) ;
#258 = EDGE_CURVE ( 'NONE', #67, #46, #167, .T. ) ;
#259 = DIRECTION ( 'NONE',  ( -1.000000000000000000, -9.448620473410002383E-17, 0.000000000000000000 ) ) ;
#260 =( GEOMETRIC_REPRESENTATION_CONTEXT ( 3 ) GLOBAL_UNCERTAINTY_ASSIGNED_CONTEXT ( ( #151 ) ) GLOBAL_UNIT_ASSIGNED_CONTEXT ( ( #355, #112, #72 ) ) REPRESENTATION_CONTEXT ( 'NONE', 'WORKASPACE' ) );
#261 = AXIS2_PLACEMENT_3D ( 'NONE', #118, #233, #338 ) ;
#262 = ADVANCED_FACE ( 'NONE', ( #157 ), #91, .F. ) ;
#263 = DIRECTION ( 'NONE',  ( 0.000000000000000000, 0.000000000000000000, -1.000000000000000000 ) ) ;
#264 =( NAMED_UNIT ( * ) SI_UNIT ( $, .STERADIAN. ) SOLID_ANGLE_UNIT ( ) );
#265 = STYLED_ITEM ( 'NONE', ( #162 ), #119 ) ;
#266 = EDGE_CURVE ( 'NONE', #46, #67, #366, .T. ) ;
#267 = CARTESIAN_POINT ( 'NONE',  ( 6.288372600415925717E-15, 12.00000000000000000, 0.000000000000000000 ) ) ;
#268 = EDGE_LOOP ( 'NONE', ( #250, #141, #306, #229 ) ) ;
#269 = AXIS2_PLACEMENT_3D ( 'NONE', #109, #307, #198 ) ;
#270 = CARTESIAN_POINT ( 'NONE',  ( 6.288372600415924928E-15, 11.99999999999999645, 0.000000000000000000 ) ) ;
#271 = EDGE_CURVE ( 'NONE', #330, #78, #6, .T. ) ;
#272 = FACE_OUTER_BOUND ( 'NONE', #299, .T. ) ;
#273 = STYLED_ITEM ( 'NONE', ( #300 ), #172 ) ;
#274 = TOROIDAL_SURFACE ( 'NONE', #287, 3.500000000000000000, 0.5000000000000000000 ) ;
#275 = FACE_OUTER_BOUND ( 'NONE', #179, .T. ) ;
#276 = AXIS2_PLACEMENT_3D ( 'NONE', #208, #122, #132 ) ;
#277 = SURFACE_STYLE_FILL_AREA ( #194 ) ;
#278 = DIRECTION ( 'NONE',  ( -0.000000000000000000, -1.000000000000000000, -0.000000000000000000 ) ) ;
#279 = MECHANICAL_DESIGN_GEOMETRIC_PRESENTATION_REPRESENTATION (  '', ( #273 ), #138 ) ;
#280 =( GEOMETRIC_REPRESENTATION_CONTEXT ( 3 ) GLOBAL_UNCERTAINTY_ASSIGNED_CONTEXT ( ( #192 ) ) GLOBAL_UNIT_ASSIGNED_CONTEXT ( ( #234, #181, #158 ) ) REPRESENTATION_CONTEXT ( 'NONE', 'WORKASPACE' ) );
#281 = FACE_OUTER_BOUND ( 'NONE', #215, .T. ) ;
#282 = EDGE_CURVE ( 'NONE', #164, #78, #241, .T. ) ;
#283 = SURFACE_STYLE_USAGE ( .BOTH. , #47 ) ;
#284 = EDGE_LOOP ( 'NONE', ( #251, #135, #291, #308 ) ) ;
#285 = DIRECTION ( 'NONE',  ( -0.000000000000000000, -1.000000000000000000, -0.000000000000000000 ) ) ;
#286 = EDGE_CURVE ( 'NONE', #214, #330, #9, .T. ) ;
#287 = AXIS2_PLACEMENT_3D ( 'NONE', #121, #278, #337 ) ;
#288 =( NAMED_UNIT ( * ) SI_UNIT ( $, .STERADIAN. ) SOLID_ANGLE_UNIT ( ) );
#289 =( NAMED_UNIT ( * ) PLANE_ANGLE_UNIT ( ) SI_UNIT ( $, .RADIAN. ) );
#290 = CARTESIAN_POINT ( 'NONE',  ( 0.000000000000000000, 0.5000000000000000000, 0.000000000000000000 ) ) ;
#291 = ORIENTED_EDGE ( 'NONE', *, *, #17, .F. ) ;
#292 = PRESENTATION_LAYER_ASSIGNMENT (  '', '', ( #217 ) ) ;
#293 = ORIENTED_EDGE ( 'NONE', *, *, #209, .F. ) ;
#294 = MANIFOLD_SOLID_BREP ( 'Revolve - Cutting Edge', #54 ) ;
#295 = VECTOR ( 'NONE', #344, 1000.000000000000000 ) ;
#296 = CARTESIAN_POINT ( 'NONE',  ( -3.999999999999994671, 63.00000000000000000, 0.000000000000000000 ) ) ;
#297 = CARTESIAN_POINT ( 'NONE',  ( 1.469576158976823750E-15, 63.00000000000000000, 0.000000000000000000 ) ) ;
#298 = DIRECTION ( 'NONE',  ( 0.000000000000000000, 0.000000000000000000, -1.000000000000000000 ) ) ;
#299 = EDGE_LOOP ( 'NONE', ( #95, #18, #326, #101 ) ) ;
#300 = PRESENTATION_STYLE_ASSIGNMENT (( #323 ) ) ;
#301 = AXIS2_PLACEMENT_3D ( 'NONE', #159, #285, #369 ) ;
#302 = DIRECTION ( 'NONE',  ( -0.000000000000000000, -1.000000000000000000, -0.000000000000000000 ) ) ;
#303 = COLOUR_RGB ( '',0.7921568627450980005, 0.8196078431372548767, 0.9333333333333333481 ) ;
#304 = EDGE_LOOP ( 'NONE', ( #30, #197 ) ) ;
#305 = CARTESIAN_POINT ( 'NONE',  ( 4.898587196589412829E-16, 12.00000000000000000, 4.000000000000000000 ) ) ;
#306 = ORIENTED_EDGE ( 'NONE', *, *, #282, .T. ) ;
#307 = DIRECTION ( 'NONE',  ( 0.000000000000000000, 1.000000000000000000, 0.000000000000000000 ) ) ;
#308 = ORIENTED_EDGE ( 'NONE', *, *, #282, .F. ) ;
#309 = AXIS2_PLACEMENT_3D ( 'NONE', #114, #316, #52 ) ;
#310 = SURFACE_STYLE_FILL_AREA ( #120 ) ;
#311 = PRESENTATION_STYLE_ASSIGNMENT (( #225 ) ) ;
#312 = SURFACE_SIDE_STYLE ('',( #361 ) ) ;
#313 =( LENGTH_UNIT ( ) NAMED_UNIT ( * ) SI_UNIT ( .MILLI., .METRE. ) );
#314 = CARTESIAN_POINT ( 'NONE',  ( 4.592425496802573972E-16, 0.000000000000000000, 3.500000000000000000 ) ) ;
#315 = ORIENTED_EDGE ( 'NONE', *, *, #248, .T. ) ;
#316 = DIRECTION ( 'NONE',  ( -9.448620473410002383E-17, 1.000000000000000000, -0.000000000000000000 ) ) ;
#317 = CARTESIAN_POINT ( 'NONE',  ( 3.999999999999998224, 63.00000000000000000, 4.898587196589408884E-16 ) ) ;
#318 = PRESENTATION_LAYER_ASSIGNMENT (  '', '', ( #196 ) ) ;
#319 = CARTESIAN_POINT ( 'NONE',  ( 0.000000000000000000, 0.5000000000000000000, -4.000000000000000000 ) ) ;
#320 = ORIENTED_EDGE ( 'NONE', *, *, #183, .T. ) ;
#321 = PRODUCT ( '59698', '59698', '', ( #86 ) ) ;
#322 = AXIS2_PLACEMENT_3D ( 'NONE', #224, #76, #43 ) ;
#323 = SURFACE_STYLE_USAGE ( .BOTH. , #71 ) ;
#324 = AXIS2_PLACEMENT_3D ( 'NONE', #4, #19, #111 ) ;
#325 = STYLED_ITEM ( 'NONE', ( #129 ), #294 ) ;
#326 = ORIENTED_EDGE ( 'NONE', *, *, #327, .F. ) ;
#327 = EDGE_CURVE ( 'NONE', #60, #351, #218, .T. ) ;
#328 = ORIENTED_EDGE ( 'NONE', *, *, #266, .F. ) ;
#329 = SURFACE_SIDE_STYLE ('',( #277 ) ) ;
#330 = VERTEX_POINT ( 'NONE', #29 ) ;
#331 = SURFACE_STYLE_USAGE ( .BOTH. , #252 ) ;
#332 = MECHANICAL_DESIGN_GEOMETRIC_PRESENTATION_REPRESENTATION (  '', ( #231 ), #134 ) ;
#333 =( NAMED_UNIT ( * ) PLANE_ANGLE_UNIT ( ) SI_UNIT ( $, .RADIAN. ) );
#334 = DIRECTION ( 'NONE',  ( 0.000000000000000000, 0.000000000000000000, -1.000000000000000000 ) ) ;
#335 = CIRCLE ( 'NONE', #324, 0.5000000000000000000 ) ;
#336 =( GEOMETRIC_REPRESENTATION_CONTEXT ( 3 ) GLOBAL_UNCERTAINTY_ASSIGNED_CONTEXT ( ( #94 ) ) GLOBAL_UNIT_ASSIGNED_CONTEXT ( ( #44, #333, #288 ) ) REPRESENTATION_CONTEXT ( 'NONE', 'WORKASPACE' ) );
#337 = DIRECTION ( 'NONE',  ( 0.000000000000000000, 0.000000000000000000, -1.000000000000000000 ) ) ;
#338 = DIRECTION ( 'NONE',  ( 1.000000000000000000, 0.000000000000000000, 0.000000000000000000 ) ) ;
#339 = FILL_AREA_STYLE_COLOUR ( '', #63 ) ;
#340 = CARTESIAN_POINT ( 'NONE',  ( 0.000000000000000000, 12.00000000000000000, 0.000000000000000000 ) ) ;
#341 = CARTESIAN_POINT ( 'NONE',  ( 0.000000000000000000, 0.000000000000000000, 0.000000000000000000 ) ) ;
#342 = COLOUR_RGB ( '',1.000000000000000000, 0.000000000000000000, 0.000000000000000000 ) ;
#343 = AXIS2_PLACEMENT_3D ( 'NONE', #297, #37, #254 ) ;
#344 = DIRECTION ( 'NONE',  ( -0.000000000000000000, -1.000000000000000000, -0.000000000000000000 ) ) ;
#345 = DIRECTION ( 'NONE',  ( 0.000000000000000000, 0.000000000000000000, -1.000000000000000000 ) ) ;
#346 =( NAMED_UNIT ( * ) PLANE_ANGLE_UNIT ( ) SI_UNIT ( $, .RADIAN. ) );
#347 = DIRECTION ( 'NONE',  ( -0.000000000000000000, -1.000000000000000000, -0.000000000000000000 ) ) ;
#348 = AXIS2_PLACEMENT_3D ( 'NONE', #185, #364, #83 ) ;
#349 = DIRECTION ( 'NONE',  ( 1.000000000000000000, 0.000000000000000000, -1.224646799147353207E-16 ) ) ;
#350 = APPLICATION_CONTEXT ( 'automotive_design' ) ;
#351 = VERTEX_POINT ( 'NONE', #360 ) ;
#352 = VERTEX_POINT ( 'NONE', #314 ) ;
#353 = CARTESIAN_POINT ( 'NONE',  ( 0.000000000000000000, 0.000000000000000000, -3.500000000000000000 ) ) ;
#354 = ORIENTED_EDGE ( 'NONE', *, *, #248, .F. ) ;
#355 =( LENGTH_UNIT ( ) NAMED_UNIT ( * ) SI_UNIT ( .MILLI., .METRE. ) );
#356 = PRESENTATION_STYLE_ASSIGNMENT (( #142 ) ) ;
#357 = SURFACE_STYLE_FILL_AREA ( #199 ) ;
#358 =( LENGTH_UNIT ( ) NAMED_UNIT ( * ) SI_UNIT ( .MILLI., .METRE. ) );
#359 = PRESENTATION_STYLE_ASSIGNMENT (( #331 ) ) ;
#360 = CARTESIAN_POINT ( 'NONE',  ( 4.000000000000000000, 63.00000000000000000, 4.898587196589409870E-16 ) ) ;
#361 = SURFACE_STYLE_FILL_AREA ( #256 ) ;
#362 = CARTESIAN_POINT ( 'NONE',  ( 0.000000000000000000, 0.000000000000000000, 0.000000000000000000 ) ) ;
#363 = APPLICATION_PROTOCOL_DEFINITION ( 'draft international standard', 'automotive_design', 1998, #38 ) ;
#364 = DIRECTION ( 'NONE',  ( -9.448620473410002383E-17, 1.000000000000000000, -0.000000000000000000 ) ) ;
#365 = PRESENTATION_LAYER_ASSIGNMENT (  '', '', ( #265 ) ) ;
#366 = CIRCLE ( 'NONE', #213, 3.999999999999993339 ) ;
#367 = UNCERTAINTY_MEASURE_WITH_UNIT (LENGTH_MEASURE( 1.000000000000000082E-05 ), #313, 'distance_accuracy_value', 'NONE');
#368 = ORIENTED_EDGE ( 'NONE', *, *, #193, .T. ) ;
#369 = DIRECTION ( 'NONE',  ( 0.000000000000000000, 0.000000000000000000, -1.000000000000000000 ) ) ;
#370 = DIRECTION ( 'NONE',  ( 0.000000000000000000, 0.000000000000000000, -1.000000000000000000 ) ) ;
ENDSEC;
END-ISO-10303-21;
