ISO-10303-21;
HEADER;
FILE_DESCRIPTION (( 'STEP AP214' ),
    '1' );
FILE_NAME ('Micro_AEMM-025-3.STEP',
    '2022-03-15T14:23:40',
    ( '' ),
    ( '' ),
    'SwSTEP 2.0',
    'SolidWorks 2022',
    '' );
FILE_SCHEMA (( 'AUTOMOTIVE_DESIGN' ));
ENDSEC;

DATA;
#1 = DIRECTION ( 'NONE',  ( -1.224646799147353207E-16, -0.000000000000000000, -1.000000000000000000 ) ) ;
#2 = DIRECTION ( 'NONE',  ( -1.000000000000000000, 0.000000000000000000, 1.224646799147353207E-16 ) ) ;
#3 = AXIS2_PLACEMENT_3D ( 'NONE', #155, #38, #229 ) ;
#4 = VERTEX_POINT ( 'NONE', #123 ) ;
#5 = ORIENTED_EDGE ( 'NONE', *, *, #121, .F. ) ;
#6 = ORIENTED_EDGE ( 'NONE', *, *, #159, .F. ) ;
#7 = ADVANCED_FACE ( 'NONE', ( #244 ), #56, .T. ) ;
#8 = AXIS2_PLACEMENT_3D ( 'NONE', #206, #67, #95 ) ;
#9 = CONICAL_SURFACE ( 'NONE', #44, 0.04916328750000000664, 0.1745329251994338360 ) ;
#10 = EDGE_LOOP ( 'NONE', ( #173, #199, #97, #99 ) ) ;
#11 = EDGE_LOOP ( 'NONE', ( #51, #81, #120, #147 ) ) ;
#12 = DIRECTION ( 'NONE',  ( -1.224646799147353207E-16, -0.000000000000000000, -1.000000000000000000 ) ) ;
#13 = CARTESIAN_POINT ( 'NONE',  ( -0.04916328750000000664, 0.000000000000000000, 6.020766267243608331E-18 ) ) ;
#14 = DIRECTION ( 'NONE',  ( 0.000000000000000000, 0.000000000000000000, 1.000000000000000000 ) ) ;
#15 = CONICAL_SURFACE ( 'NONE', #52, 0.04916328750000000664, 0.1745329251994338360 ) ;
#16 = DIRECTION ( 'NONE',  ( 1.000000000000000000, 0.000000000000000000, 0.000000000000000000 ) ) ;
#17 = UNCERTAINTY_MEASURE_WITH_UNIT (LENGTH_MEASURE( 1.000000000000000082E-05 ), #167, 'distance_accuracy_value', 'NONE');
#18 = DIRECTION ( 'NONE',  ( -0.000000000000000000, -0.000000000000000000, -1.000000000000000000 ) ) ;
#19 = DIRECTION ( 'NONE',  ( 0.1736481776669313304, 0.000000000000000000, 0.9848077530122077983 ) ) ;
#20 = STYLED_ITEM ( 'NONE', ( #90 ), #189 ) ;
#21 = SHAPE_DEFINITION_REPRESENTATION ( #88, #96 ) ;
#22 = CYLINDRICAL_SURFACE ( 'NONE', #58, 0.04916328750000000664 ) ;
#23 = PRESENTATION_STYLE_ASSIGNMENT (( #256 ) ) ;
#24 = DIRECTION ( 'NONE',  ( -1.224646799147353207E-16, -0.000000000000000000, -1.000000000000000000 ) ) ;
#25 = CARTESIAN_POINT ( 'NONE',  ( -0.07874000000000000443, 0.000000000000000000, 1.968503999999999809 ) ) ;
#26 = CIRCLE ( 'NONE', #273, 0.04916328750000000664 ) ;
#27 = CARTESIAN_POINT ( 'NONE',  ( 0.000000000000000000, 0.000000000000000000, 1.968503999999999809 ) ) ;
#28 = DIMENSIONAL_EXPONENTS ( 1.000000000000000000, 0.000000000000000000, 0.000000000000000000, 0.000000000000000000, 0.000000000000000000, 0.000000000000000000, 0.000000000000000000 ) ;
#29 = ORIENTED_EDGE ( 'NONE', *, *, #46, .F. ) ;
#30 = COLOUR_RGB ( '',0.7921568627450980005, 0.8196078431372548767, 0.9333333333333333481 ) ;
#31 = EDGE_LOOP ( 'NONE', ( #75, #170, #78, #54 ) ) ;
#32 = ORIENTED_EDGE ( 'NONE', *, *, #270, .T. ) ;
#33 = EDGE_CURVE ( 'NONE', #220, #217, #161, .T. ) ;
#34 = VERTEX_POINT ( 'NONE', #249 ) ;
#35 = AXIS2_PLACEMENT_3D ( 'NONE', #86, #266, #289 ) ;
#36 = ORIENTED_EDGE ( 'NONE', *, *, #179, .T. ) ;
#37 = CARTESIAN_POINT ( 'NONE',  ( 4.947057147947202128E-17, 0.000000000000000000, 0.4039578718853090167 ) ) ;
#38 = DIRECTION ( 'NONE',  ( 0.000000000000000000, 0.000000000000000000, 1.000000000000000000 ) ) ;
#39 = CARTESIAN_POINT ( 'NONE',  ( 7.373312137594241536E-34, 0.000000000000000000, 6.020766267243607560E-18 ) ) ;
#40 = DIRECTION ( 'NONE',  ( -0.000000000000000000, -0.000000000000000000, -1.000000000000000000 ) ) ;
#41 = LINE ( 'NONE', #80, #203 ) ;
#42 = DIRECTION ( 'NONE',  ( 1.000000000000000000, 0.000000000000000000, 0.000000000000000000 ) ) ;
#43 = AXIS2_PLACEMENT_3D ( 'NONE', #126, #222, #242 ) ;
#44 = AXIS2_PLACEMENT_3D ( 'NONE', #103, #131, #16 ) ;
#45 = SURFACE_SIDE_STYLE ('',( #68 ) ) ;
#46 = EDGE_CURVE ( 'NONE', #176, #4, #185, .T. ) ;
#47 = CYLINDRICAL_SURFACE ( 'NONE', #177, 0.04916328750000000664 ) ;
#48 = VECTOR ( 'NONE', #18, 39.37007874015748143 ) ;
#49 = MECHANICAL_DESIGN_GEOMETRIC_PRESENTATION_REPRESENTATION (  '', ( #76 ), #221 ) ;
#50 = SURFACE_STYLE_FILL_AREA ( #281 ) ;
#51 = ORIENTED_EDGE ( 'NONE', *, *, #113, .F. ) ;
#52 = AXIS2_PLACEMENT_3D ( 'NONE', #84, #154, #271 ) ;
#53 = EDGE_CURVE ( 'NONE', #118, #146, #207, .T. ) ;
#54 = ORIENTED_EDGE ( 'NONE', *, *, #293, .F. ) ;
#55 = ORIENTED_EDGE ( 'NONE', *, *, #275, .F. ) ;
#56 = PLANE ( 'NONE',  #43 ) ;
#57 = LINE ( 'NONE', #127, #192 ) ;
#58 = AXIS2_PLACEMENT_3D ( 'NONE', #116, #188, #135 ) ;
#59 = CIRCLE ( 'NONE', #77, 0.04916328749999999276 ) ;
#60 = DIRECTION ( 'NONE',  ( 1.000000000000000000, 0.000000000000000000, 0.000000000000000000 ) ) ;
#61 = EDGE_CURVE ( 'NONE', #174, #100, #168, .T. ) ;
#62 = FACE_OUTER_BOUND ( 'NONE', #283, .T. ) ;
#63 = DIRECTION ( 'NONE',  ( -1.000000000000000000, 0.000000000000000000, 0.000000000000000000 ) ) ;
#64 = CARTESIAN_POINT ( 'NONE',  ( 4.947057147947202128E-17, 0.000000000000000000, 0.4039578718853090167 ) ) ;
#65 = VECTOR ( 'NONE', #212, 39.37007874015748143 ) ;
#66 = AXIS2_PLACEMENT_3D ( 'NONE', #164, #257, #299 ) ;
#67 = DIRECTION ( 'NONE',  ( 0.000000000000000000, 0.000000000000000000, -1.000000000000000000 ) ) ;
#68 = SURFACE_STYLE_FILL_AREA ( #183 ) ;
#69 = CYLINDRICAL_SURFACE ( 'NONE', #66, 0.07874000000000000443 ) ;
#70 = FACE_OUTER_BOUND ( 'NONE', #261, .T. ) ;
#71 =( LENGTH_UNIT ( ) NAMED_UNIT ( * ) SI_UNIT ( $, .METRE. ) );
#72 = ADVANCED_FACE ( 'NONE', ( #292 ), #15, .T. ) ;
#73 = ORIENTED_EDGE ( 'NONE', *, *, #270, .F. ) ;
#74 = DIRECTION ( 'NONE',  ( 0.000000000000000000, 0.000000000000000000, -1.000000000000000000 ) ) ;
#75 = ORIENTED_EDGE ( 'NONE', *, *, #53, .F. ) ;
#76 = STYLED_ITEM ( 'NONE', ( #23 ), #96 ) ;
#77 = AXIS2_PLACEMENT_3D ( 'NONE', #175, #12, #269 ) ;
#78 = ORIENTED_EDGE ( 'NONE', *, *, #151, .F. ) ;
#79 = ORIENTED_EDGE ( 'NONE', *, *, #121, .T. ) ;
#80 = CARTESIAN_POINT ( 'NONE',  ( -0.06374000000000018540, 0.000000000000000000, 1.968503999999999809 ) ) ;
#81 = ORIENTED_EDGE ( 'NONE', *, *, #33, .T. ) ;
#82 = EDGE_CURVE ( 'NONE', #4, #176, #285, .T. ) ;
#83 = FACE_OUTER_BOUND ( 'NONE', #150, .T. ) ;
#84 = CARTESIAN_POINT ( 'NONE',  ( 2.892860668945878169E-17, 0.000000000000000000, 0.2362200000000000133 ) ) ;
#85 = PRODUCT ( 'Micro_AEMM-025-3', 'Micro_AEMM-025-3', '', ( #231 ) ) ;
#86 = CARTESIAN_POINT ( 'NONE',  ( 2.892860668945878169E-17, 0.000000000000000000, 0.2362200000000000133 ) ) ;
#87 = DIRECTION ( 'NONE',  ( -1.000000000000000000, 0.000000000000000000, 0.000000000000000000 ) ) ;
#88 = PRODUCT_DEFINITION_SHAPE ( 'NONE', 'NONE',  #259 ) ;
#89 = PRODUCT_DEFINITION_FORMATION_WITH_SPECIFIED_SOURCE ( 'ANY', '', #85, .NOT_KNOWN. ) ;
#90 = PRESENTATION_STYLE_ASSIGNMENT (( #296 ) ) ;
#91 = ADVANCED_FACE ( 'NONE', ( #83 ), #291, .T. ) ;
#92 = AXIS2_PLACEMENT_3D ( 'NONE', #64, #157, #60 ) ;
#93 = CARTESIAN_POINT ( 'NONE',  ( -0.07874000000000000443, 0.000000000000000000, 1.953504000000000129 ) ) ;
#94 = DIRECTION ( 'NONE',  ( 0.000000000000000000, 0.000000000000000000, -1.000000000000000000 ) ) ;
#95 = DIRECTION ( 'NONE',  ( -1.000000000000000000, 0.000000000000000000, 0.000000000000000000 ) ) ;
#96 = ADVANCED_BREP_SHAPE_REPRESENTATION ( 'Micro_AEMM-025-3', ( #189, #216 ), #136 ) ;
#97 = ORIENTED_EDGE ( 'NONE', *, *, #223, .T. ) ;
#98 = EDGE_LOOP ( 'NONE', ( #36, #149 ) ) ;
#99 = ORIENTED_EDGE ( 'NONE', *, *, #82, .T. ) ;
#100 = VERTEX_POINT ( 'NONE', #224 ) ;
#101 = PRODUCT_RELATED_PRODUCT_CATEGORY ( 'part', '', ( #85 ) ) ;
#102 = EDGE_LOOP ( 'NONE', ( #6, #240, #79, #73 ) ) ;
#103 = CARTESIAN_POINT ( 'NONE',  ( 2.892860668945878169E-17, 0.000000000000000000, 0.2362200000000000133 ) ) ;
#104 = DIRECTION ( 'NONE',  ( -1.224646799147353207E-16, -0.000000000000000000, -1.000000000000000000 ) ) ;
#105 = UNCERTAINTY_MEASURE_WITH_UNIT (LENGTH_MEASURE( 1.000000000000000082E-05 ), #182, 'distance_accuracy_value', 'NONE');
#106 = DIRECTION ( 'NONE',  ( 1.000000000000000000, 0.000000000000000000, 0.000000000000000000 ) ) ;
#107 = EDGE_CURVE ( 'NONE', #198, #34, #26, .T. ) ;
#108 =( NAMED_UNIT ( * ) PLANE_ANGLE_UNIT ( ) SI_UNIT ( $, .RADIAN. ) );
#109 = CARTESIAN_POINT ( 'NONE',  ( 0.06374000000000018540, 8.724383797125754882E-18, 1.968503999999999809 ) ) ;
#110 = PLANE ( 'NONE',  #3 ) ;
#111 = AXIS2_PLACEMENT_3D ( 'NONE', #214, #94, #112 ) ;
#112 = DIRECTION ( 'NONE',  ( 1.000000000000000000, 0.000000000000000000, 0.000000000000000000 ) ) ;
#113 = EDGE_CURVE ( 'NONE', #220, #4, #230, .T. ) ;
#114 = LENGTH_MEASURE_WITH_UNIT ( LENGTH_MEASURE( 0.02539999999999999897 ), #71 );
#115 = MECHANICAL_DESIGN_GEOMETRIC_PRESENTATION_REPRESENTATION (  '', ( #20 ), #251 ) ;
#116 = CARTESIAN_POINT ( 'NONE',  ( 0.000000000000000000, 0.000000000000000000, 0.000000000000000000 ) ) ;
#117 = APPLICATION_CONTEXT ( 'automotive_design' ) ;
#118 = VERTEX_POINT ( 'NONE', #109 ) ;
#119 = VECTOR ( 'NONE', #297, 39.37007874015748854 ) ;
#120 = ORIENTED_EDGE ( 'NONE', *, *, #140, .T. ) ;
#121 = EDGE_CURVE ( 'NONE', #34, #174, #128, .T. ) ;
#122 = DIRECTION ( 'NONE',  ( 1.000000000000000000, 0.000000000000000000, 0.000000000000000000 ) ) ;
#123 = CARTESIAN_POINT ( 'NONE',  ( 0.07874000000000004607, 9.642868896486264672E-18, 0.4039578718853090167 ) ) ;
#124 = AXIS2_PLACEMENT_3D ( 'NONE', #279, #160, #253 ) ;
#125 = ADVANCED_FACE ( 'NONE', ( #201 ), #142, .T. ) ;
#126 = CARTESIAN_POINT ( 'NONE',  ( 0.000000000000000000, 0.000000000000000000, 1.968503999999999809 ) ) ;
#127 = CARTESIAN_POINT ( 'NONE',  ( 0.04916328750000002745, 0.000000000000000000, 0.2362200000000000133 ) ) ;
#128 = LINE ( 'NONE', #13, #197 ) ;
#129 = DIRECTION ( 'NONE',  ( -0.7071067811865502373, 0.000000000000000000, -0.7071067811865446862 ) ) ;
#130 = CARTESIAN_POINT ( 'NONE',  ( 0.07874000000000000443, 9.642868896486258509E-18, 1.968503999999999809 ) ) ;
#131 = DIRECTION ( 'NONE',  ( 1.224646799147353207E-16, 0.000000000000000000, 1.000000000000000000 ) ) ;
#132 = PRODUCT_DEFINITION_CONTEXT ( 'detailed design', #117, 'design' ) ;
#133 = DIRECTION ( 'NONE',  ( -1.000000000000000000, 0.000000000000000000, 0.000000000000000000 ) ) ;
#134 = APPLICATION_PROTOCOL_DEFINITION ( 'draft international standard', 'automotive_design', 1998, #213 ) ;
#135 = DIRECTION ( 'NONE',  ( -1.000000000000000000, 0.000000000000000000, 1.224646799147353207E-16 ) ) ;
#136 =( GEOMETRIC_REPRESENTATION_CONTEXT ( 3 ) GLOBAL_UNCERTAINTY_ASSIGNED_CONTEXT ( ( #226 ) ) GLOBAL_UNIT_ASSIGNED_CONTEXT ( ( #200, #108, #205 ) ) REPRESENTATION_CONTEXT ( 'NONE', 'WORKASPACE' ) );
#137 = LENGTH_MEASURE_WITH_UNIT ( LENGTH_MEASURE( 0.02539999999999999897 ), #295 );
#138 = CARTESIAN_POINT ( 'NONE',  ( 0.06374000000000018540, 7.805898697765251255E-18, 1.968503999999999809 ) ) ;
#139 = FACE_OUTER_BOUND ( 'NONE', #11, .T. ) ;
#140 = EDGE_CURVE ( 'NONE', #217, #176, #191, .T. ) ;
#141 = FACE_OUTER_BOUND ( 'NONE', #264, .T. ) ;
#142 = CONICAL_SURFACE ( 'NONE', #8, 0.06374000000000018540, 0.7853981633974522758 ) ;
#143 = VECTOR ( 'NONE', #162, 39.37007874015747433 ) ;
#144 =( NAMED_UNIT ( * ) SI_UNIT ( $, .STERADIAN. ) SOLID_ANGLE_UNIT ( ) );
#145 = DIMENSIONAL_EXPONENTS ( 1.000000000000000000, 0.000000000000000000, 0.000000000000000000, 0.000000000000000000, 0.000000000000000000, 0.000000000000000000, 0.000000000000000000 ) ;
#146 = VERTEX_POINT ( 'NONE', #233 ) ;
#147 = ORIENTED_EDGE ( 'NONE', *, *, #82, .F. ) ;
#148 = AXIS2_PLACEMENT_3D ( 'NONE', #39, #204, #180 ) ;
#149 = ORIENTED_EDGE ( 'NONE', *, *, #53, .T. ) ;
#150 = EDGE_LOOP ( 'NONE', ( #196, #195, #29, #219 ) ) ;
#151 = EDGE_CURVE ( 'NONE', #217, #220, #245, .T. ) ;
#152 = ORIENTED_EDGE ( 'NONE', *, *, #293, .T. ) ;
#153 = VECTOR ( 'NONE', #1, 39.37007874015748143 ) ;
#154 = DIRECTION ( 'NONE',  ( 1.224646799147353207E-16, 0.000000000000000000, 1.000000000000000000 ) ) ;
#155 = CARTESIAN_POINT ( 'NONE',  ( 0.000000000000000000, 0.000000000000000000, 0.000000000000000000 ) ) ;
#156 = DIRECTION ( 'NONE',  ( -1.224646799147353207E-16, -0.000000000000000000, -1.000000000000000000 ) ) ;
#157 = DIRECTION ( 'NONE',  ( -1.224646799147353207E-16, -0.000000000000000000, -1.000000000000000000 ) ) ;
#158 = AXIS2_PLACEMENT_3D ( 'NONE', #250, #40, #133 ) ;
#159 = EDGE_CURVE ( 'NONE', #198, #100, #235, .T. ) ;
#160 = DIRECTION ( 'NONE',  ( 0.000000000000000000, 0.000000000000000000, 1.000000000000000000 ) ) ;
#161 = CIRCLE ( 'NONE', #239, 0.07874000000000000443 ) ;
#162 = DIRECTION ( 'NONE',  ( -0.1736481776669311639, 2.126576849575782392E-17, 0.9848077530122080203 ) ) ;
#163 =( NAMED_UNIT ( * ) PLANE_ANGLE_UNIT ( ) SI_UNIT ( $, .RADIAN. ) );
#164 = CARTESIAN_POINT ( 'NONE',  ( 0.000000000000000000, 0.000000000000000000, 1.968503999999999809 ) ) ;
#165 = ADVANCED_FACE ( 'NONE', ( #258 ), #22, .T. ) ;
#166 = CARTESIAN_POINT ( 'NONE',  ( 0.04916328750000000664, 6.020766267243608331E-18, -6.020766267243608331E-18 ) ) ;
#167 =( CONVERSION_BASED_UNIT ( 'INCH', #114 ) LENGTH_UNIT ( ) NAMED_UNIT ( #28 ) );
#168 = CIRCLE ( 'NONE', #148, 0.04916328749999999276 ) ;
#169 = ADVANCED_FACE ( 'NONE', ( #141 ), #47, .T. ) ;
#170 = ORIENTED_EDGE ( 'NONE', *, *, #193, .T. ) ;
#171 = ORIENTED_EDGE ( 'NONE', *, *, #61, .F. ) ;
#172 = EDGE_CURVE ( 'NONE', #34, #176, #211, .T. ) ;
#173 = ORIENTED_EDGE ( 'NONE', *, *, #172, .F. ) ;
#174 = VERTEX_POINT ( 'NONE', #190 ) ;
#175 = CARTESIAN_POINT ( 'NONE',  ( 7.373312137594241536E-34, 0.000000000000000000, 6.020766267243607560E-18 ) ) ;
#176 = VERTEX_POINT ( 'NONE', #282 ) ;
#177 = AXIS2_PLACEMENT_3D ( 'NONE', #209, #24, #2 ) ;
#178 = CARTESIAN_POINT ( 'NONE',  ( 2.892860668945878169E-17, 0.000000000000000000, 0.2362200000000000133 ) ) ;
#179 = EDGE_CURVE ( 'NONE', #146, #118, #187, .T. ) ;
#180 = DIRECTION ( 'NONE',  ( -1.000000000000000000, 0.000000000000000000, 1.224646799147353207E-16 ) ) ;
#181 = AXIS2_PLACEMENT_3D ( 'NONE', #247, #14, #227 ) ;
#182 =( CONVERSION_BASED_UNIT ( 'INCH', #137 ) LENGTH_UNIT ( ) NAMED_UNIT ( #237 ) );
#183 = FILL_AREA_STYLE ('',( #234 ) ) ;
#184 = CARTESIAN_POINT ( 'NONE',  ( 0.000000000000000000, 0.000000000000000000, 0.000000000000000000 ) ) ;
#185 = CIRCLE ( 'NONE', #277, 0.07874000000000000443 ) ;
#186 = CARTESIAN_POINT ( 'NONE',  ( 0.04916328750000002745, 0.000000000000000000, 0.2362200000000000133 ) ) ;
#187 = CIRCLE ( 'NONE', #124, 0.06374000000000018540 ) ;
#188 = DIRECTION ( 'NONE',  ( -1.224646799147353207E-16, -0.000000000000000000, -1.000000000000000000 ) ) ;
#189 = MANIFOLD_SOLID_BREP ( 'Cut-Revolve1', #294 ) ;
#190 = CARTESIAN_POINT ( 'NONE',  ( -0.04916328749999999276, 0.000000000000000000, 1.204153253448721512E-17 ) ) ;
#191 = LINE ( 'NONE', #25, #65 ) ;
#192 = VECTOR ( 'NONE', #19, 39.37007874015748143 ) ;
#193 = EDGE_CURVE ( 'NONE', #118, #220, #210, .T. ) ;
#194 = ORIENTED_EDGE ( 'NONE', *, *, #159, .T. ) ;
#195 = ORIENTED_EDGE ( 'NONE', *, *, #113, .T. ) ;
#196 = ORIENTED_EDGE ( 'NONE', *, *, #151, .T. ) ;
#197 = VECTOR ( 'NONE', #104, 39.37007874015748143 ) ;
#198 = VERTEX_POINT ( 'NONE', #186 ) ;
#199 = ORIENTED_EDGE ( 'NONE', *, *, #107, .F. ) ;
#200 =( CONVERSION_BASED_UNIT ( 'INCH', #274 ) LENGTH_UNIT ( ) NAMED_UNIT ( #145 ) );
#201 = FACE_OUTER_BOUND ( 'NONE', #31, .T. ) ;
#202 = ADVANCED_FACE ( 'NONE', ( #139 ), #69, .T. ) ;
#203 = VECTOR ( 'NONE', #129, 39.37007874015748854 ) ;
#204 = DIRECTION ( 'NONE',  ( -1.224646799147353207E-16, -0.000000000000000000, -1.000000000000000000 ) ) ;
#205 =( NAMED_UNIT ( * ) SI_UNIT ( $, .STERADIAN. ) SOLID_ANGLE_UNIT ( ) );
#206 = CARTESIAN_POINT ( 'NONE',  ( 0.000000000000000000, 0.000000000000000000, 1.968503999999999809 ) ) ;
#207 = CIRCLE ( 'NONE', #181, 0.06374000000000018540 ) ;
#208 =( NAMED_UNIT ( * ) SI_UNIT ( $, .STERADIAN. ) SOLID_ANGLE_UNIT ( ) );
#209 = CARTESIAN_POINT ( 'NONE',  ( 0.000000000000000000, 0.000000000000000000, 0.000000000000000000 ) ) ;
#210 = LINE ( 'NONE', #138, #119 ) ;
#211 = LINE ( 'NONE', #276, #143 ) ;
#212 = DIRECTION ( 'NONE',  ( -0.000000000000000000, -0.000000000000000000, -1.000000000000000000 ) ) ;
#213 = APPLICATION_CONTEXT ( 'automotive_design' ) ;
#214 = CARTESIAN_POINT ( 'NONE',  ( 0.000000000000000000, 0.000000000000000000, 1.953504000000000129 ) ) ;
#215 = ORIENTED_EDGE ( 'NONE', *, *, #33, .F. ) ;
#216 = AXIS2_PLACEMENT_3D ( 'NONE', #184, #252, #42 ) ;
#217 = VERTEX_POINT ( 'NONE', #93 ) ;
#218 = ADVANCED_FACE ( 'NONE', ( #70 ), #228, .T. ) ;
#219 = ORIENTED_EDGE ( 'NONE', *, *, #140, .F. ) ;
#220 = VERTEX_POINT ( 'NONE', #248 ) ;
#221 =( GEOMETRIC_REPRESENTATION_CONTEXT ( 3 ) GLOBAL_UNCERTAINTY_ASSIGNED_CONTEXT ( ( #105 ) ) GLOBAL_UNIT_ASSIGNED_CONTEXT ( ( #182, #163, #208 ) ) REPRESENTATION_CONTEXT ( 'NONE', 'WORKASPACE' ) );
#222 = DIRECTION ( 'NONE',  ( 0.000000000000000000, 0.000000000000000000, 1.000000000000000000 ) ) ;
#223 = EDGE_CURVE ( 'NONE', #198, #4, #57, .T. ) ;
#224 = CARTESIAN_POINT ( 'NONE',  ( 0.04916328749999999276, 6.020766267243607560E-18, -9.478001694819074349E-34 ) ) ;
#225 =( LENGTH_UNIT ( ) NAMED_UNIT ( * ) SI_UNIT ( $, .METRE. ) );
#226 = UNCERTAINTY_MEASURE_WITH_UNIT (LENGTH_MEASURE( 1.000000000000000082E-05 ), #200, 'distance_accuracy_value', 'NONE');
#227 = DIRECTION ( 'NONE',  ( 1.000000000000000000, 0.000000000000000000, 0.000000000000000000 ) ) ;
#228 = CONICAL_SURFACE ( 'NONE', #241, 0.06374000000000018540, 0.7853981633974522758 ) ;
#229 = DIRECTION ( 'NONE',  ( 1.000000000000000000, 0.000000000000000000, -0.000000000000000000 ) ) ;
#230 = LINE ( 'NONE', #130, #48 ) ;
#231 = PRODUCT_CONTEXT ( 'NONE', #213, 'mechanical' ) ;
#232 = CIRCLE ( 'NONE', #35, 0.04916328750000000664 ) ;
#233 = CARTESIAN_POINT ( 'NONE',  ( -0.06374000000000018540, 0.000000000000000000, 1.968503999999999809 ) ) ;
#234 = FILL_AREA_STYLE_COLOUR ( '', #30 ) ;
#235 = LINE ( 'NONE', #166, #153 ) ;
#236 = FILL_AREA_STYLE_COLOUR ( '', #298 ) ;
#237 = DIMENSIONAL_EXPONENTS ( 1.000000000000000000, 0.000000000000000000, 0.000000000000000000, 0.000000000000000000, 0.000000000000000000, 0.000000000000000000, 0.000000000000000000 ) ;
#238 = ORIENTED_EDGE ( 'NONE', *, *, #223, .F. ) ;
#239 = AXIS2_PLACEMENT_3D ( 'NONE', #290, #74, #122 ) ;
#240 = ORIENTED_EDGE ( 'NONE', *, *, #107, .T. ) ;
#241 = AXIS2_PLACEMENT_3D ( 'NONE', #27, #246, #87 ) ;
#242 = DIRECTION ( 'NONE',  ( 1.000000000000000000, 0.000000000000000000, -0.000000000000000000 ) ) ;
#243 = ORIENTED_EDGE ( 'NONE', *, *, #179, .F. ) ;
#244 = FACE_OUTER_BOUND ( 'NONE', #98, .T. ) ;
#245 = CIRCLE ( 'NONE', #111, 0.07874000000000000443 ) ;
#246 = DIRECTION ( 'NONE',  ( 0.000000000000000000, 0.000000000000000000, -1.000000000000000000 ) ) ;
#247 = CARTESIAN_POINT ( 'NONE',  ( 0.000000000000000000, 0.000000000000000000, 1.968503999999999809 ) ) ;
#248 = CARTESIAN_POINT ( 'NONE',  ( 0.07874000000000000443, 9.642868896486258509E-18, 1.953504000000000129 ) ) ;
#249 = CARTESIAN_POINT ( 'NONE',  ( -0.04916328749999997888, 7.831817581864934190E-18, 0.2362200000000000133 ) ) ;
#250 = CARTESIAN_POINT ( 'NONE',  ( 0.000000000000000000, 0.000000000000000000, 1.968503999999999809 ) ) ;
#251 =( GEOMETRIC_REPRESENTATION_CONTEXT ( 3 ) GLOBAL_UNCERTAINTY_ASSIGNED_CONTEXT ( ( #17 ) ) GLOBAL_UNIT_ASSIGNED_CONTEXT ( ( #167, #260, #144 ) ) REPRESENTATION_CONTEXT ( 'NONE', 'WORKASPACE' ) );
#252 = DIRECTION ( 'NONE',  ( 0.000000000000000000, 0.000000000000000000, 1.000000000000000000 ) ) ;
#253 = DIRECTION ( 'NONE',  ( 1.000000000000000000, 0.000000000000000000, 0.000000000000000000 ) ) ;
#254 = PRESENTATION_LAYER_ASSIGNMENT (  '', '', ( #20 ) ) ;
#255 = ADVANCED_FACE ( 'NONE', ( #272 ), #9, .T. ) ;
#256 = SURFACE_STYLE_USAGE ( .BOTH. , #45 ) ;
#257 = DIRECTION ( 'NONE',  ( -0.000000000000000000, -0.000000000000000000, -1.000000000000000000 ) ) ;
#258 = FACE_OUTER_BOUND ( 'NONE', #102, .T. ) ;
#259 = PRODUCT_DEFINITION ( 'UNKNOWN', '', #89, #132 ) ;
#260 =( NAMED_UNIT ( * ) PLANE_ANGLE_UNIT ( ) SI_UNIT ( $, .RADIAN. ) );
#261 = EDGE_LOOP ( 'NONE', ( #262, #243, #152, #215 ) ) ;
#262 = ORIENTED_EDGE ( 'NONE', *, *, #193, .F. ) ;
#263 = ORIENTED_EDGE ( 'NONE', *, *, #172, .T. ) ;
#264 = EDGE_LOOP ( 'NONE', ( #288, #194, #171, #5 ) ) ;
#265 = ADVANCED_FACE ( 'NONE', ( #62 ), #110, .F. ) ;
#266 = DIRECTION ( 'NONE',  ( -1.224646799147353207E-16, -0.000000000000000000, -1.000000000000000000 ) ) ;
#267 = EDGE_LOOP ( 'NONE', ( #55, #263, #284, #238 ) ) ;
#268 = DIRECTION ( 'NONE',  ( -1.224646799147353207E-16, -0.000000000000000000, -1.000000000000000000 ) ) ;
#269 = DIRECTION ( 'NONE',  ( -1.000000000000000000, 0.000000000000000000, 1.224646799147353207E-16 ) ) ;
#270 = EDGE_CURVE ( 'NONE', #100, #174, #59, .T. ) ;
#271 = DIRECTION ( 'NONE',  ( 1.000000000000000000, 0.000000000000000000, 0.000000000000000000 ) ) ;
#272 = FACE_OUTER_BOUND ( 'NONE', #10, .T. ) ;
#273 = AXIS2_PLACEMENT_3D ( 'NONE', #178, #268, #63 ) ;
#274 = LENGTH_MEASURE_WITH_UNIT ( LENGTH_MEASURE( 0.02539999999999999897 ), #225 );
#275 = EDGE_CURVE ( 'NONE', #34, #198, #232, .T. ) ;
#276 = CARTESIAN_POINT ( 'NONE',  ( -0.04916328749999997888, 6.020766267243608331E-18, 0.2362200000000000133 ) ) ;
#277 = AXIS2_PLACEMENT_3D ( 'NONE', #37, #156, #106 ) ;
#278 = APPLICATION_PROTOCOL_DEFINITION ( 'draft international standard', 'automotive_design', 1998, #117 ) ;
#279 = CARTESIAN_POINT ( 'NONE',  ( 0.000000000000000000, 0.000000000000000000, 1.968503999999999809 ) ) ;
#280 = SURFACE_SIDE_STYLE ('',( #50 ) ) ;
#281 = FILL_AREA_STYLE ('',( #236 ) ) ;
#282 = CARTESIAN_POINT ( 'NONE',  ( -0.07873999999999994892, 0.000000000000000000, 0.4039578718853090167 ) ) ;
#283 = EDGE_LOOP ( 'NONE', ( #287, #32 ) ) ;
#284 = ORIENTED_EDGE ( 'NONE', *, *, #46, .T. ) ;
#285 = CIRCLE ( 'NONE', #92, 0.07874000000000000443 ) ;
#286 = PRESENTATION_LAYER_ASSIGNMENT (  '', '', ( #76 ) ) ;
#287 = ORIENTED_EDGE ( 'NONE', *, *, #61, .T. ) ;
#288 = ORIENTED_EDGE ( 'NONE', *, *, #275, .T. ) ;
#289 = DIRECTION ( 'NONE',  ( -1.000000000000000000, 0.000000000000000000, 0.000000000000000000 ) ) ;
#290 = CARTESIAN_POINT ( 'NONE',  ( 0.000000000000000000, 0.000000000000000000, 1.953504000000000129 ) ) ;
#291 = CYLINDRICAL_SURFACE ( 'NONE', #158, 0.07874000000000000443 ) ;
#292 = FACE_OUTER_BOUND ( 'NONE', #267, .T. ) ;
#293 = EDGE_CURVE ( 'NONE', #146, #217, #41, .T. ) ;
#294 = CLOSED_SHELL ( 'NONE', ( #169, #72, #125, #91, #202, #7, #218, #255, #165, #265 ) ) ;
#295 =( LENGTH_UNIT ( ) NAMED_UNIT ( * ) SI_UNIT ( $, .METRE. ) );
#296 = SURFACE_STYLE_USAGE ( .BOTH. , #280 ) ;
#297 = DIRECTION ( 'NONE',  ( 0.7071067811865502373, 8.659560562354966138E-17, -0.7071067811865446862 ) ) ;
#298 = COLOUR_RGB ( '',0.7921568627450980005, 0.8196078431372548767, 0.9333333333333333481 ) ;
#299 = DIRECTION ( 'NONE',  ( -1.000000000000000000, 0.000000000000000000, 0.000000000000000000 ) ) ;
ENDSEC;
END-ISO-10303-21;
