ISO-10303-21;
HEADER;
FILE_DESCRIPTION (( 'STEP AP214' ),
    '1' );
FILE_NAME ('Micro_DM-125-2120X.STEP',
    '2021-09-02T15:58:34',
    ( '' ),
    ( '' ),
    'SwSTEP 2.0',
    'SolidWorks 2020',
    '' );
FILE_SCHEMA (( 'AUTOMOTIVE_DESIGN' ));
ENDSEC;

DATA;
#1 = CARTESIAN_POINT ( 'NONE',  ( -0.06245000000000002632, 7.647919260675224182E-18, 0.03172539729196974245 ) ) ;
#2 = APPLICATION_CONTEXT ( 'automotive_design' ) ;
#3 = DIRECTION ( 'NONE',  ( 1.000000000000000000, 0.0000000000000000000, 0.0000000000000000000 ) ) ;
#4 = VECTOR ( 'NONE', #70, 39.37007874015748143 ) ;
#5 = AXIS2_PLACEMENT_3D ( 'NONE', #281, #125, #178 ) ;
#6 = EDGE_CURVE ( 'NONE', #289, #37, #43, .T. ) ;
#7 = FACE_OUTER_BOUND ( 'NONE', #132, .T. ) ;
#8 = EDGE_LOOP ( 'NONE', ( #285, #59 ) ) ;
#9 = ORIENTED_EDGE ( 'NONE', *, *, #6, .T. ) ;
#10 = CLOSED_SHELL ( 'NONE', ( #294, #232, #133, #124, #302, #100, #116, #77, #33, #274, #128 ) ) ;
#11 = APPLICATION_PROTOCOL_DEFINITION ( 'draft international standard', 'automotive_design', 1998, #2 ) ;
#12 = ORIENTED_EDGE ( 'NONE', *, *, #286, .F. ) ;
#13 = EDGE_CURVE ( 'NONE', #138, #37, #93, .T. ) ;
#14 =( NAMED_UNIT ( * ) PLANE_ANGLE_UNIT ( ) SI_UNIT ( $, .RADIAN. ) );
#15 = ORIENTED_EDGE ( 'NONE', *, *, #60, .F. ) ;
#16 = DIRECTION ( 'NONE',  ( 0.0000000000000000000, 0.0000000000000000000, 1.000000000000000000 ) ) ;
#17 = VECTOR ( 'NONE', #146, 39.37007874015748143 ) ;
#18 = FACE_OUTER_BOUND ( 'NONE', #309, .T. ) ;
#19 = DIRECTION ( 'NONE',  ( 0.0000000000000000000, 0.0000000000000000000, -1.000000000000000000 ) ) ;
#20 = DIRECTION ( 'NONE',  ( 1.000000000000000000, 0.0000000000000000000, -0.0000000000000000000 ) ) ;
#21 = AXIS2_PLACEMENT_3D ( 'NONE', #154, #257, #31 ) ;
#22 = CARTESIAN_POINT ( 'NONE',  ( 0.06250000000000000000, 7.654042494670956004E-18, 0.5000000000000000000 ) ) ;
#23 = EDGE_CURVE ( 'NONE', #37, #287, #293, .T. ) ;
#24 = LINE ( 'NONE', #225, #197 ) ;
#25 =( NAMED_UNIT ( * ) SI_UNIT ( $, .STERADIAN. ) SOLID_ANGLE_UNIT ( ) );
#26 = AXIS2_PLACEMENT_3D ( 'NONE', #247, #200, #20 ) ;
#27 = CARTESIAN_POINT ( 'NONE',  ( 0.0000000000000000000, 0.0000000000000000000, 1.707404996040164512E-17 ) ) ;
#28 = STYLED_ITEM ( 'NONE', ( #78 ), #181 ) ;
#29 = PRODUCT ( 'Micro_DM-125-2120X', 'Micro_DM-125-2120X', '', ( #46 ) ) ;
#30 = DIRECTION ( 'NONE',  ( -0.0000000000000000000, -0.0000000000000000000, -1.000000000000000000 ) ) ;
#31 = DIRECTION ( 'NONE',  ( -1.000000000000000000, 0.0000000000000000000, 0.0000000000000000000 ) ) ;
#32 = CYLINDRICAL_SURFACE ( 'NONE', #168, 0.06250000000000000000 ) ;
#33 = ADVANCED_FACE ( 'NONE', ( #97 ), #227, .T. ) ;
#34 = ORIENTED_EDGE ( 'NONE', *, *, #92, .F. ) ;
#35 = ORIENTED_EDGE ( 'NONE', *, *, #189, .F. ) ;
#36 = DIRECTION ( 'NONE',  ( -0.0000000000000000000, -0.0000000000000000000, -1.000000000000000000 ) ) ;
#37 = VERTEX_POINT ( 'NONE', #45 ) ;
#38 = CIRCLE ( 'NONE', #175, 0.06245000000000000551 ) ;
#39 =( LENGTH_UNIT ( ) NAMED_UNIT ( * ) SI_UNIT ( $, .METRE. ) );
#40 = VERTEX_POINT ( 'NONE', #48 ) ;
#41 = ORIENTED_EDGE ( 'NONE', *, *, #189, .T. ) ;
#42 = CARTESIAN_POINT ( 'NONE',  ( 0.0000000000000000000, 0.0000000000000000000, 0.5000000000000000000 ) ) ;
#43 = CIRCLE ( 'NONE', #229, 0.06250000000000000000 ) ;
#44 = DIRECTION ( 'NONE',  ( 0.0000000000000000000, 0.0000000000000000000, 1.000000000000000000 ) ) ;
#45 = CARTESIAN_POINT ( 'NONE',  ( -0.06250000000000000000, 0.0000000000000000000, 1.485000000000000764 ) ) ;
#46 = PRODUCT_CONTEXT ( 'NONE', #2, 'mechanical' ) ;
#47 = CARTESIAN_POINT ( 'NONE',  ( -0.06245000000000007490, 0.0000000000000000000, 0.5000000000000000000 ) ) ;
#48 = CARTESIAN_POINT ( 'NONE',  ( -0.007499999999999999722, 4.283202180017868527E-18, 1.707404996040164512E-17 ) ) ;
#49 = LINE ( 'NONE', #303, #17 ) ;
#50 = EDGE_CURVE ( 'NONE', #140, #236, #271, .T. ) ;
#51 = COLOUR_RGB ( '',0.7921568627450980005, 0.8196078431372548767, 0.9333333333333333481 ) ;
#52 = CIRCLE ( 'NONE', #84, 0.06250000000000000000 ) ;
#53 = CARTESIAN_POINT ( 'NONE',  ( 0.06245000000000006796, 7.647919260675228804E-18, 0.5000000000000000000 ) ) ;
#54 = DIRECTION ( 'NONE',  ( -1.000000000000000000, 0.0000000000000000000, 0.0000000000000000000 ) ) ;
#55 = DIRECTION ( 'NONE',  ( -0.0000000000000000000, -0.0000000000000000000, -1.000000000000000000 ) ) ;
#56 =( LENGTH_UNIT ( ) NAMED_UNIT ( * ) SI_UNIT ( $, .METRE. ) );
#57 = VECTOR ( 'NONE', #328, 39.37007874015748143 ) ;
#58 = ORIENTED_EDGE ( 'NONE', *, *, #263, .T. ) ;
#59 = ORIENTED_EDGE ( 'NONE', *, *, #151, .T. ) ;
#60 = EDGE_CURVE ( 'NONE', #322, #40, #266, .T. ) ;
#61 = CYLINDRICAL_SURFACE ( 'NONE', #228, 0.06245000000000004020 ) ;
#62 = EDGE_LOOP ( 'NONE', ( #291, #9, #270, #82 ) ) ;
#63 = PRODUCT_DEFINITION_CONTEXT ( 'detailed design', #137, 'design' ) ;
#64 = CARTESIAN_POINT ( 'NONE',  ( -0.06250000000000000000, 0.0000000000000000000, 0.5000000000000000000 ) ) ;
#65 = ORIENTED_EDGE ( 'NONE', *, *, #286, .T. ) ;
#66 = PRODUCT_DEFINITION_FORMATION_WITH_SPECIFIED_SOURCE ( 'ANY', '', #29, .NOT_KNOWN. ) ;
#67 = ORIENTED_EDGE ( 'NONE', *, *, #60, .T. ) ;
#68 = DIRECTION ( 'NONE',  ( 1.000000000000000000, 0.0000000000000000000, 0.0000000000000000000 ) ) ;
#69 = EDGE_CURVE ( 'NONE', #140, #234, #314, .T. ) ;
#70 = DIRECTION ( 'NONE',  ( -0.0000000000000000000, -0.0000000000000000000, -1.000000000000000000 ) ) ;
#71 = AXIS2_PLACEMENT_3D ( 'NONE', #296, #121, #218 ) ;
#72 = SHAPE_DEFINITION_REPRESENTATION ( #147, #259 ) ;
#73 = DIRECTION ( 'NONE',  ( -1.000000000000000000, 0.0000000000000000000, 0.0000000000000000000 ) ) ;
#74 = DIRECTION ( 'NONE',  ( 1.000000000000000000, 0.0000000000000000000, -0.0000000000000000000 ) ) ;
#75 = FACE_OUTER_BOUND ( 'NONE', #261, .T. ) ;
#76 = FACE_OUTER_BOUND ( 'NONE', #240, .T. ) ;
#77 = ADVANCED_FACE ( 'NONE', ( #320, #18 ), #292, .T. ) ;
#78 = PRESENTATION_STYLE_ASSIGNMENT (( #129 ) ) ;
#79 = COLOUR_RGB ( '',0.7921568627450980005, 0.8196078431372548767, 0.9333333333333333481 ) ;
#80 = CARTESIAN_POINT ( 'NONE',  ( 0.0000000000000000000, 0.0000000000000000000, 0.03172539729196974245 ) ) ;
#81 = CARTESIAN_POINT ( 'NONE',  ( 0.0000000000000000000, 0.0000000000000000000, 1.500000000000000222 ) ) ;
#82 = ORIENTED_EDGE ( 'NONE', *, *, #311, .F. ) ;
#83 = VECTOR ( 'NONE', #223, 39.37007874015748143 ) ;
#84 = AXIS2_PLACEMENT_3D ( 'NONE', #207, #153, #256 ) ;
#85 = ORIENTED_EDGE ( 'NONE', *, *, #182, .T. ) ;
#86 = ORIENTED_EDGE ( 'NONE', *, *, #50, .T. ) ;
#87 =( CONVERSION_BASED_UNIT ( 'INCH', #284 ) LENGTH_UNIT ( ) NAMED_UNIT ( #202 ) );
#88 = ORIENTED_EDGE ( 'NONE', *, *, #235, .F. ) ;
#89 = UNCERTAINTY_MEASURE_WITH_UNIT (LENGTH_MEASURE( 1.000000000000000082E-05 ), #211, 'distance_accuracy_value', 'NONE');
#90 =( NAMED_UNIT ( * ) SI_UNIT ( $, .STERADIAN. ) SOLID_ANGLE_UNIT ( ) );
#91 = ORIENTED_EDGE ( 'NONE', *, *, #252, .T. ) ;
#92 = EDGE_CURVE ( 'NONE', #40, #236, #273, .T. ) ;
#93 = LINE ( 'NONE', #96, #83 ) ;
#94 = CARTESIAN_POINT ( 'NONE',  ( 0.0000000000000000000, 0.0000000000000000000, 1.485000000000000764 ) ) ;
#95 = FACE_OUTER_BOUND ( 'NONE', #283, .T. ) ;
#96 = CARTESIAN_POINT ( 'NONE',  ( -0.04750000000000064587, 0.0000000000000000000, 1.500000000000000222 ) ) ;
#97 = FACE_OUTER_BOUND ( 'NONE', #108, .T. ) ;
#98 = LINE ( 'NONE', #327, #196 ) ;
#99 = DIRECTION ( 'NONE',  ( -1.000000000000000000, 0.0000000000000000000, 0.0000000000000000000 ) ) ;
#100 = ADVANCED_FACE ( 'NONE', ( #166 ), #115, .T. ) ;
#101 = DIRECTION ( 'NONE',  ( -0.0000000000000000000, -0.0000000000000000000, -1.000000000000000000 ) ) ;
#102 = CARTESIAN_POINT ( 'NONE',  ( 0.0000000000000000000, 0.0000000000000000000, 0.0000000000000000000 ) ) ;
#103 = CARTESIAN_POINT ( 'NONE',  ( 0.06250000000000000000, 7.654042494670956004E-18, 1.485000000000000764 ) ) ;
#104 = ORIENTED_EDGE ( 'NONE', *, *, #23, .F. ) ;
#105 = ORIENTED_EDGE ( 'NONE', *, *, #235, .T. ) ;
#106 = DIRECTION ( 'NONE',  ( -0.0000000000000000000, -0.0000000000000000000, -1.000000000000000000 ) ) ;
#107 = CIRCLE ( 'NONE', #222, 0.06245000000000000551 ) ;
#108 = EDGE_LOOP ( 'NONE', ( #34, #15, #85, #188 ) ) ;
#109 = FILL_AREA_STYLE_COLOUR ( '', #79 ) ;
#110 = ORIENTED_EDGE ( 'NONE', *, *, #69, .F. ) ;
#111 = DIRECTION ( 'NONE',  ( -1.000000000000000000, 0.0000000000000000000, 0.0000000000000000000 ) ) ;
#112 = ORIENTED_EDGE ( 'NONE', *, *, #69, .T. ) ;
#113 = CIRCLE ( 'NONE', #301, 0.04750000000000064587 ) ;
#114 = DIRECTION ( 'NONE',  ( -0.0000000000000000000, -0.0000000000000000000, -1.000000000000000000 ) ) ;
#115 = PLANE ( 'NONE',  #149 ) ;
#116 = ADVANCED_FACE ( 'NONE', ( #142 ), #167, .T. ) ;
#117 = DIRECTION ( 'NONE',  ( -1.000000000000000000, 0.0000000000000000000, 0.0000000000000000000 ) ) ;
#118 = FACE_OUTER_BOUND ( 'NONE', #190, .T. ) ;
#119 = PRODUCT_DEFINITION ( 'UNKNOWN', '', #66, #63 ) ;
#120 = CIRCLE ( 'NONE', #267, 0.06250000000000000000 ) ;
#121 = DIRECTION ( 'NONE',  ( 0.0000000000000000000, 0.0000000000000000000, 1.000000000000000000 ) ) ;
#122 = DIRECTION ( 'NONE',  ( 0.0000000000000000000, 0.0000000000000000000, 1.000000000000000000 ) ) ;
#123 = FILL_AREA_STYLE_COLOUR ( '', #51 ) ;
#124 = ADVANCED_FACE ( 'NONE', ( #95 ), #275, .T. ) ;
#125 = DIRECTION ( 'NONE',  ( 0.0000000000000000000, 0.0000000000000000000, 1.000000000000000000 ) ) ;
#126 = VECTOR ( 'NONE', #114, 39.37007874015748143 ) ;
#127 = SURFACE_STYLE_FILL_AREA ( #253 ) ;
#128 = ADVANCED_FACE ( 'NONE', ( #75 ), #173, .F. ) ;
#129 = SURFACE_STYLE_USAGE ( .BOTH. , #148 ) ;
#130 = UNCERTAINTY_MEASURE_WITH_UNIT (LENGTH_MEASURE( 1.000000000000000082E-05 ), #251, 'distance_accuracy_value', 'NONE');
#131 = DIRECTION ( 'NONE',  ( -1.000000000000000000, 0.0000000000000000000, 0.0000000000000000000 ) ) ;
#132 = EDGE_LOOP ( 'NONE', ( #112, #65, #213, #217 ) ) ;
#133 = ADVANCED_FACE ( 'NONE', ( #118 ), #199, .T. ) ;
#134 =( NAMED_UNIT ( * ) SI_UNIT ( $, .STERADIAN. ) SOLID_ANGLE_UNIT ( ) );
#135 = VERTEX_POINT ( 'NONE', #22 ) ;
#136 = ORIENTED_EDGE ( 'NONE', *, *, #210, .T. ) ;
#137 = APPLICATION_CONTEXT ( 'automotive_design' ) ;
#138 = VERTEX_POINT ( 'NONE', #276 ) ;
#139 = APPLICATION_PROTOCOL_DEFINITION ( 'draft international standard', 'automotive_design', 1998, #137 ) ;
#140 = VERTEX_POINT ( 'NONE', #47 ) ;
#141 = DIRECTION ( 'NONE',  ( -0.0000000000000000000, 0.0000000000000000000, -1.000000000000000000 ) ) ;
#142 = FACE_OUTER_BOUND ( 'NONE', #212, .T. ) ;
#143 = DIRECTION ( 'NONE',  ( 0.0000000000000000000, 0.0000000000000000000, -1.000000000000000000 ) ) ;
#144 = CARTESIAN_POINT ( 'NONE',  ( 0.0000000000000000000, 0.0000000000000000000, 1.500000000000000222 ) ) ;
#145 = CARTESIAN_POINT ( 'NONE',  ( 0.0000000000000000000, 0.0000000000000000000, 1.707404996040164512E-17 ) ) ;
#146 = DIRECTION ( 'NONE',  ( 0.8660254037844402619, 0.0000000000000000000, 0.4999999999999973910 ) ) ;
#147 = PRODUCT_DEFINITION_SHAPE ( 'NONE', 'NONE',  #119 ) ;
#148 = SURFACE_SIDE_STYLE ('',( #127 ) ) ;
#149 = AXIS2_PLACEMENT_3D ( 'NONE', #220, #44, #74 ) ;
#150 =( GEOMETRIC_REPRESENTATION_CONTEXT ( 3 ) GLOBAL_UNCERTAINTY_ASSIGNED_CONTEXT ( ( #89 ) ) GLOBAL_UNIT_ASSIGNED_CONTEXT ( ( #211, #14, #90 ) ) REPRESENTATION_CONTEXT ( 'NONE', 'WORKASPACE' ) );
#151 = EDGE_CURVE ( 'NONE', #215, #138, #184, .T. ) ;
#152 = AXIS2_PLACEMENT_3D ( 'NONE', #246, #19, #221 ) ;
#153 = DIRECTION ( 'NONE',  ( 0.0000000000000000000, 0.0000000000000000000, -1.000000000000000000 ) ) ;
#154 = CARTESIAN_POINT ( 'NONE',  ( 0.0000000000000000000, 0.0000000000000000000, 0.5000000000000000000 ) ) ;
#155 = PRESENTATION_STYLE_ASSIGNMENT (( #290 ) ) ;
#156 = CIRCLE ( 'NONE', #163, 0.06245000000000007490 ) ;
#157 = EDGE_LOOP ( 'NONE', ( #35, #186, #91, #183 ) ) ;
#158 = ORIENTED_EDGE ( 'NONE', *, *, #151, .F. ) ;
#159 = FACE_OUTER_BOUND ( 'NONE', #62, .T. ) ;
#160 = ORIENTED_EDGE ( 'NONE', *, *, #214, .F. ) ;
#161 = PRESENTATION_LAYER_ASSIGNMENT (  '', '', ( #28 ) ) ;
#162 = LENGTH_MEASURE_WITH_UNIT ( LENGTH_MEASURE( 0.02539999999999999897 ), #39 );
#163 = AXIS2_PLACEMENT_3D ( 'NONE', #317, #258, #268 ) ;
#164 = VERTEX_POINT ( 'NONE', #324 ) ;
#165 = ORIENTED_EDGE ( 'NONE', *, *, #6, .F. ) ;
#166 = FACE_OUTER_BOUND ( 'NONE', #8, .T. ) ;
#167 = CONICAL_SURFACE ( 'NONE', #152, 0.04750000000000064587, 0.7853981633974457255 ) ;
#168 = AXIS2_PLACEMENT_3D ( 'NONE', #81, #106, #111 ) ;
#169 = DIRECTION ( 'NONE',  ( -0.8660254037844402619, 1.060575238724908640E-16, 0.4999999999999973910 ) ) ;
#170 = VECTOR ( 'NONE', #169, 39.37007874015748143 ) ;
#171 = CARTESIAN_POINT ( 'NONE',  ( 0.0000000000000000000, 0.0000000000000000000, 1.707404996040164512E-17 ) ) ;
#172 = CARTESIAN_POINT ( 'NONE',  ( 0.0000000000000000000, 0.0000000000000000000, 1.500000000000000222 ) ) ;
#173 = PLANE ( 'NONE',  #26 ) ;
#174 = DIMENSIONAL_EXPONENTS ( 1.000000000000000000, 0.0000000000000000000, 0.0000000000000000000, 0.0000000000000000000, 0.0000000000000000000, 0.0000000000000000000, 0.0000000000000000000 ) ;
#175 = AXIS2_PLACEMENT_3D ( 'NONE', #306, #30, #176 ) ;
#176 = DIRECTION ( 'NONE',  ( -1.000000000000000000, 0.0000000000000000000, 0.0000000000000000000 ) ) ;
#177 = EDGE_CURVE ( 'NONE', #289, #135, #98, .T. ) ;
#178 = DIRECTION ( 'NONE',  ( 1.000000000000000000, 0.0000000000000000000, 0.0000000000000000000 ) ) ;
#179 = CARTESIAN_POINT ( 'NONE',  ( 0.04750000000000064587, 6.735557395310482421E-18, 1.500000000000000222 ) ) ;
#180 = DIRECTION ( 'NONE',  ( 0.0000000000000000000, 0.0000000000000000000, 1.000000000000000000 ) ) ;
#181 = MANIFOLD_SOLID_BREP ( 'Cut-Revolve4', #10 ) ;
#182 = EDGE_CURVE ( 'NONE', #322, #164, #49, .T. ) ;
#183 = ORIENTED_EDGE ( 'NONE', *, *, #182, .F. ) ;
#184 = CIRCLE ( 'NONE', #295, 0.04750000000000064587 ) ;
#185 = SURFACE_SIDE_STYLE ('',( #282 ) ) ;
#186 = ORIENTED_EDGE ( 'NONE', *, *, #92, .T. ) ;
#187 = DIRECTION ( 'NONE',  ( -1.000000000000000000, 0.0000000000000000000, 0.0000000000000000000 ) ) ;
#188 = ORIENTED_EDGE ( 'NONE', *, *, #239, .T. ) ;
#189 = EDGE_CURVE ( 'NONE', #40, #322, #204, .T. ) ;
#190 = EDGE_LOOP ( 'NONE', ( #158, #136, #88, #315 ) ) ;
#191 = AXIS2_PLACEMENT_3D ( 'NONE', #198, #201, #73 ) ;
#192 = FILL_AREA_STYLE ('',( #109 ) ) ;
#193 = ORIENTED_EDGE ( 'NONE', *, *, #13, .T. ) ;
#194 = DIRECTION ( 'NONE',  ( -0.0000000000000000000, -0.0000000000000000000, -1.000000000000000000 ) ) ;
#195 = CARTESIAN_POINT ( 'NONE',  ( -0.007499999999999999722, 9.184850993605147975E-19, 1.707404996040164512E-17 ) ) ;
#196 = VECTOR ( 'NONE', #101, 39.37007874015748143 ) ;
#197 = VECTOR ( 'NONE', #325, 39.37007874015748143 ) ;
#198 = CARTESIAN_POINT ( 'NONE',  ( 0.0000000000000000000, 0.0000000000000000000, 1.500000000000000222 ) ) ;
#199 = CONICAL_SURFACE ( 'NONE', #238, 0.04750000000000064587, 0.7853981633974457255 ) ;
#200 = DIRECTION ( 'NONE',  ( 0.0000000000000000000, 0.0000000000000000000, 1.000000000000000000 ) ) ;
#201 = DIRECTION ( 'NONE',  ( -0.0000000000000000000, -0.0000000000000000000, -1.000000000000000000 ) ) ;
#202 = DIMENSIONAL_EXPONENTS ( 1.000000000000000000, 0.0000000000000000000, 0.0000000000000000000, 0.0000000000000000000, 0.0000000000000000000, 0.0000000000000000000, 0.0000000000000000000 ) ;
#203 = DIRECTION ( 'NONE',  ( -0.0000000000000000000, -0.0000000000000000000, -1.000000000000000000 ) ) ;
#204 = CIRCLE ( 'NONE', #255, 0.007499999999999999722 ) ;
#205 = CARTESIAN_POINT ( 'NONE',  ( 0.0000000000000000000, 0.0000000000000000000, 1.500000000000000222 ) ) ;
#206 = PRODUCT_RELATED_PRODUCT_CATEGORY ( 'part', '', ( #29 ) ) ;
#207 = CARTESIAN_POINT ( 'NONE',  ( 0.0000000000000000000, 0.0000000000000000000, 1.485000000000000764 ) ) ;
#208 = STYLED_ITEM ( 'NONE', ( #155 ), #259 ) ;
#209 = LINE ( 'NONE', #230, #57 ) ;
#210 = EDGE_CURVE ( 'NONE', #215, #289, #209, .T. ) ;
#211 =( CONVERSION_BASED_UNIT ( 'INCH', #162 ) LENGTH_UNIT ( ) NAMED_UNIT ( #174 ) );
#212 = EDGE_LOOP ( 'NONE', ( #265, #160, #193, #165 ) ) ;
#213 = ORIENTED_EDGE ( 'NONE', *, *, #252, .F. ) ;
#214 = EDGE_CURVE ( 'NONE', #138, #215, #113, .T. ) ;
#215 = VERTEX_POINT ( 'NONE', #179 ) ;
#216 = CARTESIAN_POINT ( 'NONE',  ( 0.007499999999999999722, 0.0000000000000000000, 1.707404996040164512E-17 ) ) ;
#217 = ORIENTED_EDGE ( 'NONE', *, *, #50, .F. ) ;
#218 = DIRECTION ( 'NONE',  ( 1.000000000000000000, 0.0000000000000000000, 0.0000000000000000000 ) ) ;
#219 = DIRECTION ( 'NONE',  ( -1.000000000000000000, 0.0000000000000000000, 0.0000000000000000000 ) ) ;
#220 = CARTESIAN_POINT ( 'NONE',  ( 0.0000000000000000000, 0.0000000000000000000, 1.500000000000000222 ) ) ;
#221 = DIRECTION ( 'NONE',  ( -1.000000000000000000, 0.0000000000000000000, 0.0000000000000000000 ) ) ;
#222 = AXIS2_PLACEMENT_3D ( 'NONE', #80, #280, #54 ) ;
#223 = DIRECTION ( 'NONE',  ( -0.7071067811865456854, 0.0000000000000000000, -0.7071067811865493491 ) ) ;
#224 = DIRECTION ( 'NONE',  ( 1.000000000000000000, 0.0000000000000000000, 0.0000000000000000000 ) ) ;
#225 = CARTESIAN_POINT ( 'NONE',  ( 0.06245000000000004020, 7.647919260675225723E-18, 0.0000000000000000000 ) ) ;
#226 = LENGTH_MEASURE_WITH_UNIT ( LENGTH_MEASURE( 0.02539999999999999897 ), #304 );
#227 = CONICAL_SURFACE ( 'NONE', #272, 0.007499999999999999722, 1.047197551196600740 ) ;
#228 = AXIS2_PLACEMENT_3D ( 'NONE', #264, #241, #187 ) ;
#229 = AXIS2_PLACEMENT_3D ( 'NONE', #94, #143, #323 ) ;
#230 = CARTESIAN_POINT ( 'NONE',  ( 0.04750000000000064587, 5.817072295950006528E-18, 1.500000000000000222 ) ) ;
#231 = CYLINDRICAL_SURFACE ( 'NONE', #248, 0.06245000000000004020 ) ;
#232 = ADVANCED_FACE ( 'NONE', ( #305 ), #277, .T. ) ;
#233 = CIRCLE ( 'NONE', #21, 0.06250000000000000000 ) ;
#234 = VERTEX_POINT ( 'NONE', #53 ) ;
#235 = EDGE_CURVE ( 'NONE', #37, #289, #52, .T. ) ;
#236 = VERTEX_POINT ( 'NONE', #1 ) ;
#237 = MECHANICAL_DESIGN_GEOMETRIC_PRESENTATION_REPRESENTATION (  '', ( #28 ), #260 ) ;
#238 = AXIS2_PLACEMENT_3D ( 'NONE', #172, #300, #278 ) ;
#239 = EDGE_CURVE ( 'NONE', #164, #236, #38, .T. ) ;
#240 = EDGE_LOOP ( 'NONE', ( #12, #242, #86, #313 ) ) ;
#241 = DIRECTION ( 'NONE',  ( -0.0000000000000000000, -0.0000000000000000000, -1.000000000000000000 ) ) ;
#242 = ORIENTED_EDGE ( 'NONE', *, *, #329, .T. ) ;
#243 = ORIENTED_EDGE ( 'NONE', *, *, #177, .T. ) ;
#244 = PRESENTATION_LAYER_ASSIGNMENT (  '', '', ( #208 ) ) ;
#245 = DIRECTION ( 'NONE',  ( -1.000000000000000000, 0.0000000000000000000, 0.0000000000000000000 ) ) ;
#246 = CARTESIAN_POINT ( 'NONE',  ( 0.0000000000000000000, 0.0000000000000000000, 1.500000000000000222 ) ) ;
#247 = CARTESIAN_POINT ( 'NONE',  ( 0.0000000000000000000, 0.0000000000000000000, 0.0000000000000000000 ) ) ;
#248 = AXIS2_PLACEMENT_3D ( 'NONE', #102, #55, #250 ) ;
#249 = CARTESIAN_POINT ( 'NONE',  ( -0.06245000000000004020, 0.0000000000000000000, 0.0000000000000000000 ) ) ;
#250 = DIRECTION ( 'NONE',  ( -1.000000000000000000, 0.0000000000000000000, 0.0000000000000000000 ) ) ;
#251 =( CONVERSION_BASED_UNIT ( 'INCH', #226 ) LENGTH_UNIT ( ) NAMED_UNIT ( #299 ) );
#252 = EDGE_CURVE ( 'NONE', #236, #164, #107, .T. ) ;
#253 = FILL_AREA_STYLE ('',( #123 ) ) ;
#254 = AXIS2_PLACEMENT_3D ( 'NONE', #298, #141, #245 ) ;
#255 = AXIS2_PLACEMENT_3D ( 'NONE', #27, #203, #99 ) ;
#256 = DIRECTION ( 'NONE',  ( 1.000000000000000000, 0.0000000000000000000, 0.0000000000000000000 ) ) ;
#257 = DIRECTION ( 'NONE',  ( -0.0000000000000000000, -0.0000000000000000000, -1.000000000000000000 ) ) ;
#258 = DIRECTION ( 'NONE',  ( -0.0000000000000000000, -0.0000000000000000000, -1.000000000000000000 ) ) ;
#259 = ADVANCED_BREP_SHAPE_REPRESENTATION ( 'Micro_DM-125-2120X', ( #181, #71 ), #150 ) ;
#260 =( GEOMETRIC_REPRESENTATION_CONTEXT ( 3 ) GLOBAL_UNCERTAINTY_ASSIGNED_CONTEXT ( ( #130 ) ) GLOBAL_UNIT_ASSIGNED_CONTEXT ( ( #251, #279, #25 ) ) REPRESENTATION_CONTEXT ( 'NONE', 'WORKASPACE' ) );
#261 = EDGE_LOOP ( 'NONE', ( #67, #41 ) ) ;
#262 = ORIENTED_EDGE ( 'NONE', *, *, #329, .F. ) ;
#263 = EDGE_CURVE ( 'NONE', #287, #135, #233, .T. ) ;
#264 = CARTESIAN_POINT ( 'NONE',  ( 0.0000000000000000000, 0.0000000000000000000, 0.0000000000000000000 ) ) ;
#265 = ORIENTED_EDGE ( 'NONE', *, *, #210, .F. ) ;
#266 = CIRCLE ( 'NONE', #307, 0.007499999999999999722 ) ;
#267 = AXIS2_PLACEMENT_3D ( 'NONE', #288, #36, #131 ) ;
#268 = DIRECTION ( 'NONE',  ( -1.000000000000000000, 0.0000000000000000000, 0.0000000000000000000 ) ) ;
#269 = ORIENTED_EDGE ( 'NONE', *, *, #263, .F. ) ;
#270 = ORIENTED_EDGE ( 'NONE', *, *, #23, .T. ) ;
#271 = LINE ( 'NONE', #249, #126 ) ;
#272 = AXIS2_PLACEMENT_3D ( 'NONE', #145, #16, #68 ) ;
#273 = LINE ( 'NONE', #195, #170 ) ;
#274 = ADVANCED_FACE ( 'NONE', ( #76 ), #231, .T. ) ;
#275 = CYLINDRICAL_SURFACE ( 'NONE', #191, 0.06250000000000000000 ) ;
#276 = CARTESIAN_POINT ( 'NONE',  ( -0.04750000000000064587, 0.0000000000000000000, 1.500000000000000222 ) ) ;
#277 = CONICAL_SURFACE ( 'NONE', #5, 0.007499999999999999722, 1.047197551196600740 ) ;
#278 = DIRECTION ( 'NONE',  ( -1.000000000000000000, 0.0000000000000000000, 0.0000000000000000000 ) ) ;
#279 =( NAMED_UNIT ( * ) PLANE_ANGLE_UNIT ( ) SI_UNIT ( $, .RADIAN. ) );
#280 = DIRECTION ( 'NONE',  ( -0.0000000000000000000, -0.0000000000000000000, -1.000000000000000000 ) ) ;
#281 = CARTESIAN_POINT ( 'NONE',  ( 0.0000000000000000000, 0.0000000000000000000, 1.707404996040164512E-17 ) ) ;
#282 = SURFACE_STYLE_FILL_AREA ( #192 ) ;
#283 = EDGE_LOOP ( 'NONE', ( #105, #243, #269, #104 ) ) ;
#284 = LENGTH_MEASURE_WITH_UNIT ( LENGTH_MEASURE( 0.02539999999999999897 ), #56 );
#285 = ORIENTED_EDGE ( 'NONE', *, *, #214, .T. ) ;
#286 = EDGE_CURVE ( 'NONE', #234, #164, #24, .T. ) ;
#287 = VERTEX_POINT ( 'NONE', #64 ) ;
#288 = CARTESIAN_POINT ( 'NONE',  ( 0.0000000000000000000, 0.0000000000000000000, 0.5000000000000000000 ) ) ;
#289 = VERTEX_POINT ( 'NONE', #103 ) ;
#290 = SURFACE_STYLE_USAGE ( .BOTH. , #185 ) ;
#291 = ORIENTED_EDGE ( 'NONE', *, *, #177, .F. ) ;
#292 = PLANE ( 'NONE',  #254 ) ;
#293 = LINE ( 'NONE', #321, #4 ) ;
#294 = ADVANCED_FACE ( 'NONE', ( #7 ), #61, .T. ) ;
#295 = AXIS2_PLACEMENT_3D ( 'NONE', #144, #122, #224 ) ;
#296 = CARTESIAN_POINT ( 'NONE',  ( 0.0000000000000000000, 0.0000000000000000000, 0.0000000000000000000 ) ) ;
#297 = DIRECTION ( 'NONE',  ( -0.0000000000000000000, -0.0000000000000000000, -1.000000000000000000 ) ) ;
#298 = CARTESIAN_POINT ( 'NONE',  ( 0.06245000000000007490, 0.0000000000000000000, 0.5000000000000000000 ) ) ;
#299 = DIMENSIONAL_EXPONENTS ( 1.000000000000000000, 0.0000000000000000000, 0.0000000000000000000, 0.0000000000000000000, 0.0000000000000000000, 0.0000000000000000000, 0.0000000000000000000 ) ;
#300 = DIRECTION ( 'NONE',  ( 0.0000000000000000000, 0.0000000000000000000, -1.000000000000000000 ) ) ;
#301 = AXIS2_PLACEMENT_3D ( 'NONE', #205, #180, #3 ) ;
#302 = ADVANCED_FACE ( 'NONE', ( #159 ), #32, .T. ) ;
#303 = CARTESIAN_POINT ( 'NONE',  ( 0.007499999999999999722, 0.0000000000000000000, 1.707404996040164512E-17 ) ) ;
#304 =( LENGTH_UNIT ( ) NAMED_UNIT ( * ) SI_UNIT ( $, .METRE. ) );
#305 = FACE_OUTER_BOUND ( 'NONE', #157, .T. ) ;
#306 = CARTESIAN_POINT ( 'NONE',  ( 0.0000000000000000000, 0.0000000000000000000, 0.03172539729196974245 ) ) ;
#307 = AXIS2_PLACEMENT_3D ( 'NONE', #171, #194, #219 ) ;
#308 = UNCERTAINTY_MEASURE_WITH_UNIT (LENGTH_MEASURE( 1.000000000000000082E-05 ), #87, 'distance_accuracy_value', 'NONE');
#309 = EDGE_LOOP ( 'NONE', ( #58, #316 ) ) ;
#310 =( NAMED_UNIT ( * ) PLANE_ANGLE_UNIT ( ) SI_UNIT ( $, .RADIAN. ) );
#311 = EDGE_CURVE ( 'NONE', #135, #287, #120, .T. ) ;
#312 = AXIS2_PLACEMENT_3D ( 'NONE', #42, #297, #117 ) ;
#313 = ORIENTED_EDGE ( 'NONE', *, *, #239, .F. ) ;
#314 = CIRCLE ( 'NONE', #312, 0.06245000000000007490 ) ;
#315 = ORIENTED_EDGE ( 'NONE', *, *, #13, .F. ) ;
#316 = ORIENTED_EDGE ( 'NONE', *, *, #311, .T. ) ;
#317 = CARTESIAN_POINT ( 'NONE',  ( 0.0000000000000000000, 0.0000000000000000000, 0.5000000000000000000 ) ) ;
#318 = EDGE_LOOP ( 'NONE', ( #110, #262 ) ) ;
#319 = MECHANICAL_DESIGN_GEOMETRIC_PRESENTATION_REPRESENTATION (  '', ( #208 ), #326 ) ;
#320 = FACE_BOUND ( 'NONE', #318, .T. ) ;
#321 = CARTESIAN_POINT ( 'NONE',  ( -0.06250000000000000000, 0.0000000000000000000, 1.500000000000000222 ) ) ;
#322 = VERTEX_POINT ( 'NONE', #216 ) ;
#323 = DIRECTION ( 'NONE',  ( 1.000000000000000000, 0.0000000000000000000, 0.0000000000000000000 ) ) ;
#324 = CARTESIAN_POINT ( 'NONE',  ( 0.06245000000000002632, 0.0000000000000000000, 0.03172539729196974245 ) ) ;
#325 = DIRECTION ( 'NONE',  ( -0.0000000000000000000, -0.0000000000000000000, -1.000000000000000000 ) ) ;
#326 =( GEOMETRIC_REPRESENTATION_CONTEXT ( 3 ) GLOBAL_UNCERTAINTY_ASSIGNED_CONTEXT ( ( #308 ) ) GLOBAL_UNIT_ASSIGNED_CONTEXT ( ( #87, #310, #134 ) ) REPRESENTATION_CONTEXT ( 'NONE', 'WORKASPACE' ) );
#327 = CARTESIAN_POINT ( 'NONE',  ( 0.06250000000000000000, 7.654042494670956004E-18, 1.500000000000000222 ) ) ;
#328 = DIRECTION ( 'NONE',  ( 0.7071067811865456854, 8.659560562354911904E-17, -0.7071067811865493491 ) ) ;
#329 = EDGE_CURVE ( 'NONE', #234, #140, #156, .T. ) ;
ENDSEC;
END-ISO-10303-21;
