ISO-10303-21;
HEADER;
FILE_DESCRIPTION (( 'STEP AP214' ),
    '1' );
FILE_NAME ('Micro_GEM-437-4X.STEP',
    '2021-09-01T20:43:42',
    ( '' ),
    ( '' ),
    'SwSTEP 2.0',
    'SolidWorks 2020',
    '' );
FILE_SCHEMA (( 'AUTOMOTIVE_DESIGN' ));
ENDSEC;

DATA;
#1 = ORIENTED_EDGE ( 'NONE', *, *, #53, .F. ) ;
#2 = ORIENTED_EDGE ( 'NONE', *, *, #265, .F. ) ;
#3 =( CONVERSION_BASED_UNIT ( 'INCH', #258 ) LENGTH_UNIT ( ) NAMED_UNIT ( #259 ) );
#4 = FACE_OUTER_BOUND ( 'NONE', #297, .T. ) ;
#5 = CARTESIAN_POINT ( 'NONE',  ( 0.2037499999999991263, 2.495217853262720780E-17, 2.500000000000000000 ) ) ;
#6 = DIRECTION ( 'NONE',  ( -1.224646799147353207E-16, -0.0000000000000000000, -1.000000000000000000 ) ) ;
#7 =( LENGTH_UNIT ( ) NAMED_UNIT ( * ) SI_UNIT ( $, .METRE. ) );
#8 = CARTESIAN_POINT ( 'NONE',  ( -0.2037499999999991263, 0.0000000000000000000, 2.500000000000000000 ) ) ;
#9 = VECTOR ( 'NONE', #58, 39.37007874015748143 ) ;
#10 = DIRECTION ( 'NONE',  ( -1.000000000000000000, 0.0000000000000000000, 1.224646799147353207E-16 ) ) ;
#11 = SURFACE_STYLE_USAGE ( .BOTH. , #133 ) ;
#12 = CARTESIAN_POINT ( 'NONE',  ( 1.224646799147353207E-16, 0.0000000000000000000, 1.000000000000000000 ) ) ;
#13 = CARTESIAN_POINT ( 'NONE',  ( -0.2187499999999998612, 0.0000000000000000000, 1.001240592898041237 ) ) ;
#14 = EDGE_CURVE ( 'NONE', #295, #148, #125, .T. ) ;
#15 =( NAMED_UNIT ( * ) SI_UNIT ( $, .STERADIAN. ) SOLID_ANGLE_UNIT ( ) );
#16 = AXIS2_PLACEMENT_3D ( 'NONE', #64, #180, #83 ) ;
#17 = ORIENTED_EDGE ( 'NONE', *, *, #23, .T. ) ;
#18 = CARTESIAN_POINT ( 'NONE',  ( 0.0000000000000000000, 0.0000000000000000000, 2.484999999999999876 ) ) ;
#19 = LENGTH_MEASURE_WITH_UNIT ( LENGTH_MEASURE( 0.02539999999999999897 ), #7 );
#20 = EDGE_LOOP ( 'NONE', ( #195, #280, #147, #55 ) ) ;
#21 = AXIS2_PLACEMENT_3D ( 'NONE', #92, #218, #262 ) ;
#22 = ORIENTED_EDGE ( 'NONE', *, *, #43, .F. ) ;
#23 = EDGE_CURVE ( 'NONE', #276, #51, #138, .T. ) ;
#24 = DIRECTION ( 'NONE',  ( -1.224646799147353207E-16, -0.0000000000000000000, -1.000000000000000000 ) ) ;
#25 = ORIENTED_EDGE ( 'NONE', *, *, #70, .T. ) ;
#26 = PRODUCT_DEFINITION_FORMATION_WITH_SPECIFIED_SOURCE ( 'ANY', '', #144, .NOT_KNOWN. ) ;
#27 = ORIENTED_EDGE ( 'NONE', *, *, #203, .T. ) ;
#28 = ADVANCED_FACE ( 'NONE', ( #85 ), #270, .T. ) ;
#29 = VERTEX_POINT ( 'NONE', #13 ) ;
#30 = EDGE_CURVE ( 'NONE', #276, #46, #288, .T. ) ;
#31 = AXIS2_PLACEMENT_3D ( 'NONE', #107, #238, #205 ) ;
#32 = CARTESIAN_POINT ( 'NONE',  ( -0.2185312499999998714, 2.676235958261700427E-17, 1.000000000000000000 ) ) ;
#33 = CARTESIAN_POINT ( 'NONE',  ( 0.0000000000000000000, 0.0000000000000000000, 0.0000000000000000000 ) ) ;
#34 = DIRECTION ( 'NONE',  ( -1.000000000000000000, 0.0000000000000000000, 0.0000000000000000000 ) ) ;
#35 = DIRECTION ( 'NONE',  ( -1.000000000000000000, 0.0000000000000000000, 0.0000000000000000000 ) ) ;
#36 = DIRECTION ( 'NONE',  ( -1.224646799147353207E-16, -0.0000000000000000000, -1.000000000000000000 ) ) ;
#37 = CARTESIAN_POINT ( 'NONE',  ( 0.2187500000000000000, 2.678914873134835064E-17, 2.484999999999999876 ) ) ;
#38 = CIRCLE ( 'NONE', #279, 0.2185312500000000102 ) ;
#39 = DIRECTION ( 'NONE',  ( 1.000000000000000000, 0.0000000000000000000, 0.0000000000000000000 ) ) ;
#40 = ADVANCED_FACE ( 'NONE', ( #103 ), #177, .T. ) ;
#41 = FACE_OUTER_BOUND ( 'NONE', #189, .T. ) ;
#42 = DIRECTION ( 'NONE',  ( -1.224646799147353207E-16, -0.0000000000000000000, -1.000000000000000000 ) ) ;
#43 = EDGE_CURVE ( 'NONE', #148, #29, #145, .T. ) ;
#44 = CARTESIAN_POINT ( 'NONE',  ( 0.2037499999999991263, 2.587066363198777614E-17, 2.500000000000000000 ) ) ;
#45 = PRESENTATION_LAYER_ASSIGNMENT (  '', '', ( #52 ) ) ;
#46 = VERTEX_POINT ( 'NONE', #245 ) ;
#47 =( NAMED_UNIT ( * ) PLANE_ANGLE_UNIT ( ) SI_UNIT ( $, .RADIAN. ) );
#48 = ADVANCED_FACE ( 'NONE', ( #41 ), #289, .T. ) ;
#49 = AXIS2_PLACEMENT_3D ( 'NONE', #206, #248, #108 ) ;
#50 = EDGE_LOOP ( 'NONE', ( #231, #225 ) ) ;
#51 = VERTEX_POINT ( 'NONE', #37 ) ;
#52 = STYLED_ITEM ( 'NONE', ( #239 ), #59 ) ;
#53 = EDGE_CURVE ( 'NONE', #51, #148, #111, .T. ) ;
#54 = ORIENTED_EDGE ( 'NONE', *, *, #265, .T. ) ;
#55 = ORIENTED_EDGE ( 'NONE', *, *, #43, .T. ) ;
#56 =( CONVERSION_BASED_UNIT ( 'INCH', #62 ) LENGTH_UNIT ( ) NAMED_UNIT ( #232 ) );
#57 = DIRECTION ( 'NONE',  ( -0.1736481776669311916, 2.126576849575783316E-17, 0.9848077530122080203 ) ) ;
#58 = DIRECTION ( 'NONE',  ( -0.0000000000000000000, -0.0000000000000000000, -1.000000000000000000 ) ) ;
#59 = MANIFOLD_SOLID_BREP ( 'Cut-Revolve1', #150 ) ;
#60 = AXIS2_PLACEMENT_3D ( 'NONE', #66, #161, #244 ) ;
#61 = DIRECTION ( 'NONE',  ( 1.000000000000000000, 0.0000000000000000000, 0.0000000000000000000 ) ) ;
#62 = LENGTH_MEASURE_WITH_UNIT ( LENGTH_MEASURE( 0.02539999999999999897 ), #146 );
#63 = FACE_OUTER_BOUND ( 'NONE', #75, .T. ) ;
#64 = CARTESIAN_POINT ( 'NONE',  ( 0.0000000000000000000, 0.0000000000000000000, 2.500000000000000000 ) ) ;
#65 = SURFACE_STYLE_FILL_AREA ( #268 ) ;
#66 = CARTESIAN_POINT ( 'NONE',  ( 1.224646799147353207E-16, 0.0000000000000000000, 1.000000000000000000 ) ) ;
#67 = CIRCLE ( 'NONE', #166, 0.2185312500000000102 ) ;
#68 = CARTESIAN_POINT ( 'NONE',  ( 0.0000000000000000000, 0.0000000000000000000, 0.0000000000000000000 ) ) ;
#69 = DIRECTION ( 'NONE',  ( -1.224646799147353207E-16, -0.0000000000000000000, -1.000000000000000000 ) ) ;
#70 = EDGE_CURVE ( 'NONE', #164, #173, #127, .T. ) ;
#71 = CARTESIAN_POINT ( 'NONE',  ( 0.0000000000000000000, 0.0000000000000000000, 2.484999999999999876 ) ) ;
#72 = VECTOR ( 'NONE', #241, 39.37007874015747433 ) ;
#73 = DIRECTION ( 'NONE',  ( 0.1736481776669313859, 0.0000000000000000000, 0.9848077530122077983 ) ) ;
#74 = AXIS2_PLACEMENT_3D ( 'NONE', #68, #199, #10 ) ;
#75 = EDGE_LOOP ( 'NONE', ( #54, #273, #140, #228 ) ) ;
#76 = DIMENSIONAL_EXPONENTS ( 1.000000000000000000, 0.0000000000000000000, 0.0000000000000000000, 0.0000000000000000000, 0.0000000000000000000, 0.0000000000000000000, 0.0000000000000000000 ) ;
#77 = EDGE_CURVE ( 'NONE', #295, #173, #251, .T. ) ;
#78 = ORIENTED_EDGE ( 'NONE', *, *, #203, .F. ) ;
#79 = CONICAL_SURFACE ( 'NONE', #60, 0.2185312500000000102, 0.1745329251994338915 ) ;
#80 = STYLED_ITEM ( 'NONE', ( #109 ), #250 ) ;
#81 = ORIENTED_EDGE ( 'NONE', *, *, #249, .T. ) ;
#82 = CARTESIAN_POINT ( 'NONE',  ( -0.2185312500000000102, 0.0000000000000000000, 5.352471916523400854E-17 ) ) ;
#83 = DIRECTION ( 'NONE',  ( 1.000000000000000000, 0.0000000000000000000, 0.0000000000000000000 ) ) ;
#84 = DIRECTION ( 'NONE',  ( 1.000000000000000000, 0.0000000000000000000, -0.0000000000000000000 ) ) ;
#85 = FACE_OUTER_BOUND ( 'NONE', #197, .T. ) ;
#86 = ADVANCED_FACE ( 'NONE', ( #139 ), #256, .T. ) ;
#87 = CIRCLE ( 'NONE', #281, 0.2185312500000000102 ) ;
#88 = DIRECTION ( 'NONE',  ( -1.000000000000000000, 0.0000000000000000000, 1.224646799147353207E-16 ) ) ;
#89 = UNCERTAINTY_MEASURE_WITH_UNIT (LENGTH_MEASURE( 1.000000000000000082E-05 ), #185, 'distance_accuracy_value', 'NONE');
#90 = EDGE_CURVE ( 'NONE', #257, #29, #128, .T. ) ;
#91 =( LENGTH_UNIT ( ) NAMED_UNIT ( * ) SI_UNIT ( $, .METRE. ) );
#92 = CARTESIAN_POINT ( 'NONE',  ( 0.0000000000000000000, 0.0000000000000000000, 2.500000000000000000 ) ) ;
#93 = AXIS2_PLACEMENT_3D ( 'NONE', #247, #130, #286 ) ;
#94 = ADVANCED_FACE ( 'NONE', ( #63 ), #163, .T. ) ;
#95 = PRODUCT_DEFINITION_SHAPE ( 'NONE', 'NONE',  #217 ) ;
#96 = ORIENTED_EDGE ( 'NONE', *, *, #90, .T. ) ;
#97 = ORIENTED_EDGE ( 'NONE', *, *, #77, .F. ) ;
#98 = EDGE_CURVE ( 'NONE', #46, #276, #132, .T. ) ;
#99 = ORIENTED_EDGE ( 'NONE', *, *, #149, .T. ) ;
#100 = DIRECTION ( 'NONE',  ( 1.000000000000000000, 0.0000000000000000000, -0.0000000000000000000 ) ) ;
#101 = FILL_AREA_STYLE ('',( #220 ) ) ;
#102 = DIRECTION ( 'NONE',  ( 1.224646799147353207E-16, 0.0000000000000000000, 1.000000000000000000 ) ) ;
#103 = FACE_OUTER_BOUND ( 'NONE', #151, .T. ) ;
#104 =( NAMED_UNIT ( * ) SI_UNIT ( $, .STERADIAN. ) SOLID_ANGLE_UNIT ( ) );
#105 = CARTESIAN_POINT ( 'NONE',  ( -0.2185312499999998714, 2.677575415698267899E-17, 1.000000000000000000 ) ) ;
#106 = ADVANCED_FACE ( 'NONE', ( #204 ), #137, .T. ) ;
#107 = CARTESIAN_POINT ( 'NONE',  ( 0.0000000000000000000, 0.0000000000000000000, 2.500000000000000000 ) ) ;
#108 = DIRECTION ( 'NONE',  ( 1.000000000000000000, 0.0000000000000000000, 0.0000000000000000000 ) ) ;
#109 = PRESENTATION_STYLE_ASSIGNMENT (( #11 ) ) ;
#110 = CARTESIAN_POINT ( 'NONE',  ( 3.277443800048241261E-33, 0.0000000000000000000, 2.676235958261700427E-17 ) ) ;
#111 = LINE ( 'NONE', #292, #9 ) ;
#112 = DIRECTION ( 'NONE',  ( 0.0000000000000000000, 0.0000000000000000000, -1.000000000000000000 ) ) ;
#113 = AXIS2_PLACEMENT_3D ( 'NONE', #114, #160, #34 ) ;
#114 = CARTESIAN_POINT ( 'NONE',  ( 0.0000000000000000000, 0.0000000000000000000, 2.500000000000000000 ) ) ;
#115 =( NAMED_UNIT ( * ) PLANE_ANGLE_UNIT ( ) SI_UNIT ( $, .RADIAN. ) );
#116 = AXIS2_PLACEMENT_3D ( 'NONE', #12, #102, #39 ) ;
#117 = APPLICATION_CONTEXT ( 'automotive_design' ) ;
#118 = ORIENTED_EDGE ( 'NONE', *, *, #277, .T. ) ;
#119 = EDGE_CURVE ( 'NONE', #29, #148, #171, .T. ) ;
#120 = DIRECTION ( 'NONE',  ( -1.000000000000000000, 0.0000000000000000000, 0.0000000000000000000 ) ) ;
#121 = ORIENTED_EDGE ( 'NONE', *, *, #142, .T. ) ;
#122 = AXIS2_PLACEMENT_3D ( 'NONE', #18, #252, #274 ) ;
#123 = EDGE_CURVE ( 'NONE', #46, #257, #158, .T. ) ;
#124 = VERTEX_POINT ( 'NONE', #105 ) ;
#125 = LINE ( 'NONE', #278, #190 ) ;
#126 = PRODUCT_RELATED_PRODUCT_CATEGORY ( 'part', '', ( #144 ) ) ;
#127 = CIRCLE ( 'NONE', #211, 0.2185312500000000102 ) ;
#128 = LINE ( 'NONE', #155, #263 ) ;
#129 =( NAMED_UNIT ( * ) PLANE_ANGLE_UNIT ( ) SI_UNIT ( $, .RADIAN. ) );
#130 = DIRECTION ( 'NONE',  ( -0.0000000000000000000, -0.0000000000000000000, -1.000000000000000000 ) ) ;
#131 = UNCERTAINTY_MEASURE_WITH_UNIT (LENGTH_MEASURE( 1.000000000000000082E-05 ), #56, 'distance_accuracy_value', 'NONE');
#132 = CIRCLE ( 'NONE', #21, 0.2037499999999991263 ) ;
#133 = SURFACE_SIDE_STYLE ('',( #65 ) ) ;
#134 =( GEOMETRIC_REPRESENTATION_CONTEXT ( 3 ) GLOBAL_UNCERTAINTY_ASSIGNED_CONTEXT ( ( #131 ) ) GLOBAL_UNIT_ASSIGNED_CONTEXT ( ( #56, #47, #207 ) ) REPRESENTATION_CONTEXT ( 'NONE', 'WORKASPACE' ) );
#135 = CARTESIAN_POINT ( 'NONE',  ( 0.2185312500000000102, 2.676235958261700427E-17, 0.0000000000000000000 ) ) ;
#136 = DIRECTION ( 'NONE',  ( -1.224646799147353207E-16, -0.0000000000000000000, -1.000000000000000000 ) ) ;
#137 = PLANE ( 'NONE',  #253 ) ;
#138 = LINE ( 'NONE', #5, #143 ) ;
#139 = FACE_OUTER_BOUND ( 'NONE', #194, .T. ) ;
#140 = ORIENTED_EDGE ( 'NONE', *, *, #119, .F. ) ;
#141 = ADVANCED_FACE ( 'NONE', ( #176 ), #198, .F. ) ;
#142 = EDGE_CURVE ( 'NONE', #173, #164, #38, .T. ) ;
#143 = VECTOR ( 'NONE', #182, 39.37007874015747433 ) ;
#144 = PRODUCT ( 'Micro_GEM-437-4X', 'Micro_GEM-437-4X', '', ( #201 ) ) ;
#145 = CIRCLE ( 'NONE', #49, 0.2187500000000000000 ) ;
#146 =( LENGTH_UNIT ( ) NAMED_UNIT ( * ) SI_UNIT ( $, .METRE. ) );
#147 = ORIENTED_EDGE ( 'NONE', *, *, #14, .T. ) ;
#148 = VERTEX_POINT ( 'NONE', #285 ) ;
#149 = EDGE_CURVE ( 'NONE', #124, #29, #179, .T. ) ;
#150 = CLOSED_SHELL ( 'NONE', ( #28, #237, #86, #94, #40, #106, #191, #230, #48, #141 ) ) ;
#151 = EDGE_LOOP ( 'NONE', ( #1, #118, #96, #22 ) ) ;
#152 = VECTOR ( 'NONE', #57, 39.37007874015747433 ) ;
#153 = COLOUR_RGB ( '',0.7921568627450980005, 0.8196078431372548767, 0.9333333333333333481 ) ;
#154 = EDGE_LOOP ( 'NONE', ( #25, #121 ) ) ;
#155 = CARTESIAN_POINT ( 'NONE',  ( -0.2187500000000000000, 0.0000000000000000000, 2.500000000000000000 ) ) ;
#156 = SURFACE_STYLE_FILL_AREA ( #101 ) ;
#157 = AXIS2_PLACEMENT_3D ( 'NONE', #261, #136, #223 ) ;
#158 = LINE ( 'NONE', #8, #72 ) ;
#159 = SURFACE_STYLE_USAGE ( .BOTH. , #264 ) ;
#160 = DIRECTION ( 'NONE',  ( 0.0000000000000000000, 0.0000000000000000000, -1.000000000000000000 ) ) ;
#161 = DIRECTION ( 'NONE',  ( 1.224646799147353207E-16, 0.0000000000000000000, 1.000000000000000000 ) ) ;
#162 =( GEOMETRIC_REPRESENTATION_CONTEXT ( 3 ) GLOBAL_UNCERTAINTY_ASSIGNED_CONTEXT ( ( #89 ) ) GLOBAL_UNIT_ASSIGNED_CONTEXT ( ( #185, #115, #15 ) ) REPRESENTATION_CONTEXT ( 'NONE', 'WORKASPACE' ) );
#163 = CYLINDRICAL_SURFACE ( 'NONE', #93, 0.2187500000000000000 ) ;
#164 = VERTEX_POINT ( 'NONE', #82 ) ;
#165 = APPLICATION_CONTEXT ( 'automotive_design' ) ;
#166 = AXIS2_PLACEMENT_3D ( 'NONE', #169, #24, #120 ) ;
#167 = ORIENTED_EDGE ( 'NONE', *, *, #98, .F. ) ;
#168 = CARTESIAN_POINT ( 'NONE',  ( 0.2185312500000001490, 0.0000000000000000000, 1.000000000000000000 ) ) ;
#169 = CARTESIAN_POINT ( 'NONE',  ( 1.224646799147353207E-16, 0.0000000000000000000, 1.000000000000000000 ) ) ;
#170 = DIRECTION ( 'NONE',  ( 1.000000000000000000, 0.0000000000000000000, 0.0000000000000000000 ) ) ;
#171 = CIRCLE ( 'NONE', #196, 0.2187500000000000000 ) ;
#172 = MECHANICAL_DESIGN_GEOMETRIC_PRESENTATION_REPRESENTATION (  '', ( #80 ), #212 ) ;
#173 = VERTEX_POINT ( 'NONE', #135 ) ;
#174 = LINE ( 'NONE', #260, #275 ) ;
#175 = CARTESIAN_POINT ( 'NONE',  ( 0.0000000000000000000, 0.0000000000000000000, 2.500000000000000000 ) ) ;
#176 = FACE_OUTER_BOUND ( 'NONE', #154, .T. ) ;
#177 = CYLINDRICAL_SURFACE ( 'NONE', #236, 0.2187500000000000000 ) ;
#178 = CIRCLE ( 'NONE', #209, 0.2187500000000000000 ) ;
#179 = LINE ( 'NONE', #32, #152 ) ;
#180 = DIRECTION ( 'NONE',  ( 0.0000000000000000000, 0.0000000000000000000, 1.000000000000000000 ) ) ;
#181 = UNCERTAINTY_MEASURE_WITH_UNIT (LENGTH_MEASURE( 1.000000000000000082E-05 ), #3, 'distance_accuracy_value', 'NONE');
#182 = DIRECTION ( 'NONE',  ( 0.7071067811865621167, 8.659560562355110352E-17, -0.7071067811865330288 ) ) ;
#183 = CARTESIAN_POINT ( 'NONE',  ( 1.226166087268984330E-16, 0.0000000000000000000, 1.001240592898041237 ) ) ;
#184 = CARTESIAN_POINT ( 'NONE',  ( -0.2187500000000000000, 0.0000000000000000000, 2.484999999999999876 ) ) ;
#185 =( CONVERSION_BASED_UNIT ( 'INCH', #19 ) LENGTH_UNIT ( ) NAMED_UNIT ( #76 ) );
#186 = CARTESIAN_POINT ( 'NONE',  ( 0.2185312500000000102, 2.676235958261700427E-17, -2.676235958261700427E-17 ) ) ;
#187 = CONICAL_SURFACE ( 'NONE', #31, 0.2037499999999991263, 0.7853981633974688181 ) ;
#188 = ORIENTED_EDGE ( 'NONE', *, *, #14, .F. ) ;
#189 = EDGE_LOOP ( 'NONE', ( #97, #81, #27, #255 ) ) ;
#190 = VECTOR ( 'NONE', #73, 39.37007874015748143 ) ;
#191 = ADVANCED_FACE ( 'NONE', ( #267 ), #187, .T. ) ;
#192 = COLOUR_RGB ( '',0.7921568627450980005, 0.8196078431372548767, 0.9333333333333333481 ) ;
#193 = ORIENTED_EDGE ( 'NONE', *, *, #277, .F. ) ;
#194 = EDGE_LOOP ( 'NONE', ( #214, #17, #2, #210 ) ) ;
#195 = ORIENTED_EDGE ( 'NONE', *, *, #149, .F. ) ;
#196 = AXIS2_PLACEMENT_3D ( 'NONE', #183, #6, #61 ) ;
#197 = EDGE_LOOP ( 'NONE', ( #213, #299, #254, #78 ) ) ;
#198 = PLANE ( 'NONE',  #293 ) ;
#199 = DIRECTION ( 'NONE',  ( -1.224646799147353207E-16, -0.0000000000000000000, -1.000000000000000000 ) ) ;
#200 = CARTESIAN_POINT ( 'NONE',  ( 1.224646799147353207E-16, 0.0000000000000000000, 1.000000000000000000 ) ) ;
#201 = PRODUCT_CONTEXT ( 'NONE', #117, 'mechanical' ) ;
#202 = CARTESIAN_POINT ( 'NONE',  ( 0.0000000000000000000, 0.0000000000000000000, 0.0000000000000000000 ) ) ;
#203 = EDGE_CURVE ( 'NONE', #124, #164, #174, .T. ) ;
#204 = FACE_OUTER_BOUND ( 'NONE', #50, .T. ) ;
#205 = DIRECTION ( 'NONE',  ( -1.000000000000000000, 0.0000000000000000000, 0.0000000000000000000 ) ) ;
#206 = CARTESIAN_POINT ( 'NONE',  ( 1.226166087268984330E-16, 0.0000000000000000000, 1.001240592898041237 ) ) ;
#207 =( NAMED_UNIT ( * ) SI_UNIT ( $, .STERADIAN. ) SOLID_ANGLE_UNIT ( ) );
#208 = FILL_AREA_STYLE_COLOUR ( '', #153 ) ;
#209 = AXIS2_PLACEMENT_3D ( 'NONE', #71, #112, #233 ) ;
#210 = ORIENTED_EDGE ( 'NONE', *, *, #123, .F. ) ;
#211 = AXIS2_PLACEMENT_3D ( 'NONE', #242, #69, #296 ) ;
#212 =( GEOMETRIC_REPRESENTATION_CONTEXT ( 3 ) GLOBAL_UNCERTAINTY_ASSIGNED_CONTEXT ( ( #181 ) ) GLOBAL_UNIT_ASSIGNED_CONTEXT ( ( #3, #129, #104 ) ) REPRESENTATION_CONTEXT ( 'NONE', 'WORKASPACE' ) );
#213 = ORIENTED_EDGE ( 'NONE', *, *, #298, .T. ) ;
#214 = ORIENTED_EDGE ( 'NONE', *, *, #30, .F. ) ;
#215 = AXIS2_PLACEMENT_3D ( 'NONE', #33, #240, #170 ) ;
#216 = DIRECTION ( 'NONE',  ( -1.224646799147353207E-16, -0.0000000000000000000, -1.000000000000000000 ) ) ;
#217 = PRODUCT_DEFINITION ( 'UNKNOWN', '', #26, #243 ) ;
#218 = DIRECTION ( 'NONE',  ( 0.0000000000000000000, 0.0000000000000000000, 1.000000000000000000 ) ) ;
#219 = DIRECTION ( 'NONE',  ( 0.0000000000000000000, 0.0000000000000000000, 1.000000000000000000 ) ) ;
#220 = FILL_AREA_STYLE_COLOUR ( '', #192 ) ;
#221 = MECHANICAL_DESIGN_GEOMETRIC_PRESENTATION_REPRESENTATION (  '', ( #52 ), #162 ) ;
#222 = DIRECTION ( 'NONE',  ( -1.224646799147353207E-16, -0.0000000000000000000, -1.000000000000000000 ) ) ;
#223 = DIRECTION ( 'NONE',  ( -1.000000000000000000, 0.0000000000000000000, 1.224646799147353207E-16 ) ) ;
#224 = CARTESIAN_POINT ( 'NONE',  ( 0.0000000000000000000, 0.0000000000000000000, 2.500000000000000000 ) ) ;
#225 = ORIENTED_EDGE ( 'NONE', *, *, #30, .T. ) ;
#226 = VECTOR ( 'NONE', #42, 39.37007874015748143 ) ;
#227 = ORIENTED_EDGE ( 'NONE', *, *, #119, .T. ) ;
#228 = ORIENTED_EDGE ( 'NONE', *, *, #90, .F. ) ;
#229 = EDGE_LOOP ( 'NONE', ( #283, #167, #284, #193 ) ) ;
#230 = ADVANCED_FACE ( 'NONE', ( #290 ), #79, .T. ) ;
#231 = ORIENTED_EDGE ( 'NONE', *, *, #98, .T. ) ;
#232 = DIMENSIONAL_EXPONENTS ( 1.000000000000000000, 0.0000000000000000000, 0.0000000000000000000, 0.0000000000000000000, 0.0000000000000000000, 0.0000000000000000000, 0.0000000000000000000 ) ;
#233 = DIRECTION ( 'NONE',  ( 1.000000000000000000, 0.0000000000000000000, 0.0000000000000000000 ) ) ;
#234 = ORIENTED_EDGE ( 'NONE', *, *, #298, .F. ) ;
#235 = SHAPE_DEFINITION_REPRESENTATION ( #95, #250 ) ;
#236 = AXIS2_PLACEMENT_3D ( 'NONE', #175, #269, #35 ) ;
#237 = ADVANCED_FACE ( 'NONE', ( #4 ), #246, .T. ) ;
#238 = DIRECTION ( 'NONE',  ( 0.0000000000000000000, 0.0000000000000000000, -1.000000000000000000 ) ) ;
#239 = PRESENTATION_STYLE_ASSIGNMENT (( #159 ) ) ;
#240 = DIRECTION ( 'NONE',  ( 0.0000000000000000000, 0.0000000000000000000, 1.000000000000000000 ) ) ;
#241 = DIRECTION ( 'NONE',  ( -0.7071067811865621167, 0.0000000000000000000, -0.7071067811865330288 ) ) ;
#242 = CARTESIAN_POINT ( 'NONE',  ( 3.277443800048241261E-33, 0.0000000000000000000, 2.676235958261700427E-17 ) ) ;
#243 = PRODUCT_DEFINITION_CONTEXT ( 'detailed design', #165, 'design' ) ;
#244 = DIRECTION ( 'NONE',  ( 1.000000000000000000, 0.0000000000000000000, 0.0000000000000000000 ) ) ;
#245 = CARTESIAN_POINT ( 'NONE',  ( -0.2037499999999991263, 0.0000000000000000000, 2.500000000000000000 ) ) ;
#246 = CONICAL_SURFACE ( 'NONE', #116, 0.2185312500000000102, 0.1745329251994338915 ) ;
#247 = CARTESIAN_POINT ( 'NONE',  ( 0.0000000000000000000, 0.0000000000000000000, 2.500000000000000000 ) ) ;
#248 = DIRECTION ( 'NONE',  ( -1.224646799147353207E-16, -0.0000000000000000000, -1.000000000000000000 ) ) ;
#249 = EDGE_CURVE ( 'NONE', #295, #124, #87, .T. ) ;
#250 = ADVANCED_BREP_SHAPE_REPRESENTATION ( 'Micro_GEM-437-4X', ( #59, #215 ), #134 ) ;
#251 = LINE ( 'NONE', #186, #226 ) ;
#252 = DIRECTION ( 'NONE',  ( 0.0000000000000000000, 0.0000000000000000000, -1.000000000000000000 ) ) ;
#253 = AXIS2_PLACEMENT_3D ( 'NONE', #224, #219, #84 ) ;
#254 = ORIENTED_EDGE ( 'NONE', *, *, #70, .F. ) ;
#255 = ORIENTED_EDGE ( 'NONE', *, *, #142, .F. ) ;
#256 = CONICAL_SURFACE ( 'NONE', #113, 0.2037499999999991263, 0.7853981633974688181 ) ;
#257 = VERTEX_POINT ( 'NONE', #184 ) ;
#258 = LENGTH_MEASURE_WITH_UNIT ( LENGTH_MEASURE( 0.02539999999999999897 ), #91 );
#259 = DIMENSIONAL_EXPONENTS ( 1.000000000000000000, 0.0000000000000000000, 0.0000000000000000000, 0.0000000000000000000, 0.0000000000000000000, 0.0000000000000000000, 0.0000000000000000000 ) ;
#260 = CARTESIAN_POINT ( 'NONE',  ( -0.2185312500000000102, 0.0000000000000000000, 2.676235958261700427E-17 ) ) ;
#261 = CARTESIAN_POINT ( 'NONE',  ( 0.0000000000000000000, 0.0000000000000000000, 0.0000000000000000000 ) ) ;
#262 = DIRECTION ( 'NONE',  ( 1.000000000000000000, 0.0000000000000000000, 0.0000000000000000000 ) ) ;
#263 = VECTOR ( 'NONE', #291, 39.37007874015748143 ) ;
#264 = SURFACE_SIDE_STYLE ('',( #156 ) ) ;
#265 = EDGE_CURVE ( 'NONE', #257, #51, #271, .T. ) ;
#266 = APPLICATION_PROTOCOL_DEFINITION ( 'draft international standard', 'automotive_design', 1998, #165 ) ;
#267 = FACE_OUTER_BOUND ( 'NONE', #229, .T. ) ;
#268 = FILL_AREA_STYLE ('',( #208 ) ) ;
#269 = DIRECTION ( 'NONE',  ( -0.0000000000000000000, -0.0000000000000000000, -1.000000000000000000 ) ) ;
#270 = CYLINDRICAL_SURFACE ( 'NONE', #74, 0.2185312500000000102 ) ;
#271 = CIRCLE ( 'NONE', #122, 0.2187500000000000000 ) ;
#272 = APPLICATION_PROTOCOL_DEFINITION ( 'draft international standard', 'automotive_design', 1998, #117 ) ;
#273 = ORIENTED_EDGE ( 'NONE', *, *, #53, .T. ) ;
#274 = DIRECTION ( 'NONE',  ( 1.000000000000000000, 0.0000000000000000000, 0.0000000000000000000 ) ) ;
#275 = VECTOR ( 'NONE', #216, 39.37007874015748143 ) ;
#276 = VERTEX_POINT ( 'NONE', #44 ) ;
#277 = EDGE_CURVE ( 'NONE', #51, #257, #178, .T. ) ;
#278 = CARTESIAN_POINT ( 'NONE',  ( 0.2185312500000001490, 0.0000000000000000000, 1.000000000000000000 ) ) ;
#279 = AXIS2_PLACEMENT_3D ( 'NONE', #110, #36, #88 ) ;
#280 = ORIENTED_EDGE ( 'NONE', *, *, #249, .F. ) ;
#281 = AXIS2_PLACEMENT_3D ( 'NONE', #200, #222, #294 ) ;
#282 = PRESENTATION_LAYER_ASSIGNMENT (  '', '', ( #80 ) ) ;
#283 = ORIENTED_EDGE ( 'NONE', *, *, #23, .F. ) ;
#284 = ORIENTED_EDGE ( 'NONE', *, *, #123, .T. ) ;
#285 = CARTESIAN_POINT ( 'NONE',  ( 0.2187500000000001388, 2.678914873134836913E-17, 1.001240592898041237 ) ) ;
#286 = DIRECTION ( 'NONE',  ( -1.000000000000000000, 0.0000000000000000000, 0.0000000000000000000 ) ) ;
#287 = DIRECTION ( 'NONE',  ( 0.0000000000000000000, 0.0000000000000000000, 1.000000000000000000 ) ) ;
#288 = CIRCLE ( 'NONE', #16, 0.2037499999999991263 ) ;
#289 = CYLINDRICAL_SURFACE ( 'NONE', #157, 0.2185312500000000102 ) ;
#290 = FACE_OUTER_BOUND ( 'NONE', #20, .T. ) ;
#291 = DIRECTION ( 'NONE',  ( -0.0000000000000000000, -0.0000000000000000000, -1.000000000000000000 ) ) ;
#292 = CARTESIAN_POINT ( 'NONE',  ( 0.2187500000000000000, 2.678914873134835064E-17, 2.500000000000000000 ) ) ;
#293 = AXIS2_PLACEMENT_3D ( 'NONE', #202, #287, #100 ) ;
#294 = DIRECTION ( 'NONE',  ( -1.000000000000000000, 0.0000000000000000000, 0.0000000000000000000 ) ) ;
#295 = VERTEX_POINT ( 'NONE', #168 ) ;
#296 = DIRECTION ( 'NONE',  ( -1.000000000000000000, 0.0000000000000000000, 1.224646799147353207E-16 ) ) ;
#297 = EDGE_LOOP ( 'NONE', ( #234, #99, #227, #188 ) ) ;
#298 = EDGE_CURVE ( 'NONE', #124, #295, #67, .T. ) ;
#299 = ORIENTED_EDGE ( 'NONE', *, *, #77, .T. ) ;
ENDSEC;
END-ISO-10303-21;
