ISO-10303-21;
HEADER;
FILE_DESCRIPTION (( 'STEP AP214' ),
    '1' );
FILE_NAME ('82941.STEP',
    '2023-06-23T07:08:52',
    ( '' ),
    ( '' ),
    'SwSTEP 2.0',
    'SolidWorks 2023',
    '' );
FILE_SCHEMA (( 'AUTOMOTIVE_DESIGN' ));
ENDSEC;

DATA;
#1 = DIRECTION ( 'NONE',  ( -1.000000000000000000, 0.000000000000000000, 0.000000000000000000 ) ) ;
#2 = SURFACE_SIDE_STYLE ('',( #81 ) ) ;
#3 =( CONVERSION_BASED_UNIT ( 'INCH', #164 ) LENGTH_UNIT ( ) NAMED_UNIT ( #144 ) );
#4 = ORIENTED_EDGE ( 'NONE', *, *, #50, .F. ) ;
#5 = AXIS2_PLACEMENT_3D ( 'NONE', #83, #118, #16 ) ;
#6 = EDGE_LOOP ( 'NONE', ( #157, #43, #10, #47 ) ) ;
#7 = ORIENTED_EDGE ( 'NONE', *, *, #8, .T. ) ;
#8 = EDGE_CURVE ( 'NONE', #273, #241, #278, .T. ) ;
#9 = SURFACE_SIDE_STYLE ('',( #167 ) ) ;
#10 = ORIENTED_EDGE ( 'NONE', *, *, #280, .F. ) ;
#11 = AXIS2_PLACEMENT_3D ( 'NONE', #136, #187, #270 ) ;
#12 = FILL_AREA_STYLE_COLOUR ( '', #302 ) ;
#13 = PRESENTATION_STYLE_ASSIGNMENT (( #29 ) ) ;
#14 = DIRECTION ( 'NONE',  ( 6.756671995295745615E-17, 1.000000000000000000, -0.000000000000000000 ) ) ;
#15 =( LENGTH_UNIT ( ) NAMED_UNIT ( * ) SI_UNIT ( $, .METRE. ) );
#16 = DIRECTION ( 'NONE',  ( 0.000000000000000000, 0.000000000000000000, -1.000000000000000000 ) ) ;
#17 = SURFACE_STYLE_USAGE ( .BOTH. , #76 ) ;
#18 = CARTESIAN_POINT ( 'NONE',  ( 0.1250000000000000278, 4.000000000000000000, 0.000000000000000000 ) ) ;
#19 = CARTESIAN_POINT ( 'NONE',  ( 2.449293598294707400E-16, 4.000000000000000000, 0.000000000000000000 ) ) ;
#20 =( CONVERSION_BASED_UNIT ( 'INCH', #175 ) LENGTH_UNIT ( ) NAMED_UNIT ( #123 ) );
#21 = APPLICATION_PROTOCOL_DEFINITION ( 'draft international standard', 'automotive_design', 1998, #253 ) ;
#22 =( NAMED_UNIT ( * ) SI_UNIT ( $, .STERADIAN. ) SOLID_ANGLE_UNIT ( ) );
#23 = ORIENTED_EDGE ( 'NONE', *, *, #242, .T. ) ;
#24 = EDGE_LOOP ( 'NONE', ( #109, #220, #245, #163 ) ) ;
#25 = PLANE ( 'NONE',  #51 ) ;
#26 = FILL_AREA_STYLE ('',( #286 ) ) ;
#27 = SURFACE_SIDE_STYLE ('',( #254 ) ) ;
#28 = DIRECTION ( 'NONE',  ( 0.000000000000000000, 0.000000000000000000, -1.000000000000000000 ) ) ;
#29 = SURFACE_STYLE_USAGE ( .BOTH. , #27 ) ;
#30 = DIRECTION ( 'NONE',  ( 6.756671995295745615E-17, 1.000000000000000000, -0.000000000000000000 ) ) ;
#31 = FILL_AREA_STYLE_COLOUR ( '', #39 ) ;
#32 = DIMENSIONAL_EXPONENTS ( 1.000000000000000000, 0.000000000000000000, 0.000000000000000000, 0.000000000000000000, 0.000000000000000000, 0.000000000000000000, 0.000000000000000000 ) ;
#33 = UNCERTAINTY_MEASURE_WITH_UNIT (LENGTH_MEASURE( 1.000000000000000082E-05 ), #201, 'distance_accuracy_value', 'NONE');
#34 = DIRECTION ( 'NONE',  ( 0.000000000000000000, 0.000000000000000000, -1.000000000000000000 ) ) ;
#35 = PLANE ( 'NONE',  #79 ) ;
#36 = CARTESIAN_POINT ( 'NONE',  ( 0.000000000000000000, 0.3750000000000002220, 0.000000000000000000 ) ) ;
#37 = DIRECTION ( 'NONE',  ( 0.000000000000000000, -1.000000000000000000, -0.000000000000000000 ) ) ;
#38 = PRESENTATION_STYLE_ASSIGNMENT (( #309 ) ) ;
#39 = COLOUR_RGB ( '',1.000000000000000000, 0.000000000000000000, 0.000000000000000000 ) ;
#40 = ADVANCED_BREP_SHAPE_REPRESENTATION ( '82941', ( #191, #295, #217 ), #184 ) ;
#41 = EDGE_LOOP ( 'NONE', ( #155, #161 ) ) ;
#42 = PRODUCT_DEFINITION_CONTEXT ( 'detailed design', #271, 'design' ) ;
#43 = ORIENTED_EDGE ( 'NONE', *, *, #265, .T. ) ;
#44 = VERTEX_POINT ( 'NONE', #226 ) ;
#45 = CIRCLE ( 'NONE', #140, 0.1250000000000000000 ) ;
#46 =( GEOMETRIC_REPRESENTATION_CONTEXT ( 3 ) GLOBAL_UNCERTAINTY_ASSIGNED_CONTEXT ( ( #88 ) ) GLOBAL_UNIT_ASSIGNED_CONTEXT ( ( #3, #139, #275 ) ) REPRESENTATION_CONTEXT ( 'NONE', 'WORKASPACE' ) );
#47 = ORIENTED_EDGE ( 'NONE', *, *, #8, .F. ) ;
#48 = PRESENTATION_STYLE_ASSIGNMENT (( #294 ) ) ;
#49 =( CONVERSION_BASED_UNIT ( 'INCH', #200 ) LENGTH_UNIT ( ) NAMED_UNIT ( #147 ) );
#50 = EDGE_CURVE ( 'NONE', #44, #288, #45, .T. ) ;
#51 = AXIS2_PLACEMENT_3D ( 'NONE', #197, #300, #170 ) ;
#52 =( GEOMETRIC_REPRESENTATION_CONTEXT ( 3 ) GLOBAL_UNCERTAINTY_ASSIGNED_CONTEXT ( ( #82 ) ) GLOBAL_UNIT_ASSIGNED_CONTEXT ( ( #255, #121, #235 ) ) REPRESENTATION_CONTEXT ( 'NONE', 'WORKASPACE' ) );
#53 = CARTESIAN_POINT ( 'NONE',  ( 2.449293598294707400E-16, 4.000000000000000000, 0.000000000000000000 ) ) ;
#54 = DIRECTION ( 'NONE',  ( 0.000000000000000000, 0.000000000000000000, -1.000000000000000000 ) ) ;
#55 = DIRECTION ( 'NONE',  ( -0.000000000000000000, -1.000000000000000000, -0.000000000000000000 ) ) ;
#56 = CARTESIAN_POINT ( 'NONE',  ( 1.530808498934191509E-17, 0.3750000000000002220, 0.1250000000000000000 ) ) ;
#57 = PRESENTATION_LAYER_ASSIGNMENT (  '', '', ( #149 ) ) ;
#58 = PRESENTATION_LAYER_ASSIGNMENT (  '', '', ( #237 ) ) ;
#59 = DIRECTION ( 'NONE',  ( -6.756671995295745615E-17, -1.000000000000000000, 0.000000000000000000 ) ) ;
#60 = DIRECTION ( 'NONE',  ( 6.756671995295745615E-17, 1.000000000000000000, -0.000000000000000000 ) ) ;
#61 = CARTESIAN_POINT ( 'NONE',  ( -0.1249999999999996531, 4.000000000000000000, 0.000000000000000000 ) ) ;
#62 = AXIS2_PLACEMENT_3D ( 'NONE', #53, #30, #116 ) ;
#63 = CARTESIAN_POINT ( 'NONE',  ( 2.449293598294707400E-16, 4.000000000000000000, 0.000000000000000000 ) ) ;
#64 = ORIENTED_EDGE ( 'NONE', *, *, #126, .T. ) ;
#65 = ORIENTED_EDGE ( 'NONE', *, *, #307, .T. ) ;
#66 = VECTOR ( 'NONE', #124, 39.37007874015748143 ) ;
#67 = CIRCLE ( 'NONE', #85, 0.1250000000000000000 ) ;
#68 = CYLINDRICAL_SURFACE ( 'NONE', #62, 0.1249999999999999029 ) ;
#69 = DIRECTION ( 'NONE',  ( -1.000000000000000000, 0.000000000000000000, 0.000000000000000000 ) ) ;
#70 =( NAMED_UNIT ( * ) SI_UNIT ( $, .STERADIAN. ) SOLID_ANGLE_UNIT ( ) );
#71 = MECHANICAL_DESIGN_GEOMETRIC_PRESENTATION_REPRESENTATION (  '', ( #149 ), #52 ) ;
#72 = SURFACE_STYLE_USAGE ( .BOTH. , #228 ) ;
#73 = PRESENTATION_STYLE_ASSIGNMENT (( #165 ) ) ;
#74 = ADVANCED_FACE ( 'NONE', ( #225 ), #93, .T. ) ;
#75 = AXIS2_PLACEMENT_3D ( 'NONE', #18, #59, #258 ) ;
#76 = SURFACE_SIDE_STYLE ('',( #257 ) ) ;
#77 = CARTESIAN_POINT ( 'NONE',  ( 0.1250000000000000000, 0.3750000000000002220, 1.530808498934190893E-17 ) ) ;
#78 = AXIS2_PLACEMENT_3D ( 'NONE', #36, #122, #181 ) ;
#79 = AXIS2_PLACEMENT_3D ( 'NONE', #303, #173, #281 ) ;
#80 = CARTESIAN_POINT ( 'NONE',  ( 0.000000000000000000, 0.000000000000000000, -0.1250000000000000000 ) ) ;
#81 = SURFACE_STYLE_FILL_AREA ( #104 ) ;
#82 = UNCERTAINTY_MEASURE_WITH_UNIT (LENGTH_MEASURE( 1.000000000000000082E-05 ), #255, 'distance_accuracy_value', 'NONE');
#83 = CARTESIAN_POINT ( 'NONE',  ( 0.000000000000000000, 0.3750000000000002220, 0.000000000000000000 ) ) ;
#84 = FACE_OUTER_BOUND ( 'NONE', #6, .T. ) ;
#85 = AXIS2_PLACEMENT_3D ( 'NONE', #232, #55, #256 ) ;
#86 = ORIENTED_EDGE ( 'NONE', *, *, #242, .F. ) ;
#87 = ADVANCED_FACE ( 'NONE', ( #110 ), #25, .T. ) ;
#88 = UNCERTAINTY_MEASURE_WITH_UNIT (LENGTH_MEASURE( 1.000000000000000082E-05 ), #3, 'distance_accuracy_value', 'NONE');
#89 = STYLED_ITEM ( 'NONE', ( #153 ), #191 ) ;
#90 = LENGTH_MEASURE_WITH_UNIT ( LENGTH_MEASURE( 0.02539999999999999897 ), #113 );
#91 = CARTESIAN_POINT ( 'NONE',  ( 0.000000000000000000, 0.000000000000000000, 0.000000000000000000 ) ) ;
#92 = SURFACE_STYLE_FILL_AREA ( #114 ) ;
#93 = CYLINDRICAL_SURFACE ( 'NONE', #11, 0.1250000000000000000 ) ;
#94 =( LENGTH_UNIT ( ) NAMED_UNIT ( * ) SI_UNIT ( $, .METRE. ) );
#95 = PLANE ( 'NONE',  #75 ) ;
#96 = UNCERTAINTY_MEASURE_WITH_UNIT (LENGTH_MEASURE( 1.000000000000000082E-05 ), #240, 'distance_accuracy_value', 'NONE');
#97 = CARTESIAN_POINT ( 'NONE',  ( 0.000000000000000000, 0.000000000000000000, 0.000000000000000000 ) ) ;
#98 = CARTESIAN_POINT ( 'NONE',  ( 0.1250000000000001388, 4.000000000000000000, 1.530808498934190276E-17 ) ) ;
#99 = DIRECTION ( 'NONE',  ( 6.756671995295745615E-17, 1.000000000000000000, -0.000000000000000000 ) ) ;
#100 = AXIS2_PLACEMENT_3D ( 'NONE', #208, #180, #54 ) ;
#101 = AXIS2_PLACEMENT_3D ( 'NONE', #97, #207, #305 ) ;
#102 = EDGE_CURVE ( 'NONE', #288, #44, #297, .T. ) ;
#103 = FACE_OUTER_BOUND ( 'NONE', #291, .T. ) ;
#104 = FILL_AREA_STYLE ('',( #263 ) ) ;
#105 = COLOUR_RGB ( '',0.7921568627450980005, 0.8196078431372548767, 0.9333333333333333481 ) ;
#106 = PRODUCT_DEFINITION_SHAPE ( 'NONE', 'NONE',  #266 ) ;
#107 = EDGE_LOOP ( 'NONE', ( #222, #267, #86, #112 ) ) ;
#108 = MECHANICAL_DESIGN_GEOMETRIC_PRESENTATION_REPRESENTATION (  '', ( #237 ), #46 ) ;
#109 = ORIENTED_EDGE ( 'NONE', *, *, #239, .F. ) ;
#110 = FACE_OUTER_BOUND ( 'NONE', #41, .T. ) ;
#111 = PRODUCT_CONTEXT ( 'NONE', #253, 'mechanical' ) ;
#112 = ORIENTED_EDGE ( 'NONE', *, *, #189, .F. ) ;
#113 =( LENGTH_UNIT ( ) NAMED_UNIT ( * ) SI_UNIT ( $, .METRE. ) );
#114 = FILL_AREA_STYLE ('',( #31 ) ) ;
#115 = PRESENTATION_LAYER_ASSIGNMENT (  '', '', ( #276 ) ) ;
#116 = DIRECTION ( 'NONE',  ( -1.000000000000000000, 0.000000000000000000, 0.000000000000000000 ) ) ;
#117 = PRESENTATION_STYLE_ASSIGNMENT (( #72 ) ) ;
#118 = DIRECTION ( 'NONE',  ( -0.000000000000000000, -1.000000000000000000, -0.000000000000000000 ) ) ;
#119 = LENGTH_MEASURE_WITH_UNIT ( LENGTH_MEASURE( 0.02539999999999999897 ), #260 );
#120 =( GEOMETRIC_REPRESENTATION_CONTEXT ( 3 ) GLOBAL_UNCERTAINTY_ASSIGNED_CONTEXT ( ( #96 ) ) GLOBAL_UNIT_ASSIGNED_CONTEXT ( ( #240, #129, #178 ) ) REPRESENTATION_CONTEXT ( 'NONE', 'WORKASPACE' ) );
#121 =( NAMED_UNIT ( * ) PLANE_ANGLE_UNIT ( ) SI_UNIT ( $, .RADIAN. ) );
#122 = DIRECTION ( 'NONE',  ( 6.756671995295745615E-17, 1.000000000000000000, -0.000000000000000000 ) ) ;
#123 = DIMENSIONAL_EXPONENTS ( 1.000000000000000000, 0.000000000000000000, 0.000000000000000000, 0.000000000000000000, 0.000000000000000000, 0.000000000000000000, 0.000000000000000000 ) ;
#124 = DIRECTION ( 'NONE',  ( 6.756671995295745615E-17, 1.000000000000000000, -0.000000000000000000 ) ) ;
#125 = UNCERTAINTY_MEASURE_WITH_UNIT (LENGTH_MEASURE( 1.000000000000000082E-05 ), #49, 'distance_accuracy_value', 'NONE');
#126 = EDGE_CURVE ( 'NONE', #243, #133, #236, .T. ) ;
#127 = FILL_AREA_STYLE ('',( #238 ) ) ;
#128 = COLOUR_RGB ( '',0.7921568627450980005, 0.8196078431372548767, 0.9333333333333333481 ) ;
#129 =( NAMED_UNIT ( * ) PLANE_ANGLE_UNIT ( ) SI_UNIT ( $, .RADIAN. ) );
#130 = EDGE_LOOP ( 'NONE', ( #218, #224, #7, #264 ) ) ;
#131 = PRESENTATION_LAYER_ASSIGNMENT (  '', '', ( #246 ) ) ;
#132 = EDGE_LOOP ( 'NONE', ( #185, #65 ) ) ;
#133 = VERTEX_POINT ( 'NONE', #151 ) ;
#134 = PRODUCT_RELATED_PRODUCT_CATEGORY ( 'part', '', ( #274 ) ) ;
#135 = DIRECTION ( 'NONE',  ( -1.000000000000000000, 0.000000000000000000, 0.000000000000000000 ) ) ;
#136 = CARTESIAN_POINT ( 'NONE',  ( 0.000000000000000000, 0.000000000000000000, 0.000000000000000000 ) ) ;
#137 = APPLICATION_PROTOCOL_DEFINITION ( 'draft international standard', 'automotive_design', 1998, #271 ) ;
#138 = VERTEX_POINT ( 'NONE', #211 ) ;
#139 =( NAMED_UNIT ( * ) PLANE_ANGLE_UNIT ( ) SI_UNIT ( $, .RADIAN. ) );
#140 = AXIS2_PLACEMENT_3D ( 'NONE', #142, #14, #69 ) ;
#141 = PRODUCT_DEFINITION_FORMATION_WITH_SPECIFIED_SOURCE ( 'ANY', '', #274, .NOT_KNOWN. ) ;
#142 = CARTESIAN_POINT ( 'NONE',  ( 0.000000000000000000, 0.3750000000000002220, 0.000000000000000000 ) ) ;
#143 = CARTESIAN_POINT ( 'NONE',  ( 0.000000000000000000, 0.000000000000000000, -0.1250000000000000000 ) ) ;
#144 = DIMENSIONAL_EXPONENTS ( 1.000000000000000000, 0.000000000000000000, 0.000000000000000000, 0.000000000000000000, 0.000000000000000000, 0.000000000000000000, 0.000000000000000000 ) ;
#145 = FACE_OUTER_BOUND ( 'NONE', #132, .T. ) ;
#146 = CIRCLE ( 'NONE', #299, 0.1250000000000000000 ) ;
#147 = DIMENSIONAL_EXPONENTS ( 1.000000000000000000, 0.000000000000000000, 0.000000000000000000, 0.000000000000000000, 0.000000000000000000, 0.000000000000000000, 0.000000000000000000 ) ;
#148 = CARTESIAN_POINT ( 'NONE',  ( 0.000000000000000000, 0.3750000000000002220, -0.1250000000000000000 ) ) ;
#149 = STYLED_ITEM ( 'NONE', ( #13 ), #214 ) ;
#150 = LINE ( 'NONE', #61, #66 ) ;
#151 = CARTESIAN_POINT ( 'NONE',  ( -0.1249999999999995420, 4.000000000000000000, 0.000000000000000000 ) ) ;
#152 = CARTESIAN_POINT ( 'NONE',  ( 1.530808498934191509E-17, 0.000000000000000000, 0.1250000000000000000 ) ) ;
#153 = PRESENTATION_STYLE_ASSIGNMENT (( #17 ) ) ;
#154 = PRESENTATION_LAYER_ASSIGNMENT (  '', '', ( #196 ) ) ;
#155 = ORIENTED_EDGE ( 'NONE', *, *, #251, .F. ) ;
#156 = UNCERTAINTY_MEASURE_WITH_UNIT (LENGTH_MEASURE( 1.000000000000000082E-05 ), #162, 'distance_accuracy_value', 'NONE');
#157 = ORIENTED_EDGE ( 'NONE', *, *, #251, .T. ) ;
#158 = CLOSED_SHELL ( 'NONE', ( #206, #279, #194, #221 ) ) ;
#159 = MECHANICAL_DESIGN_GEOMETRIC_PRESENTATION_REPRESENTATION (  '', ( #276 ), #120 ) ;
#160 = ADVANCED_FACE ( 'NONE', ( #84 ), #284, .T. ) ;
#161 = ORIENTED_EDGE ( 'NONE', *, *, #250, .F. ) ;
#162 =( CONVERSION_BASED_UNIT ( 'INCH', #90 ) LENGTH_UNIT ( ) NAMED_UNIT ( #199 ) );
#163 = ORIENTED_EDGE ( 'NONE', *, *, #126, .F. ) ;
#164 = LENGTH_MEASURE_WITH_UNIT ( LENGTH_MEASURE( 0.02539999999999999897 ), #193 );
#165 = SURFACE_STYLE_USAGE ( .BOTH. , #296 ) ;
#166 = FILL_AREA_STYLE ('',( #229 ) ) ;
#167 = SURFACE_STYLE_FILL_AREA ( #26 ) ;
#168 = MECHANICAL_DESIGN_GEOMETRIC_PRESENTATION_REPRESENTATION (  '', ( #89 ), #202 ) ;
#169 = VECTOR ( 'NONE', #230, 39.37007874015748143 ) ;
#170 = DIRECTION ( 'NONE',  ( 0.000000000000000000, -0.000000000000000000, 1.000000000000000000 ) ) ;
#171 = DIMENSIONAL_EXPONENTS ( 1.000000000000000000, 0.000000000000000000, 0.000000000000000000, 0.000000000000000000, 0.000000000000000000, 0.000000000000000000, 0.000000000000000000 ) ;
#172 =( GEOMETRIC_REPRESENTATION_CONTEXT ( 3 ) GLOBAL_UNCERTAINTY_ASSIGNED_CONTEXT ( ( #33 ) ) GLOBAL_UNIT_ASSIGNED_CONTEXT ( ( #201, #304, #248 ) ) REPRESENTATION_CONTEXT ( 'NONE', 'WORKASPACE' ) );
#173 = DIRECTION ( 'NONE',  ( 6.756671995295745615E-17, 1.000000000000000000, -0.000000000000000000 ) ) ;
#174 = CARTESIAN_POINT ( 'NONE',  ( 0.000000000000000000, 0.000000000000000000, 0.000000000000000000 ) ) ;
#175 = LENGTH_MEASURE_WITH_UNIT ( LENGTH_MEASURE( 0.02539999999999999897 ), #233 );
#176 = CARTESIAN_POINT ( 'NONE',  ( 0.000000000000000000, 0.000000000000000000, 0.000000000000000000 ) ) ;
#177 = CLOSED_SHELL ( 'NONE', ( #160, #87, #74, #214 ) ) ;
#178 =( NAMED_UNIT ( * ) SI_UNIT ( $, .STERADIAN. ) SOLID_ANGLE_UNIT ( ) );
#179 = VECTOR ( 'NONE', #283, 39.37007874015748143 ) ;
#180 = DIRECTION ( 'NONE',  ( -0.000000000000000000, -1.000000000000000000, -0.000000000000000000 ) ) ;
#181 = DIRECTION ( 'NONE',  ( -1.000000000000000000, 0.000000000000000000, 0.000000000000000000 ) ) ;
#182 = FACE_OUTER_BOUND ( 'NONE', #24, .T. ) ;
#183 =( GEOMETRIC_REPRESENTATION_CONTEXT ( 3 ) GLOBAL_UNCERTAINTY_ASSIGNED_CONTEXT ( ( #125 ) ) GLOBAL_UNIT_ASSIGNED_CONTEXT ( ( #49, #293, #22 ) ) REPRESENTATION_CONTEXT ( 'NONE', 'WORKASPACE' ) );
#184 =( GEOMETRIC_REPRESENTATION_CONTEXT ( 3 ) GLOBAL_UNCERTAINTY_ASSIGNED_CONTEXT ( ( #156 ) ) GLOBAL_UNIT_ASSIGNED_CONTEXT ( ( #162, #272, #70 ) ) REPRESENTATION_CONTEXT ( 'NONE', 'WORKASPACE' ) );
#185 = ORIENTED_EDGE ( 'NONE', *, *, #280, .T. ) ;
#186 = DIRECTION ( 'NONE',  ( 6.756671995295745615E-17, 1.000000000000000000, -0.000000000000000000 ) ) ;
#187 = DIRECTION ( 'NONE',  ( -0.000000000000000000, -1.000000000000000000, -0.000000000000000000 ) ) ;
#188 = VERTEX_POINT ( 'NONE', #56 ) ;
#189 = EDGE_CURVE ( 'NONE', #44, #133, #150, .T. ) ;
#190 = MECHANICAL_DESIGN_GEOMETRIC_PRESENTATION_REPRESENTATION (  '', ( #246 ), #183 ) ;
#191 = MANIFOLD_SOLID_BREP ( 'Revolve - Cutting Edge', #177 ) ;
#192 = PLANE ( 'NONE',  #210 ) ;
#193 =( LENGTH_UNIT ( ) NAMED_UNIT ( * ) SI_UNIT ( $, .METRE. ) );
#194 = ADVANCED_FACE ( 'NONE', ( #182 ), #261, .T. ) ;
#195 = DIRECTION ( 'NONE',  ( 0.000000000000000000, 0.000000000000000000, 1.000000000000000000 ) ) ;
#196 = STYLED_ITEM ( 'NONE', ( #117 ), #87 ) ;
#197 = CARTESIAN_POINT ( 'NONE',  ( 0.000000000000000000, 0.3750000000000002220, 0.000000000000000000 ) ) ;
#198 = FILL_AREA_STYLE ('',( #12 ) ) ;
#199 = DIMENSIONAL_EXPONENTS ( 1.000000000000000000, 0.000000000000000000, 0.000000000000000000, 0.000000000000000000, 0.000000000000000000, 0.000000000000000000, 0.000000000000000000 ) ;
#200 = LENGTH_MEASURE_WITH_UNIT ( LENGTH_MEASURE( 0.02539999999999999897 ), #15 );
#201 =( CONVERSION_BASED_UNIT ( 'INCH', #205 ) LENGTH_UNIT ( ) NAMED_UNIT ( #234 ) );
#202 =( GEOMETRIC_REPRESENTATION_CONTEXT ( 3 ) GLOBAL_UNCERTAINTY_ASSIGNED_CONTEXT ( ( #219 ) ) GLOBAL_UNIT_ASSIGNED_CONTEXT ( ( #20, #259, #213 ) ) REPRESENTATION_CONTEXT ( 'NONE', 'WORKASPACE' ) );
#203 = FACE_OUTER_BOUND ( 'NONE', #289, .T. ) ;
#204 = CIRCLE ( 'NONE', #5, 0.1250000000000000000 ) ;
#205 = LENGTH_MEASURE_WITH_UNIT ( LENGTH_MEASURE( 0.02539999999999999897 ), #94 );
#206 = ADVANCED_FACE ( 'NONE', ( #290 ), #68, .T. ) ;
#207 = DIRECTION ( 'NONE',  ( -0.000000000000000000, -1.000000000000000000, -0.000000000000000000 ) ) ;
#208 = CARTESIAN_POINT ( 'NONE',  ( 0.000000000000000000, 0.000000000000000000, 0.000000000000000000 ) ) ;
#209 = CARTESIAN_POINT ( 'NONE',  ( 0.1250000000000000278, 4.000000000000000000, 1.530808498934190893E-17 ) ) ;
#210 = AXIS2_PLACEMENT_3D ( 'NONE', #174, #37, #34 ) ;
#211 = CARTESIAN_POINT ( 'NONE',  ( 1.530808498934191509E-17, 0.000000000000000000, 0.1250000000000000000 ) ) ;
#212 = CARTESIAN_POINT ( 'NONE',  ( 2.449293598294707400E-16, 4.000000000000000000, 0.000000000000000000 ) ) ;
#213 =( NAMED_UNIT ( * ) SI_UNIT ( $, .STERADIAN. ) SOLID_ANGLE_UNIT ( ) );
#214 = ADVANCED_FACE ( 'NONE', ( #145 ), #192, .T. ) ;
#215 = LENGTH_MEASURE_WITH_UNIT ( LENGTH_MEASURE( 0.02539999999999999897 ), #287 );
#216 = AXIS2_PLACEMENT_3D ( 'NONE', #63, #186, #135 ) ;
#217 = AXIS2_PLACEMENT_3D ( 'NONE', #91, #195, #298 ) ;
#218 = ORIENTED_EDGE ( 'NONE', *, *, #265, .F. ) ;
#219 = UNCERTAINTY_MEASURE_WITH_UNIT (LENGTH_MEASURE( 1.000000000000000082E-05 ), #20, 'distance_accuracy_value', 'NONE');
#220 = ORIENTED_EDGE ( 'NONE', *, *, #102, .T. ) ;
#221 = ADVANCED_FACE ( 'NONE', ( #103 ), #95, .F. ) ;
#222 = ORIENTED_EDGE ( 'NONE', *, *, #50, .T. ) ;
#223 = COLOUR_RGB ( '',1.000000000000000000, 0.000000000000000000, 0.000000000000000000 ) ;
#224 = ORIENTED_EDGE ( 'NONE', *, *, #250, .T. ) ;
#225 = FACE_OUTER_BOUND ( 'NONE', #130, .T. ) ;
#226 = CARTESIAN_POINT ( 'NONE',  ( -0.1250000000000000000, 0.3750000000000002220, 0.000000000000000000 ) ) ;
#227 = CIRCLE ( 'NONE', #252, 0.1249999999999997780 ) ;
#228 = SURFACE_SIDE_STYLE ('',( #92 ) ) ;
#229 = FILL_AREA_STYLE_COLOUR ( '', #223 ) ;
#230 = DIRECTION ( 'NONE',  ( -0.000000000000000000, -1.000000000000000000, -0.000000000000000000 ) ) ;
#231 = MECHANICAL_DESIGN_GEOMETRIC_PRESENTATION_REPRESENTATION (  '', ( #196 ), #172 ) ;
#232 = CARTESIAN_POINT ( 'NONE',  ( 0.000000000000000000, 0.3750000000000002220, 0.000000000000000000 ) ) ;
#233 =( LENGTH_UNIT ( ) NAMED_UNIT ( * ) SI_UNIT ( $, .METRE. ) );
#234 = DIMENSIONAL_EXPONENTS ( 1.000000000000000000, 0.000000000000000000, 0.000000000000000000, 0.000000000000000000, 0.000000000000000000, 0.000000000000000000, 0.000000000000000000 ) ;
#235 =( NAMED_UNIT ( * ) SI_UNIT ( $, .STERADIAN. ) SOLID_ANGLE_UNIT ( ) );
#236 = CIRCLE ( 'NONE', #268, 0.1249999999999997780 ) ;
#237 = STYLED_ITEM ( 'NONE', ( #48 ), #295 ) ;
#238 = FILL_AREA_STYLE_COLOUR ( '', #105 ) ;
#239 = EDGE_CURVE ( 'NONE', #288, #243, #262, .T. ) ;
#240 =( CONVERSION_BASED_UNIT ( 'INCH', #215 ) LENGTH_UNIT ( ) NAMED_UNIT ( #32 ) );
#241 = VERTEX_POINT ( 'NONE', #80 ) ;
#242 = EDGE_CURVE ( 'NONE', #133, #243, #227, .T. ) ;
#243 = VERTEX_POINT ( 'NONE', #209 ) ;
#244 = ORIENTED_EDGE ( 'NONE', *, *, #102, .F. ) ;
#245 = ORIENTED_EDGE ( 'NONE', *, *, #189, .T. ) ;
#246 = STYLED_ITEM ( 'NONE', ( #73 ), #74 ) ;
#247 = DIRECTION ( 'NONE',  ( -0.000000000000000000, -1.000000000000000000, -0.000000000000000000 ) ) ;
#248 =( NAMED_UNIT ( * ) SI_UNIT ( $, .STERADIAN. ) SOLID_ANGLE_UNIT ( ) );
#249 = DIRECTION ( 'NONE',  ( -0.000000000000000000, -1.000000000000000000, -0.000000000000000000 ) ) ;
#250 = EDGE_CURVE ( 'NONE', #188, #273, #67, .T. ) ;
#251 = EDGE_CURVE ( 'NONE', #273, #188, #204, .T. ) ;
#252 = AXIS2_PLACEMENT_3D ( 'NONE', #212, #60, #1 ) ;
#253 = APPLICATION_CONTEXT ( 'automotive_design' ) ;
#254 = SURFACE_STYLE_FILL_AREA ( #166 ) ;
#255 =( CONVERSION_BASED_UNIT ( 'INCH', #119 ) LENGTH_UNIT ( ) NAMED_UNIT ( #171 ) );
#256 = DIRECTION ( 'NONE',  ( 0.000000000000000000, 0.000000000000000000, -1.000000000000000000 ) ) ;
#257 = SURFACE_STYLE_FILL_AREA ( #127 ) ;
#258 = DIRECTION ( 'NONE',  ( 1.000000000000000000, -6.756671995295745615E-17, 0.000000000000000000 ) ) ;
#259 =( NAMED_UNIT ( * ) PLANE_ANGLE_UNIT ( ) SI_UNIT ( $, .RADIAN. ) );
#260 =( LENGTH_UNIT ( ) NAMED_UNIT ( * ) SI_UNIT ( $, .METRE. ) );
#261 = CYLINDRICAL_SURFACE ( 'NONE', #216, 0.1249999999999999029 ) ;
#262 = LINE ( 'NONE', #98, #179 ) ;
#263 = FILL_AREA_STYLE_COLOUR ( '', #306 ) ;
#264 = ORIENTED_EDGE ( 'NONE', *, *, #307, .F. ) ;
#265 = EDGE_CURVE ( 'NONE', #188, #138, #308, .T. ) ;
#266 = PRODUCT_DEFINITION ( 'UNKNOWN', '', #141, #42 ) ;
#267 = ORIENTED_EDGE ( 'NONE', *, *, #239, .T. ) ;
#268 = AXIS2_PLACEMENT_3D ( 'NONE', #19, #99, #282 ) ;
#269 = CIRCLE ( 'NONE', #101, 0.1250000000000000000 ) ;
#270 = DIRECTION ( 'NONE',  ( 0.000000000000000000, 0.000000000000000000, -1.000000000000000000 ) ) ;
#271 = APPLICATION_CONTEXT ( 'automotive_design' ) ;
#272 =( NAMED_UNIT ( * ) PLANE_ANGLE_UNIT ( ) SI_UNIT ( $, .RADIAN. ) );
#273 = VERTEX_POINT ( 'NONE', #148 ) ;
#274 = PRODUCT ( '82941', '82941', '', ( #111 ) ) ;
#275 =( NAMED_UNIT ( * ) SI_UNIT ( $, .STERADIAN. ) SOLID_ANGLE_UNIT ( ) );
#276 = STYLED_ITEM ( 'NONE', ( #38 ), #160 ) ;
#277 = SHAPE_DEFINITION_REPRESENTATION ( #106, #40 ) ;
#278 = LINE ( 'NONE', #143, #285 ) ;
#279 = ADVANCED_FACE ( 'NONE', ( #203 ), #35, .F. ) ;
#280 = EDGE_CURVE ( 'NONE', #241, #138, #269, .T. ) ;
#281 = DIRECTION ( 'NONE',  ( -1.000000000000000000, 6.756671995295745615E-17, 0.000000000000000000 ) ) ;
#282 = DIRECTION ( 'NONE',  ( -1.000000000000000000, 0.000000000000000000, 0.000000000000000000 ) ) ;
#283 = DIRECTION ( 'NONE',  ( 6.756671995295745615E-17, 1.000000000000000000, -0.000000000000000000 ) ) ;
#284 = CYLINDRICAL_SURFACE ( 'NONE', #100, 0.1250000000000000000 ) ;
#285 = VECTOR ( 'NONE', #249, 39.37007874015748143 ) ;
#286 = FILL_AREA_STYLE_COLOUR ( '', #128 ) ;
#287 =( LENGTH_UNIT ( ) NAMED_UNIT ( * ) SI_UNIT ( $, .METRE. ) );
#288 = VERTEX_POINT ( 'NONE', #77 ) ;
#289 = EDGE_LOOP ( 'NONE', ( #4, #244 ) ) ;
#290 = FACE_OUTER_BOUND ( 'NONE', #107, .T. ) ;
#291 = EDGE_LOOP ( 'NONE', ( #23, #64 ) ) ;
#292 = PRESENTATION_LAYER_ASSIGNMENT (  '', '', ( #89 ) ) ;
#293 =( NAMED_UNIT ( * ) PLANE_ANGLE_UNIT ( ) SI_UNIT ( $, .RADIAN. ) );
#294 = SURFACE_STYLE_USAGE ( .BOTH. , #9 ) ;
#295 = MANIFOLD_SOLID_BREP ( 'Revolve - Tool Body (Straight Shanked)', #158 ) ;
#296 = SURFACE_SIDE_STYLE ('',( #301 ) ) ;
#297 = CIRCLE ( 'NONE', #78, 0.1250000000000000000 ) ;
#298 = DIRECTION ( 'NONE',  ( 1.000000000000000000, 0.000000000000000000, 0.000000000000000000 ) ) ;
#299 = AXIS2_PLACEMENT_3D ( 'NONE', #176, #247, #28 ) ;
#300 = DIRECTION ( 'NONE',  ( 0.000000000000000000, 1.000000000000000000, 0.000000000000000000 ) ) ;
#301 = SURFACE_STYLE_FILL_AREA ( #198 ) ;
#302 = COLOUR_RGB ( '',1.000000000000000000, 0.000000000000000000, 0.000000000000000000 ) ;
#303 = CARTESIAN_POINT ( 'NONE',  ( 2.853288528250861446E-34, 0.3750000000000002220, 0.000000000000000000 ) ) ;
#304 =( NAMED_UNIT ( * ) PLANE_ANGLE_UNIT ( ) SI_UNIT ( $, .RADIAN. ) );
#305 = DIRECTION ( 'NONE',  ( 0.000000000000000000, 0.000000000000000000, -1.000000000000000000 ) ) ;
#306 = COLOUR_RGB ( '',1.000000000000000000, 0.000000000000000000, 0.000000000000000000 ) ;
#307 = EDGE_CURVE ( 'NONE', #138, #241, #146, .T. ) ;
#308 = LINE ( 'NONE', #152, #169 ) ;
#309 = SURFACE_STYLE_USAGE ( .BOTH. , #2 ) ;
ENDSEC;
END-ISO-10303-21;
