ISO-10303-21;
HEADER;
FILE_DESCRIPTION (( 'STEP AP214' ),
    '1' );
FILE_NAME ('Micro_RSC-250-2.STEP',
    '2021-09-03T17:48:23',
    ( '' ),
    ( '' ),
    'SwSTEP 2.0',
    'SolidWorks 2020',
    '' );
FILE_SCHEMA (( 'AUTOMOTIVE_DESIGN' ));
ENDSEC;

DATA;
#1 = FACE_OUTER_BOUND ( 'NONE', #49, .T. ) ;
#2 = CONICAL_SURFACE ( 'NONE', #61, 0.003999999999999999216, 0.5235987755983005920 ) ;
#3 =( LENGTH_UNIT ( ) NAMED_UNIT ( * ) SI_UNIT ( $, .METRE. ) );
#4 = CARTESIAN_POINT ( 'NONE',  ( 0.0000000000000000000, 0.0000000000000000000, 2.500000000000000000 ) ) ;
#5 = PRODUCT_RELATED_PRODUCT_CATEGORY ( 'part', '', ( #240 ) ) ;
#6 = DIRECTION ( 'NONE',  ( 1.000000000000000000, 0.0000000000000000000, 0.0000000000000000000 ) ) ;
#7 = DIRECTION ( 'NONE',  ( -0.0000000000000000000, -0.0000000000000000000, -1.000000000000000000 ) ) ;
#8 = VERTEX_POINT ( 'NONE', #51 ) ;
#9 = ORIENTED_EDGE ( 'NONE', *, *, #169, .T. ) ;
#10 = EDGE_CURVE ( 'NONE', #223, #188, #109, .T. ) ;
#11 = CLOSED_SHELL ( 'NONE', ( #16, #135, #151, #189, #228, #59, #67, #20 ) ) ;
#12 = CONICAL_SURFACE ( 'NONE', #121, 0.003999999999999999216, 0.5235987755983005920 ) ;
#13 = LINE ( 'NONE', #213, #137 ) ;
#14 = DIRECTION ( 'NONE',  ( 1.000000000000000000, 0.0000000000000000000, -0.0000000000000000000 ) ) ;
#15 = FILL_AREA_STYLE_COLOUR ( '', #142 ) ;
#16 = ADVANCED_FACE ( 'NONE', ( #143 ), #131, .T. ) ;
#17 = DIRECTION ( 'NONE',  ( 0.0000000000000000000, 0.0000000000000000000, 1.000000000000000000 ) ) ;
#18 = AXIS2_PLACEMENT_3D ( 'NONE', #103, #56, #132 ) ;
#19 = PLANE ( 'NONE',  #158 ) ;
#20 = ADVANCED_FACE ( 'NONE', ( #77 ), #19, .T. ) ;
#21 = CARTESIAN_POINT ( 'NONE',  ( -0.003999999999999999216, -7.898971854500432266E-18, 2.500000000000000000 ) ) ;
#22 = CARTESIAN_POINT ( 'NONE',  ( 0.003999999999999999216, 0.0000000000000000000, 0.0000000000000000000 ) ) ;
#23 = EDGE_CURVE ( 'NONE', #8, #223, #13, .T. ) ;
#24 = DIRECTION ( 'NONE',  ( -0.0000000000000000000, -0.0000000000000000000, -1.000000000000000000 ) ) ;
#25 = CARTESIAN_POINT ( 'NONE',  ( -0.1250000000000000000, 0.0000000000000000000, 0.2095781477158333850 ) ) ;
#26 = PRODUCT_DEFINITION_FORMATION_WITH_SPECIFIED_SOURCE ( 'ANY', '', #240, .NOT_KNOWN. ) ;
#27 = ORIENTED_EDGE ( 'NONE', *, *, #10, .F. ) ;
#28 = ORIENTED_EDGE ( 'NONE', *, *, #31, .T. ) ;
#29 = EDGE_LOOP ( 'NONE', ( #28, #147 ) ) ;
#30 = AXIS2_PLACEMENT_3D ( 'NONE', #97, #249, #195 ) ;
#31 = EDGE_CURVE ( 'NONE', #190, #168, #215, .T. ) ;
#32 = ORIENTED_EDGE ( 'NONE', *, *, #102, .T. ) ;
#33 =( GEOMETRIC_REPRESENTATION_CONTEXT ( 3 ) GLOBAL_UNCERTAINTY_ASSIGNED_CONTEXT ( ( #88 ) ) GLOBAL_UNIT_ASSIGNED_CONTEXT ( ( #41, #160, #163 ) ) REPRESENTATION_CONTEXT ( 'NONE', 'WORKASPACE' ) );
#34 = CARTESIAN_POINT ( 'NONE',  ( 0.0000000000000000000, 0.0000000000000000000, 2.500000000000000000 ) ) ;
#35 =( NAMED_UNIT ( * ) SI_UNIT ( $, .STERADIAN. ) SOLID_ANGLE_UNIT ( ) );
#36 =( NAMED_UNIT ( * ) PLANE_ANGLE_UNIT ( ) SI_UNIT ( $, .RADIAN. ) );
#37 = DIRECTION ( 'NONE',  ( -1.000000000000000000, 0.0000000000000000000, 0.0000000000000000000 ) ) ;
#38 = CARTESIAN_POINT ( 'NONE',  ( -0.003999999999999999216, -4.898587196589411612E-19, 2.500000000000000000 ) ) ;
#39 = AXIS2_PLACEMENT_3D ( 'NONE', #57, #17, #14 ) ;
#40 = CARTESIAN_POINT ( 'NONE',  ( -0.1250000000000000000, 0.0000000000000000000, 2.500000000000000000 ) ) ;
#41 =( CONVERSION_BASED_UNIT ( 'INCH', #182 ) LENGTH_UNIT ( ) NAMED_UNIT ( #179 ) );
#42 = DIRECTION ( 'NONE',  ( -0.0000000000000000000, -0.0000000000000000000, -1.000000000000000000 ) ) ;
#43 = DIRECTION ( 'NONE',  ( 0.0000000000000000000, 0.0000000000000000000, -1.000000000000000000 ) ) ;
#44 = FILL_AREA_STYLE_COLOUR ( '', #247 ) ;
#45 = ORIENTED_EDGE ( 'NONE', *, *, #210, .T. ) ;
#46 = AXIS2_PLACEMENT_3D ( 'NONE', #222, #54, #199 ) ;
#47 = ORIENTED_EDGE ( 'NONE', *, *, #108, .F. ) ;
#48 = VERTEX_POINT ( 'NONE', #212 ) ;
#49 = EDGE_LOOP ( 'NONE', ( #47, #208, #244, #94 ) ) ;
#50 = EDGE_CURVE ( 'NONE', #188, #242, #221, .T. ) ;
#51 = CARTESIAN_POINT ( 'NONE',  ( 0.003999999999999999216, 0.0000000000000000000, 2.500000000000000000 ) ) ;
#52 = SURFACE_SIDE_STYLE ('',( #246 ) ) ;
#53 = SHAPE_DEFINITION_REPRESENTATION ( #203, #233 ) ;
#54 = DIRECTION ( 'NONE',  ( 0.0000000000000000000, 0.0000000000000000000, -1.000000000000000000 ) ) ;
#55 = AXIS2_PLACEMENT_3D ( 'NONE', #99, #98, #58 ) ;
#56 = DIRECTION ( 'NONE',  ( -0.0000000000000000000, -0.0000000000000000000, -1.000000000000000000 ) ) ;
#57 = CARTESIAN_POINT ( 'NONE',  ( 0.0000000000000000000, 0.0000000000000000000, 0.0000000000000000000 ) ) ;
#58 = DIRECTION ( 'NONE',  ( 1.000000000000000000, 0.0000000000000000000, 0.0000000000000000000 ) ) ;
#59 = ADVANCED_FACE ( 'NONE', ( #154 ), #170, .F. ) ;
#60 = CARTESIAN_POINT ( 'NONE',  ( 0.0000000000000000000, 0.0000000000000000000, 2.290421852284166615 ) ) ;
#61 = AXIS2_PLACEMENT_3D ( 'NONE', #177, #220, #6 ) ;
#62 = DIRECTION ( 'NONE',  ( 0.0000000000000000000, 0.0000000000000000000, 1.000000000000000000 ) ) ;
#63 = APPLICATION_PROTOCOL_DEFINITION ( 'draft international standard', 'automotive_design', 1998, #113 ) ;
#64 = CARTESIAN_POINT ( 'NONE',  ( 0.0000000000000000000, 0.0000000000000000000, 2.500000000000000000 ) ) ;
#65 = MECHANICAL_DESIGN_GEOMETRIC_PRESENTATION_REPRESENTATION (  '', ( #193 ), #100 ) ;
#66 = EDGE_CURVE ( 'NONE', #167, #48, #234, .T. ) ;
#67 = ADVANCED_FACE ( 'NONE', ( #82 ), #107, .T. ) ;
#68 = ORIENTED_EDGE ( 'NONE', *, *, #232, .T. ) ;
#69 = AXIS2_PLACEMENT_3D ( 'NONE', #248, #42, #134 ) ;
#70 = MECHANICAL_DESIGN_GEOMETRIC_PRESENTATION_REPRESENTATION (  '', ( #185 ), #164 ) ;
#71 = ORIENTED_EDGE ( 'NONE', *, *, #10, .T. ) ;
#72 = DIRECTION ( 'NONE',  ( 0.0000000000000000000, 0.0000000000000000000, 1.000000000000000000 ) ) ;
#73 = EDGE_LOOP ( 'NONE', ( #27, #110, #68, #239 ) ) ;
#74 = ORIENTED_EDGE ( 'NONE', *, *, #102, .F. ) ;
#75 = AXIS2_PLACEMENT_3D ( 'NONE', #141, #72, #124 ) ;
#76 = ORIENTED_EDGE ( 'NONE', *, *, #210, .F. ) ;
#77 = FACE_OUTER_BOUND ( 'NONE', #95, .T. ) ;
#78 = EDGE_CURVE ( 'NONE', #168, #242, #197, .T. ) ;
#79 = PRESENTATION_STYLE_ASSIGNMENT (( #153 ) ) ;
#80 = DIMENSIONAL_EXPONENTS ( 1.000000000000000000, 0.0000000000000000000, 0.0000000000000000000, 0.0000000000000000000, 0.0000000000000000000, 0.0000000000000000000, 0.0000000000000000000 ) ;
#81 = DIRECTION ( 'NONE',  ( 1.000000000000000000, 0.0000000000000000000, -0.0000000000000000000 ) ) ;
#82 = FACE_OUTER_BOUND ( 'NONE', #152, .T. ) ;
#83 = PRESENTATION_LAYER_ASSIGNMENT (  '', '', ( #193 ) ) ;
#84 = DIRECTION ( 'NONE',  ( -0.0000000000000000000, -0.0000000000000000000, -1.000000000000000000 ) ) ;
#85 = CIRCLE ( 'NONE', #150, 0.1250000000000000000 ) ;
#86 = VECTOR ( 'NONE', #122, 39.37007874015748854 ) ;
#87 = MANIFOLD_SOLID_BREP ( 'Mirror1', #11 ) ;
#88 = UNCERTAINTY_MEASURE_WITH_UNIT (LENGTH_MEASURE( 1.000000000000000082E-05 ), #41, 'distance_accuracy_value', 'NONE');
#89 =( CONVERSION_BASED_UNIT ( 'INCH', #230 ) LENGTH_UNIT ( ) NAMED_UNIT ( #80 ) );
#90 = APPLICATION_CONTEXT ( 'automotive_design' ) ;
#91 = ORIENTED_EDGE ( 'NONE', *, *, #114, .T. ) ;
#92 = PRODUCT_DEFINITION_CONTEXT ( 'detailed design', #90, 'design' ) ;
#93 = EDGE_LOOP ( 'NONE', ( #111, #209, #9, #207 ) ) ;
#94 = ORIENTED_EDGE ( 'NONE', *, *, #169, .F. ) ;
#95 = EDGE_LOOP ( 'NONE', ( #128, #76 ) ) ;
#96 = VECTOR ( 'NONE', #7, 39.37007874015748143 ) ;
#97 = CARTESIAN_POINT ( 'NONE',  ( 0.0000000000000000000, 0.0000000000000000000, 0.0000000000000000000 ) ) ;
#98 = DIRECTION ( 'NONE',  ( 0.0000000000000000000, 0.0000000000000000000, -1.000000000000000000 ) ) ;
#99 = CARTESIAN_POINT ( 'NONE',  ( 0.0000000000000000000, 0.0000000000000000000, 2.500000000000000000 ) ) ;
#100 =( GEOMETRIC_REPRESENTATION_CONTEXT ( 3 ) GLOBAL_UNCERTAINTY_ASSIGNED_CONTEXT ( ( #148 ) ) GLOBAL_UNIT_ASSIGNED_CONTEXT ( ( #130, #36, #119 ) ) REPRESENTATION_CONTEXT ( 'NONE', 'WORKASPACE' ) );
#101 = DIRECTION ( 'NONE',  ( 0.0000000000000000000, 0.0000000000000000000, -1.000000000000000000 ) ) ;
#102 = EDGE_CURVE ( 'NONE', #48, #223, #183, .T. ) ;
#103 = CARTESIAN_POINT ( 'NONE',  ( 0.0000000000000000000, 0.0000000000000000000, 0.2095781477158333850 ) ) ;
#104 = DIRECTION ( 'NONE',  ( -1.000000000000000000, 0.0000000000000000000, 0.0000000000000000000 ) ) ;
#105 = AXIS2_PLACEMENT_3D ( 'NONE', #4, #43, #104 ) ;
#106 = CYLINDRICAL_SURFACE ( 'NONE', #194, 0.1250000000000000000 ) ;
#107 = CONICAL_SURFACE ( 'NONE', #55, 0.003999999999999999216, 0.5235987755983005920 ) ;
#108 = EDGE_CURVE ( 'NONE', #168, #190, #129, .T. ) ;
#109 = LINE ( 'NONE', #186, #96 ) ;
#110 = ORIENTED_EDGE ( 'NONE', *, *, #200, .T. ) ;
#111 = ORIENTED_EDGE ( 'NONE', *, *, #78, .F. ) ;
#112 = CARTESIAN_POINT ( 'NONE',  ( 0.0000000000000000000, 0.0000000000000000000, 2.290421852284166615 ) ) ;
#113 = APPLICATION_CONTEXT ( 'automotive_design' ) ;
#114 = EDGE_CURVE ( 'NONE', #8, #167, #225, .T. ) ;
#115 = DIRECTION ( 'NONE',  ( -0.5000000000000013323, -6.123233995736782060E-17, -0.8660254037844377084 ) ) ;
#116 = EDGE_CURVE ( 'NONE', #242, #188, #117, .T. ) ;
#117 = CIRCLE ( 'NONE', #69, 0.1250000000000000000 ) ;
#118 = AXIS2_PLACEMENT_3D ( 'NONE', #64, #24, #161 ) ;
#119 =( NAMED_UNIT ( * ) SI_UNIT ( $, .STERADIAN. ) SOLID_ANGLE_UNIT ( ) );
#120 = LINE ( 'NONE', #22, #86 ) ;
#121 = AXIS2_PLACEMENT_3D ( 'NONE', #237, #62, #204 ) ;
#122 = DIRECTION ( 'NONE',  ( 0.5000000000000013323, 0.0000000000000000000, 0.8660254037844377084 ) ) ;
#123 = FILL_AREA_STYLE ('',( #44 ) ) ;
#124 = DIRECTION ( 'NONE',  ( 1.000000000000000000, 0.0000000000000000000, 0.0000000000000000000 ) ) ;
#125 = VECTOR ( 'NONE', #180, 39.37007874015748143 ) ;
#126 = ORIENTED_EDGE ( 'NONE', *, *, #23, .F. ) ;
#127 = ORIENTED_EDGE ( 'NONE', *, *, #66, .F. ) ;
#128 = ORIENTED_EDGE ( 'NONE', *, *, #114, .F. ) ;
#129 = CIRCLE ( 'NONE', #162, 0.003999999999999999216 ) ;
#130 =( CONVERSION_BASED_UNIT ( 'INCH', #133 ) LENGTH_UNIT ( ) NAMED_UNIT ( #175 ) );
#131 = CONICAL_SURFACE ( 'NONE', #46, 0.003999999999999999216, 0.5235987755983005920 ) ;
#132 = DIRECTION ( 'NONE',  ( -1.000000000000000000, 0.0000000000000000000, 0.0000000000000000000 ) ) ;
#133 = LENGTH_MEASURE_WITH_UNIT ( LENGTH_MEASURE( 0.02539999999999999897 ), #156 );
#134 = DIRECTION ( 'NONE',  ( -1.000000000000000000, 0.0000000000000000000, 0.0000000000000000000 ) ) ;
#135 = ADVANCED_FACE ( 'NONE', ( #1 ), #12, .T. ) ;
#136 = SURFACE_STYLE_FILL_AREA ( #123 ) ;
#137 = VECTOR ( 'NONE', #176, 39.37007874015748854 ) ;
#138 = CARTESIAN_POINT ( 'NONE',  ( -0.003999999999999999216, 7.898971854500429185E-18, 0.0000000000000000000 ) ) ;
#139 = PRESENTATION_LAYER_ASSIGNMENT (  '', '', ( #185 ) ) ;
#140 = PRODUCT_DEFINITION ( 'UNKNOWN', '', #26, #92 ) ;
#141 = CARTESIAN_POINT ( 'NONE',  ( 0.0000000000000000000, 0.0000000000000000000, 0.0000000000000000000 ) ) ;
#142 = COLOUR_RGB ( '',0.7921568627450980005, 0.8196078431372548767, 0.9333333333333333481 ) ;
#143 = FACE_OUTER_BOUND ( 'NONE', #191, .T. ) ;
#144 = APPLICATION_PROTOCOL_DEFINITION ( 'draft international standard', 'automotive_design', 1998, #90 ) ;
#145 = ORIENTED_EDGE ( 'NONE', *, *, #66, .T. ) ;
#146 = PRODUCT_CONTEXT ( 'NONE', #113, 'mechanical' ) ;
#147 = ORIENTED_EDGE ( 'NONE', *, *, #108, .T. ) ;
#148 = UNCERTAINTY_MEASURE_WITH_UNIT (LENGTH_MEASURE( 1.000000000000000082E-05 ), #130, 'distance_accuracy_value', 'NONE');
#149 = ORIENTED_EDGE ( 'NONE', *, *, #232, .F. ) ;
#150 = AXIS2_PLACEMENT_3D ( 'NONE', #60, #219, #157 ) ;
#151 = ADVANCED_FACE ( 'NONE', ( #206 ), #202, .T. ) ;
#152 = EDGE_LOOP ( 'NONE', ( #127, #45, #224, #74 ) ) ;
#153 = SURFACE_STYLE_USAGE ( .BOTH. , #52 ) ;
#154 = FACE_OUTER_BOUND ( 'NONE', #29, .T. ) ;
#155 = DIRECTION ( 'NONE',  ( -0.0000000000000000000, -0.0000000000000000000, -1.000000000000000000 ) ) ;
#156 =( LENGTH_UNIT ( ) NAMED_UNIT ( * ) SI_UNIT ( $, .METRE. ) );
#157 = DIRECTION ( 'NONE',  ( -1.000000000000000000, 0.0000000000000000000, 0.0000000000000000000 ) ) ;
#158 = AXIS2_PLACEMENT_3D ( 'NONE', #34, #231, #81 ) ;
#159 = CIRCLE ( 'NONE', #105, 0.003999999999999999216 ) ;
#160 =( NAMED_UNIT ( * ) PLANE_ANGLE_UNIT ( ) SI_UNIT ( $, .RADIAN. ) );
#161 = DIRECTION ( 'NONE',  ( -1.000000000000000000, 0.0000000000000000000, 0.0000000000000000000 ) ) ;
#162 = AXIS2_PLACEMENT_3D ( 'NONE', #192, #155, #37 ) ;
#163 =( NAMED_UNIT ( * ) SI_UNIT ( $, .STERADIAN. ) SOLID_ANGLE_UNIT ( ) );
#164 =( GEOMETRIC_REPRESENTATION_CONTEXT ( 3 ) GLOBAL_UNCERTAINTY_ASSIGNED_CONTEXT ( ( #187 ) ) GLOBAL_UNIT_ASSIGNED_CONTEXT ( ( #89, #196, #35 ) ) REPRESENTATION_CONTEXT ( 'NONE', 'WORKASPACE' ) );
#165 =( LENGTH_UNIT ( ) NAMED_UNIT ( * ) SI_UNIT ( $, .METRE. ) );
#166 = SURFACE_STYLE_USAGE ( .BOTH. , #218 ) ;
#167 = VERTEX_POINT ( 'NONE', #21 ) ;
#168 = VERTEX_POINT ( 'NONE', #138 ) ;
#169 = EDGE_CURVE ( 'NONE', #190, #188, #120, .T. ) ;
#170 = PLANE ( 'NONE',  #39 ) ;
#171 = PRESENTATION_STYLE_ASSIGNMENT (( #166 ) ) ;
#172 = DIRECTION ( 'NONE',  ( -0.5000000000000013323, 6.123233995736782060E-17, 0.8660254037844377084 ) ) ;
#173 = VECTOR ( 'NONE', #172, 39.37007874015748854 ) ;
#174 = DIRECTION ( 'NONE',  ( -1.000000000000000000, 0.0000000000000000000, 0.0000000000000000000 ) ) ;
#175 = DIMENSIONAL_EXPONENTS ( 1.000000000000000000, 0.0000000000000000000, 0.0000000000000000000, 0.0000000000000000000, 0.0000000000000000000, 0.0000000000000000000, 0.0000000000000000000 ) ;
#176 = DIRECTION ( 'NONE',  ( 0.5000000000000013323, 0.0000000000000000000, -0.8660254037844377084 ) ) ;
#177 = CARTESIAN_POINT ( 'NONE',  ( 0.0000000000000000000, 0.0000000000000000000, 0.0000000000000000000 ) ) ;
#178 = AXIS2_PLACEMENT_3D ( 'NONE', #198, #101, #174 ) ;
#179 = DIMENSIONAL_EXPONENTS ( 1.000000000000000000, 0.0000000000000000000, 0.0000000000000000000, 0.0000000000000000000, 0.0000000000000000000, 0.0000000000000000000, 0.0000000000000000000 ) ;
#180 = DIRECTION ( 'NONE',  ( -0.0000000000000000000, -0.0000000000000000000, -1.000000000000000000 ) ) ;
#181 = DIRECTION ( 'NONE',  ( -1.000000000000000000, 0.0000000000000000000, 0.0000000000000000000 ) ) ;
#182 = LENGTH_MEASURE_WITH_UNIT ( LENGTH_MEASURE( 0.02539999999999999897 ), #3 );
#183 = CIRCLE ( 'NONE', #243, 0.1250000000000000000 ) ;
#184 = FACE_OUTER_BOUND ( 'NONE', #73, .T. ) ;
#185 = STYLED_ITEM ( 'NONE', ( #171 ), #233 ) ;
#186 = CARTESIAN_POINT ( 'NONE',  ( 0.1250000000000000000, 1.530808498934191509E-17, 2.500000000000000000 ) ) ;
#187 = UNCERTAINTY_MEASURE_WITH_UNIT (LENGTH_MEASURE( 1.000000000000000082E-05 ), #89, 'distance_accuracy_value', 'NONE');
#188 = VERTEX_POINT ( 'NONE', #201 ) ;
#189 = ADVANCED_FACE ( 'NONE', ( #184 ), #106, .T. ) ;
#190 = VERTEX_POINT ( 'NONE', #238 ) ;
#191 = EDGE_LOOP ( 'NONE', ( #91, #145, #241, #126 ) ) ;
#192 = CARTESIAN_POINT ( 'NONE',  ( 0.0000000000000000000, 0.0000000000000000000, 0.0000000000000000000 ) ) ;
#193 = STYLED_ITEM ( 'NONE', ( #79 ), #87 ) ;
#194 = AXIS2_PLACEMENT_3D ( 'NONE', #216, #84, #181 ) ;
#195 = DIRECTION ( 'NONE',  ( -1.000000000000000000, 0.0000000000000000000, 0.0000000000000000000 ) ) ;
#196 =( NAMED_UNIT ( * ) PLANE_ANGLE_UNIT ( ) SI_UNIT ( $, .RADIAN. ) );
#197 = LINE ( 'NONE', #227, #173 ) ;
#198 = CARTESIAN_POINT ( 'NONE',  ( 0.0000000000000000000, 0.0000000000000000000, 2.500000000000000000 ) ) ;
#199 = DIRECTION ( 'NONE',  ( 1.000000000000000000, 0.0000000000000000000, 0.0000000000000000000 ) ) ;
#200 = EDGE_CURVE ( 'NONE', #223, #48, #85, .T. ) ;
#201 = CARTESIAN_POINT ( 'NONE',  ( 0.1250000000000000000, 1.530808498934191509E-17, 0.2095781477158333850 ) ) ;
#202 = CYLINDRICAL_SURFACE ( 'NONE', #118, 0.1250000000000000000 ) ;
#203 = PRODUCT_DEFINITION_SHAPE ( 'NONE', 'NONE',  #140 ) ;
#204 = DIRECTION ( 'NONE',  ( 1.000000000000000000, 0.0000000000000000000, 0.0000000000000000000 ) ) ;
#205 = FACE_OUTER_BOUND ( 'NONE', #93, .T. ) ;
#206 = FACE_OUTER_BOUND ( 'NONE', #226, .T. ) ;
#207 = ORIENTED_EDGE ( 'NONE', *, *, #50, .T. ) ;
#208 = ORIENTED_EDGE ( 'NONE', *, *, #78, .T. ) ;
#209 = ORIENTED_EDGE ( 'NONE', *, *, #31, .F. ) ;
#210 = EDGE_CURVE ( 'NONE', #167, #8, #159, .T. ) ;
#211 = ORIENTED_EDGE ( 'NONE', *, *, #116, .F. ) ;
#212 = CARTESIAN_POINT ( 'NONE',  ( -0.1250000000000000000, 0.0000000000000000000, 2.290421852284166615 ) ) ;
#213 = CARTESIAN_POINT ( 'NONE',  ( 0.003999999999999999216, 0.0000000000000000000, 2.500000000000000000 ) ) ;
#214 = DIRECTION ( 'NONE',  ( -1.000000000000000000, 0.0000000000000000000, 0.0000000000000000000 ) ) ;
#215 = CIRCLE ( 'NONE', #30, 0.003999999999999999216 ) ;
#216 = CARTESIAN_POINT ( 'NONE',  ( 0.0000000000000000000, 0.0000000000000000000, 2.500000000000000000 ) ) ;
#217 = LINE ( 'NONE', #40, #125 ) ;
#218 = SURFACE_SIDE_STYLE ('',( #136 ) ) ;
#219 = DIRECTION ( 'NONE',  ( 0.0000000000000000000, 0.0000000000000000000, -1.000000000000000000 ) ) ;
#220 = DIRECTION ( 'NONE',  ( 0.0000000000000000000, 0.0000000000000000000, 1.000000000000000000 ) ) ;
#221 = CIRCLE ( 'NONE', #18, 0.1250000000000000000 ) ;
#222 = CARTESIAN_POINT ( 'NONE',  ( 0.0000000000000000000, 0.0000000000000000000, 2.500000000000000000 ) ) ;
#223 = VERTEX_POINT ( 'NONE', #236 ) ;
#224 = ORIENTED_EDGE ( 'NONE', *, *, #23, .T. ) ;
#225 = CIRCLE ( 'NONE', #178, 0.003999999999999999216 ) ;
#226 = EDGE_LOOP ( 'NONE', ( #32, #71, #211, #149 ) ) ;
#227 = CARTESIAN_POINT ( 'NONE',  ( -0.003999999999999999216, 4.898587196589411612E-19, 0.0000000000000000000 ) ) ;
#228 = ADVANCED_FACE ( 'NONE', ( #205 ), #2, .T. ) ;
#229 = DIRECTION ( 'NONE',  ( 0.0000000000000000000, 0.0000000000000000000, -1.000000000000000000 ) ) ;
#230 = LENGTH_MEASURE_WITH_UNIT ( LENGTH_MEASURE( 0.02539999999999999897 ), #165 );
#231 = DIRECTION ( 'NONE',  ( 0.0000000000000000000, 0.0000000000000000000, 1.000000000000000000 ) ) ;
#232 = EDGE_CURVE ( 'NONE', #48, #242, #217, .T. ) ;
#233 = ADVANCED_BREP_SHAPE_REPRESENTATION ( 'Micro_RSC-250-2', ( #87, #75 ), #33 ) ;
#234 = LINE ( 'NONE', #38, #235 ) ;
#235 = VECTOR ( 'NONE', #115, 39.37007874015748854 ) ;
#236 = CARTESIAN_POINT ( 'NONE',  ( 0.1250000000000000000, 1.530808498934191509E-17, 2.290421852284166615 ) ) ;
#237 = CARTESIAN_POINT ( 'NONE',  ( 0.0000000000000000000, 0.0000000000000000000, 0.0000000000000000000 ) ) ;
#238 = CARTESIAN_POINT ( 'NONE',  ( 0.003999999999999999216, 0.0000000000000000000, 0.0000000000000000000 ) ) ;
#239 = ORIENTED_EDGE ( 'NONE', *, *, #50, .F. ) ;
#240 = PRODUCT ( 'Micro_RSC-250-2', 'Micro_RSC-250-2', '', ( #146 ) ) ;
#241 = ORIENTED_EDGE ( 'NONE', *, *, #200, .F. ) ;
#242 = VERTEX_POINT ( 'NONE', #25 ) ;
#243 = AXIS2_PLACEMENT_3D ( 'NONE', #112, #229, #214 ) ;
#244 = ORIENTED_EDGE ( 'NONE', *, *, #116, .T. ) ;
#245 = FILL_AREA_STYLE ('',( #15 ) ) ;
#246 = SURFACE_STYLE_FILL_AREA ( #245 ) ;
#247 = COLOUR_RGB ( '',0.7921568627450980005, 0.8196078431372548767, 0.9333333333333333481 ) ;
#248 = CARTESIAN_POINT ( 'NONE',  ( 0.0000000000000000000, 0.0000000000000000000, 0.2095781477158333850 ) ) ;
#249 = DIRECTION ( 'NONE',  ( -0.0000000000000000000, -0.0000000000000000000, -1.000000000000000000 ) ) ;
ENDSEC;
END-ISO-10303-21;
