ISO-10303-21;
HEADER;
FILE_DESCRIPTION (( 'STEP AP214' ),
    '1' );
FILE_NAME ('Micro_BEM-093-03.STEP',
    '2021-09-03T13:00:39',
    ( '' ),
    ( '' ),
    'SwSTEP 2.0',
    'SolidWorks 2020',
    '' );
FILE_SCHEMA (( 'AUTOMOTIVE_DESIGN' ));
ENDSEC;

DATA;
#1 = VERTEX_POINT ( 'NONE', #75 ) ;
#2 = ORIENTED_EDGE ( 'NONE', *, *, #112, .T. ) ;
#3 = SPHERICAL_SURFACE ( 'NONE', #76, 0.04680315000000000170 ) ;
#4 = MECHANICAL_DESIGN_GEOMETRIC_PRESENTATION_REPRESENTATION (  '', ( #309 ), #288 ) ;
#5 = DIRECTION ( 'NONE',  ( 1.000000000000000000, 0.0000000000000000000, 0.0000000000000000000 ) ) ;
#6 = PRODUCT_DEFINITION_CONTEXT ( 'detailed design', #90, 'design' ) ;
#7 = EDGE_CURVE ( 'NONE', #1, #132, #15, .T. ) ;
#8 = FACE_OUTER_BOUND ( 'NONE', #149, .T. ) ;
#9 = PRODUCT_DEFINITION ( 'UNKNOWN', '', #161, #6 ) ;
#10 = APPLICATION_CONTEXT ( 'automotive_design' ) ;
#11 = AXIS2_PLACEMENT_3D ( 'NONE', #248, #44, #114 ) ;
#12 =( LENGTH_UNIT ( ) NAMED_UNIT ( * ) SI_UNIT ( $, .METRE. ) );
#13 = FACE_OUTER_BOUND ( 'NONE', #65, .T. ) ;
#14 = DIRECTION ( 'NONE',  ( -1.224646799147353700E-16, -0.0000000000000000000, -1.000000000000000000 ) ) ;
#15 = LINE ( 'NONE', #299, #196 ) ;
#16 = ORIENTED_EDGE ( 'NONE', *, *, #165, .F. ) ;
#17 = UNCERTAINTY_MEASURE_WITH_UNIT (LENGTH_MEASURE( 1.000000000000000082E-05 ), #138, 'distance_accuracy_value', 'NONE');
#18 = AXIS2_PLACEMENT_3D ( 'NONE', #43, #167, #170 ) ;
#19 = AXIS2_PLACEMENT_3D ( 'NONE', #241, #45, #198 ) ;
#20 = AXIS2_PLACEMENT_3D ( 'NONE', #169, #23, #313 ) ;
#21 = PLANE ( 'NONE',  #210 ) ;
#22 = SPHERICAL_SURFACE ( 'NONE', #285, 0.04680315000000000170 ) ;
#23 = DIRECTION ( 'NONE',  ( -1.224646799147353700E-16, -0.0000000000000000000, -1.000000000000000000 ) ) ;
#24 = CARTESIAN_POINT ( 'NONE',  ( 0.06250000000000008327, 7.654042494670966789E-18, 0.4640212600302659474 ) ) ;
#25 = CARTESIAN_POINT ( 'NONE',  ( 0.04680315000000004333, 0.0000000000000000000, 0.3750000000000000555 ) ) ;
#26 =( NAMED_UNIT ( * ) PLANE_ANGLE_UNIT ( ) SI_UNIT ( $, .RADIAN. ) );
#27 = ORIENTED_EDGE ( 'NONE', *, *, #236, .T. ) ;
#28 = AXIS2_PLACEMENT_3D ( 'NONE', #163, #150, #78 ) ;
#29 = DIRECTION ( 'NONE',  ( 1.000000000000000000, 0.0000000000000000000, 0.0000000000000000000 ) ) ;
#30 = ORIENTED_EDGE ( 'NONE', *, *, #283, .F. ) ;
#31 = ADVANCED_FACE ( 'NONE', ( #215 ), #37, .T. ) ;
#32 = VERTEX_POINT ( 'NONE', #24 ) ;
#33 = DIRECTION ( 'NONE',  ( -0.0000000000000000000, -0.0000000000000000000, -1.000000000000000000 ) ) ;
#34 = AXIS2_PLACEMENT_3D ( 'NONE', #95, #218, #202 ) ;
#35 = LINE ( 'NONE', #110, #113 ) ;
#36 = EDGE_CURVE ( 'NONE', #68, #117, #314, .T. ) ;
#37 = CONICAL_SURFACE ( 'NONE', #190, 0.04680315000000000170, 0.1745329251994338082 ) ;
#38 = CIRCLE ( 'NONE', #11, 0.04680315000000000170 ) ;
#39 = ADVANCED_FACE ( 'NONE', ( #141 ), #22, .T. ) ;
#40 = AXIS2_PLACEMENT_3D ( 'NONE', #228, #134, #263 ) ;
#41 = DIRECTION ( 'NONE',  ( 1.000000000000000000, 0.0000000000000000000, 0.0000000000000000000 ) ) ;
#42 = FACE_OUTER_BOUND ( 'NONE', #128, .T. ) ;
#43 = CARTESIAN_POINT ( 'NONE',  ( 5.731732783751346705E-18, 0.0000000000000000000, 0.04680315000000000170 ) ) ;
#44 = DIRECTION ( 'NONE',  ( 1.224646799147353700E-16, 0.0000000000000000000, 1.000000000000000000 ) ) ;
#45 = DIRECTION ( 'NONE',  ( 0.0000000000000000000, 0.0000000000000000000, 1.000000000000000000 ) ) ;
#46 = ORIENTED_EDGE ( 'NONE', *, *, #242, .F. ) ;
#47 = UNCERTAINTY_MEASURE_WITH_UNIT (LENGTH_MEASURE( 1.000000000000000082E-05 ), #77, 'distance_accuracy_value', 'NONE');
#48 = EDGE_CURVE ( 'NONE', #1, #68, #99, .T. ) ;
#49 = EDGE_LOOP ( 'NONE', ( #27, #257, #277, #229 ) ) ;
#50 = ORIENTED_EDGE ( 'NONE', *, *, #60, .T. ) ;
#51 = EDGE_CURVE ( 'NONE', #103, #57, #86, .T. ) ;
#52 = DIRECTION ( 'NONE',  ( 0.0000000000000000000, 0.0000000000000000000, 1.000000000000000000 ) ) ;
#53 = CARTESIAN_POINT ( 'NONE',  ( 0.06250000000000002776, 7.654042494670959086E-18, 1.485000000000000764 ) ) ;
#54 = FILL_AREA_STYLE_COLOUR ( '', #62 ) ;
#55 = EDGE_LOOP ( 'NONE', ( #30, #91, #203, #319 ) ) ;
#56 = MECHANICAL_DESIGN_GEOMETRIC_PRESENTATION_REPRESENTATION (  '', ( #265 ), #118 ) ;
#57 = VERTEX_POINT ( 'NONE', #206 ) ;
#58 = CARTESIAN_POINT ( 'NONE',  ( 0.0000000000000000000, 0.0000000000000000000, 1.500000000000000222 ) ) ;
#59 = DIRECTION ( 'NONE',  ( 0.0000000000000000000, 0.0000000000000000000, 1.000000000000000000 ) ) ;
#60 = EDGE_CURVE ( 'NONE', #207, #247, #116, .T. ) ;
#61 = CONICAL_SURFACE ( 'NONE', #172, 0.04680315000000000170, 0.1745329251994338082 ) ;
#62 = COLOUR_RGB ( '',0.7921568627450980005, 0.8196078431372548767, 0.9333333333333333481 ) ;
#63 = AXIS2_PLACEMENT_3D ( 'NONE', #97, #94, #301 ) ;
#64 = ADVANCED_FACE ( 'NONE', ( #280 ), #297, .T. ) ;
#65 = EDGE_LOOP ( 'NONE', ( #304, #253, #145, #104 ) ) ;
#66 = LENGTH_MEASURE_WITH_UNIT ( LENGTH_MEASURE( 0.02539999999999999897 ), #12 );
#67 = AXIS2_PLACEMENT_3D ( 'NONE', #125, #226, #41 ) ;
#68 = VERTEX_POINT ( 'NONE', #98 ) ;
#69 =( NAMED_UNIT ( * ) SI_UNIT ( $, .STERADIAN. ) SOLID_ANGLE_UNIT ( ) );
#70 = DIRECTION ( 'NONE',  ( 1.000000000000000000, 0.0000000000000000000, 0.0000000000000000000 ) ) ;
#71 =( NAMED_UNIT ( * ) SI_UNIT ( $, .STERADIAN. ) SOLID_ANGLE_UNIT ( ) );
#72 = DIRECTION ( 'NONE',  ( 0.0000000000000000000, 0.0000000000000000000, 1.000000000000000000 ) ) ;
#73 = DIRECTION ( 'NONE',  ( -0.0000000000000000000, -0.0000000000000000000, -1.000000000000000000 ) ) ;
#74 = ORIENTED_EDGE ( 'NONE', *, *, #48, .T. ) ;
#75 = CARTESIAN_POINT ( 'NONE',  ( 0.04750000000000064587, 6.735557395310483192E-18, 1.500000000000000222 ) ) ;
#76 = AXIS2_PLACEMENT_3D ( 'NONE', #208, #82, #5 ) ;
#77 =( CONVERSION_BASED_UNIT ( 'INCH', #66 ) LENGTH_UNIT ( ) NAMED_UNIT ( #87 ) );
#78 = DIRECTION ( 'NONE',  ( -1.000000000000000000, 0.0000000000000000000, 0.0000000000000000000 ) ) ;
#79 = CARTESIAN_POINT ( 'NONE',  ( 0.04680315000000004333, 0.0000000000000000000, 0.3750000000000000555 ) ) ;
#80 = SURFACE_STYLE_USAGE ( .BOTH. , #102 ) ;
#81 = AXIS2_PLACEMENT_3D ( 'NONE', #303, #59, #155 ) ;
#82 = DIRECTION ( 'NONE',  ( 0.0000000000000000000, 1.000000000000000000, 0.0000000000000000000 ) ) ;
#83 = LINE ( 'NONE', #234, #139 ) ;
#84 = ORIENTED_EDGE ( 'NONE', *, *, #242, .T. ) ;
#85 = EDGE_CURVE ( 'NONE', #103, #247, #286, .T. ) ;
#86 = CIRCLE ( 'NONE', #18, 0.04680315000000000170 ) ;
#87 = DIMENSIONAL_EXPONENTS ( 1.000000000000000000, 0.0000000000000000000, 0.0000000000000000000, 0.0000000000000000000, 0.0000000000000000000, 0.0000000000000000000, 0.0000000000000000000 ) ;
#88 = EDGE_CURVE ( 'NONE', #207, #32, #151, .T. ) ;
#89 = CIRCLE ( 'NONE', #284, 0.06250000000000002776 ) ;
#90 = APPLICATION_CONTEXT ( 'automotive_design' ) ;
#91 = ORIENTED_EDGE ( 'NONE', *, *, #189, .F. ) ;
#92 = VECTOR ( 'NONE', #73, 39.37007874015748143 ) ;
#93 = PRODUCT_CONTEXT ( 'NONE', #10, 'mechanical' ) ;
#94 = DIRECTION ( 'NONE',  ( 1.224646799147353700E-16, 0.0000000000000000000, 1.000000000000000000 ) ) ;
#95 = CARTESIAN_POINT ( 'NONE',  ( 5.731732783751346705E-18, 0.0000000000000000000, 0.04680315000000000170 ) ) ;
#96 = ORIENTED_EDGE ( 'NONE', *, *, #246, .T. ) ;
#97 = CARTESIAN_POINT ( 'NONE',  ( 5.731732783751346705E-18, 0.0000000000000000000, 0.04680315000000000170 ) ) ;
#98 = CARTESIAN_POINT ( 'NONE',  ( -0.04750000000000064587, 0.0000000000000000000, 1.500000000000000222 ) ) ;
#99 = CIRCLE ( 'NONE', #19, 0.04750000000000064587 ) ;
#100 = AXIS2_PLACEMENT_3D ( 'NONE', #58, #33, #109 ) ;
#101 = FACE_OUTER_BOUND ( 'NONE', #154, .T. ) ;
#102 = SURFACE_SIDE_STYLE ('',( #227 ) ) ;
#103 = VERTEX_POINT ( 'NONE', #302 ) ;
#104 = ORIENTED_EDGE ( 'NONE', *, *, #165, .T. ) ;
#105 = CIRCLE ( 'NONE', #135, 0.04680315000000000170 ) ;
#106 = CYLINDRICAL_SURFACE ( 'NONE', #100, 0.06250000000000002776 ) ;
#107 = EDGE_CURVE ( 'NONE', #132, #32, #324, .T. ) ;
#108 = ORIENTED_EDGE ( 'NONE', *, *, #236, .F. ) ;
#109 = DIRECTION ( 'NONE',  ( -1.000000000000000000, 0.0000000000000000000, 0.0000000000000000000 ) ) ;
#110 = CARTESIAN_POINT ( 'NONE',  ( -0.04680314999999996006, 5.731732783751344394E-18, 0.3750000000000000555 ) ) ;
#111 = CIRCLE ( 'NONE', #81, 0.04750000000000064587 ) ;
#112 = EDGE_CURVE ( 'NONE', #117, #192, #143, .T. ) ;
#113 = VECTOR ( 'NONE', #211, 39.37007874015747433 ) ;
#114 = DIRECTION ( 'NONE',  ( -1.000000000000000000, 0.0000000000000000000, 1.824027865688703052E-16 ) ) ;
#115 = DIRECTION ( 'NONE',  ( -1.000000000000000000, 0.0000000000000000000, 0.0000000000000000000 ) ) ;
#116 = LINE ( 'NONE', #123, #144 ) ;
#117 = VERTEX_POINT ( 'NONE', #252 ) ;
#118 =( GEOMETRIC_REPRESENTATION_CONTEXT ( 3 ) GLOBAL_UNCERTAINTY_ASSIGNED_CONTEXT ( ( #47 ) ) GLOBAL_UNIT_ASSIGNED_CONTEXT ( ( #77, #188, #200 ) ) REPRESENTATION_CONTEXT ( 'NONE', 'WORKASPACE' ) );
#119 = DIRECTION ( 'NONE',  ( 1.000000000000000000, 0.0000000000000000000, 0.0000000000000000000 ) ) ;
#120 = DIRECTION ( 'NONE',  ( -1.224646799147353700E-16, -0.0000000000000000000, -1.000000000000000000 ) ) ;
#121 = CARTESIAN_POINT ( 'NONE',  ( 4.592425496802576684E-17, 0.0000000000000000000, 0.3750000000000000555 ) ) ;
#122 = EDGE_LOOP ( 'NONE', ( #222, #219, #108, #152 ) ) ;
#123 = CARTESIAN_POINT ( 'NONE',  ( 0.04680315000000000170, 5.731732783751344394E-18, -5.731732783751346705E-18 ) ) ;
#124 = ORIENTED_EDGE ( 'NONE', *, *, #307, .F. ) ;
#125 = CARTESIAN_POINT ( 'NONE',  ( 0.0000000000000000000, 0.0000000000000000000, 1.485000000000000764 ) ) ;
#126 = FILL_AREA_STYLE ('',( #54 ) ) ;
#127 = MANIFOLD_SOLID_BREP ( 'Fillet1', #223 ) ;
#128 = EDGE_LOOP ( 'NONE', ( #294, #46, #274, #124 ) ) ;
#129 = PRESENTATION_LAYER_ASSIGNMENT (  '', '', ( #265 ) ) ;
#130 = ORIENTED_EDGE ( 'NONE', *, *, #291, .F. ) ;
#131 = ADVANCED_BREP_SHAPE_REPRESENTATION ( 'Micro_BEM-093-03', ( #127, #187 ), #281 ) ;
#132 = VERTEX_POINT ( 'NONE', #53 ) ;
#133 = PRODUCT_DEFINITION_SHAPE ( 'NONE', 'NONE',  #9 ) ;
#134 = DIRECTION ( 'NONE',  ( 0.0000000000000000000, 0.0000000000000000000, -1.000000000000000000 ) ) ;
#135 = AXIS2_PLACEMENT_3D ( 'NONE', #289, #267, #220 ) ;
#136 = ADVANCED_FACE ( 'NONE', ( #42 ), #158, .T. ) ;
#137 = ADVANCED_FACE ( 'NONE', ( #147 ), #251, .T. ) ;
#138 =( CONVERSION_BASED_UNIT ( 'INCH', #182 ) LENGTH_UNIT ( ) NAMED_UNIT ( #264 ) );
#139 = VECTOR ( 'NONE', #259, 39.37007874015748143 ) ;
#140 = CYLINDRICAL_SURFACE ( 'NONE', #193, 0.06250000000000002776 ) ;
#141 = FACE_OUTER_BOUND ( 'NONE', #300, .T. ) ;
#142 = CARTESIAN_POINT ( 'NONE',  ( 0.0000000000000000000, 0.0000000000000000000, 0.0000000000000000000 ) ) ;
#143 = LINE ( 'NONE', #221, #156 ) ;
#144 = VECTOR ( 'NONE', #296, 39.37007874015748143 ) ;
#145 = ORIENTED_EDGE ( 'NONE', *, *, #310, .T. ) ;
#146 = AXIS2_PLACEMENT_3D ( 'NONE', #201, #120, #266 ) ;
#147 = FACE_OUTER_BOUND ( 'NONE', #254, .T. ) ;
#148 = EDGE_LOOP ( 'NONE', ( #325, #262, #96, #273 ) ) ;
#149 = EDGE_LOOP ( 'NONE', ( #250, #171, #16 ) ) ;
#150 = DIRECTION ( 'NONE',  ( 0.0000000000000000000, 0.0000000000000000000, -1.000000000000000000 ) ) ;
#151 = LINE ( 'NONE', #79, #243 ) ;
#152 = ORIENTED_EDGE ( 'NONE', *, *, #36, .F. ) ;
#153 =( LENGTH_UNIT ( ) NAMED_UNIT ( * ) SI_UNIT ( $, .METRE. ) );
#154 = EDGE_LOOP ( 'NONE', ( #84, #74 ) ) ;
#155 = DIRECTION ( 'NONE',  ( 1.000000000000000000, 0.0000000000000000000, 0.0000000000000000000 ) ) ;
#156 = VECTOR ( 'NONE', #245, 39.37007874015748143 ) ;
#157 = EDGE_CURVE ( 'NONE', #195, #207, #105, .T. ) ;
#158 = CONICAL_SURFACE ( 'NONE', #28, 0.04750000000000064587, 0.7853981633974466137 ) ;
#159 = ORIENTED_EDGE ( 'NONE', *, *, #307, .T. ) ;
#160 = AXIS2_PLACEMENT_3D ( 'NONE', #142, #14, #205 ) ;
#161 = PRODUCT_DEFINITION_FORMATION_WITH_SPECIFIED_SOURCE ( 'ANY', '', #306, .NOT_KNOWN. ) ;
#162 = SURFACE_STYLE_FILL_AREA ( #269 ) ;
#163 = CARTESIAN_POINT ( 'NONE',  ( 0.0000000000000000000, 0.0000000000000000000, 1.500000000000000222 ) ) ;
#164 = DIRECTION ( 'NONE',  ( -1.000000000000000000, 0.0000000000000000000, 0.0000000000000000000 ) ) ;
#165 = EDGE_CURVE ( 'NONE', #57, #247, #38, .T. ) ;
#166 = CARTESIAN_POINT ( 'NONE',  ( -0.04680314999999996006, 6.692887639211152895E-18, 0.3750000000000000555 ) ) ;
#167 = DIRECTION ( 'NONE',  ( 1.224646799147353207E-16, 1.000000000000000000, -0.0000000000000000000 ) ) ;
#168 = ORIENTED_EDGE ( 'NONE', *, *, #157, .T. ) ;
#169 = CARTESIAN_POINT ( 'NONE',  ( 0.0000000000000000000, 0.0000000000000000000, 0.0000000000000000000 ) ) ;
#170 = DIRECTION ( 'NONE',  ( -1.000000000000000000, 1.224646799147353207E-16, 0.0000000000000000000 ) ) ;
#171 = ORIENTED_EDGE ( 'NONE', *, *, #85, .T. ) ;
#172 = AXIS2_PLACEMENT_3D ( 'NONE', #270, #276, #197 ) ;
#173 = SHAPE_DEFINITION_REPRESENTATION ( #133, #131 ) ;
#174 = CARTESIAN_POINT ( 'NONE',  ( -0.06249999999999996531, 0.0000000000000000000, 0.4640212600302659474 ) ) ;
#175 = DIRECTION ( 'NONE',  ( 0.1736481776669313026, 0.0000000000000000000, 0.9848077530122077983 ) ) ;
#176 = EDGE_LOOP ( 'NONE', ( #225, #159, #2, #130 ) ) ;
#177 = DIRECTION ( 'NONE',  ( -1.224646799147353700E-16, -0.0000000000000000000, -1.000000000000000000 ) ) ;
#178 = DIRECTION ( 'NONE',  ( 1.000000000000000000, 0.0000000000000000000, 0.0000000000000000000 ) ) ;
#179 = COLOUR_RGB ( '',0.7921568627450980005, 0.8196078431372548767, 0.9333333333333333481 ) ;
#180 = FACE_OUTER_BOUND ( 'NONE', #176, .T. ) ;
#181 = ADVANCED_FACE ( 'NONE', ( #13 ), #244, .T. ) ;
#182 = LENGTH_MEASURE_WITH_UNIT ( LENGTH_MEASURE( 0.02539999999999999897 ), #184 );
#183 = ADVANCED_FACE ( 'NONE', ( #298 ), #140, .T. ) ;
#184 =( LENGTH_UNIT ( ) NAMED_UNIT ( * ) SI_UNIT ( $, .METRE. ) );
#185 = ADVANCED_FACE ( 'NONE', ( #101 ), #21, .T. ) ;
#186 = EDGE_CURVE ( 'NONE', #247, #57, #209, .T. ) ;
#187 = AXIS2_PLACEMENT_3D ( 'NONE', #292, #52, #119 ) ;
#188 =( NAMED_UNIT ( * ) PLANE_ANGLE_UNIT ( ) SI_UNIT ( $, .RADIAN. ) );
#189 = EDGE_CURVE ( 'NONE', #207, #195, #213, .T. ) ;
#190 = AXIS2_PLACEMENT_3D ( 'NONE', #121, #315, #178 ) ;
#191 = FACE_OUTER_BOUND ( 'NONE', #148, .T. ) ;
#192 = VERTEX_POINT ( 'NONE', #174 ) ;
#193 = AXIS2_PLACEMENT_3D ( 'NONE', #240, #320, #115 ) ;
#194 = CARTESIAN_POINT ( 'NONE',  ( 0.06250000000000002776, 7.654042494670959086E-18, 1.500000000000000222 ) ) ;
#195 = VERTEX_POINT ( 'NONE', #166 ) ;
#196 = VECTOR ( 'NONE', #249, 39.37007874015748854 ) ;
#197 = DIRECTION ( 'NONE',  ( 1.000000000000000000, 0.0000000000000000000, 0.0000000000000000000 ) ) ;
#198 = DIRECTION ( 'NONE',  ( 1.000000000000000000, 0.0000000000000000000, 0.0000000000000000000 ) ) ;
#199 = ADVANCED_FACE ( 'NONE', ( #191 ), #61, .T. ) ;
#200 =( NAMED_UNIT ( * ) SI_UNIT ( $, .STERADIAN. ) SOLID_ANGLE_UNIT ( ) );
#201 = CARTESIAN_POINT ( 'NONE',  ( 4.592425496802576684E-17, 0.0000000000000000000, 0.3750000000000000555 ) ) ;
#202 = DIRECTION ( 'NONE',  ( 0.0000000000000000000, 0.0000000000000000000, -1.000000000000000000 ) ) ;
#203 = ORIENTED_EDGE ( 'NONE', *, *, #88, .T. ) ;
#204 = CIRCLE ( 'NONE', #67, 0.06250000000000002776 ) ;
#205 = DIRECTION ( 'NONE',  ( -1.000000000000000000, 0.0000000000000000000, 1.224646799147353700E-16 ) ) ;
#206 = CARTESIAN_POINT ( 'NONE',  ( -0.04680314999999999476, 0.0000000000000000000, 0.04680315000000000863 ) ) ;
#207 = VERTEX_POINT ( 'NONE', #25 ) ;
#208 = CARTESIAN_POINT ( 'NONE',  ( 5.731732783751346705E-18, 0.0000000000000000000, 0.04680315000000000170 ) ) ;
#209 = CIRCLE ( 'NONE', #63, 0.04680315000000000170 ) ;
#210 = AXIS2_PLACEMENT_3D ( 'NONE', #217, #72, #317 ) ;
#211 = DIRECTION ( 'NONE',  ( -0.1736481776669311083, 2.126576849575782084E-17, 0.9848077530122080203 ) ) ;
#212 = AXIS2_PLACEMENT_3D ( 'NONE', #290, #321, #164 ) ;
#213 = CIRCLE ( 'NONE', #146, 0.04680315000000000170 ) ;
#214 = PRESENTATION_STYLE_ASSIGNMENT (( #239 ) ) ;
#215 = FACE_OUTER_BOUND ( 'NONE', #55, .T. ) ;
#216 = SURFACE_SIDE_STYLE ('',( #162 ) ) ;
#217 = CARTESIAN_POINT ( 'NONE',  ( 0.0000000000000000000, 0.0000000000000000000, 1.500000000000000222 ) ) ;
#218 = DIRECTION ( 'NONE',  ( 0.0000000000000000000, -1.000000000000000000, 0.0000000000000000000 ) ) ;
#219 = ORIENTED_EDGE ( 'NONE', *, *, #7, .T. ) ;
#220 = DIRECTION ( 'NONE',  ( -1.000000000000000000, 0.0000000000000000000, 0.0000000000000000000 ) ) ;
#221 = CARTESIAN_POINT ( 'NONE',  ( -0.06250000000000002776, 0.0000000000000000000, 1.500000000000000222 ) ) ;
#222 = ORIENTED_EDGE ( 'NONE', *, *, #48, .F. ) ;
#223 = CLOSED_SHELL ( 'NONE', ( #39, #137, #199, #64, #183, #279, #185, #136, #31, #181, #260 ) ) ;
#224 = ORIENTED_EDGE ( 'NONE', *, *, #85, .F. ) ;
#225 = ORIENTED_EDGE ( 'NONE', *, *, #107, .F. ) ;
#226 = DIRECTION ( 'NONE',  ( 0.0000000000000000000, 0.0000000000000000000, -1.000000000000000000 ) ) ;
#227 = SURFACE_STYLE_FILL_AREA ( #126 ) ;
#228 = CARTESIAN_POINT ( 'NONE',  ( 0.0000000000000000000, 0.0000000000000000000, 1.485000000000000764 ) ) ;
#229 = ORIENTED_EDGE ( 'NONE', *, *, #112, .F. ) ;
#230 = DIRECTION ( 'NONE',  ( 1.000000000000000000, 0.0000000000000000000, 0.0000000000000000000 ) ) ;
#231 = ORIENTED_EDGE ( 'NONE', *, *, #51, .T. ) ;
#232 = CIRCLE ( 'NONE', #237, 0.06250000000000002776 ) ;
#233 = DIMENSIONAL_EXPONENTS ( 1.000000000000000000, 0.0000000000000000000, 0.0000000000000000000, 0.0000000000000000000, 0.0000000000000000000, 0.0000000000000000000, 0.0000000000000000000 ) ;
#234 = CARTESIAN_POINT ( 'NONE',  ( -0.04680315000000000170, 0.0000000000000000000, 5.731732783751346705E-18 ) ) ;
#235 = LENGTH_MEASURE_WITH_UNIT ( LENGTH_MEASURE( 0.02539999999999999897 ), #153 );
#236 = EDGE_CURVE ( 'NONE', #117, #132, #204, .T. ) ;
#237 = AXIS2_PLACEMENT_3D ( 'NONE', #256, #258, #230 ) ;
#238 = PRESENTATION_STYLE_ASSIGNMENT (( #80 ) ) ;
#239 = SURFACE_STYLE_USAGE ( .BOTH. , #216 ) ;
#240 = CARTESIAN_POINT ( 'NONE',  ( 0.0000000000000000000, 0.0000000000000000000, 1.500000000000000222 ) ) ;
#241 = CARTESIAN_POINT ( 'NONE',  ( 0.0000000000000000000, 0.0000000000000000000, 1.500000000000000222 ) ) ;
#242 = EDGE_CURVE ( 'NONE', #68, #1, #111, .T. ) ;
#243 = VECTOR ( 'NONE', #175, 39.37007874015748143 ) ;
#244 = CYLINDRICAL_SURFACE ( 'NONE', #20, 0.04680315000000000170 ) ;
#245 = DIRECTION ( 'NONE',  ( -0.0000000000000000000, -0.0000000000000000000, -1.000000000000000000 ) ) ;
#246 = EDGE_CURVE ( 'NONE', #192, #32, #232, .T. ) ;
#247 = VERTEX_POINT ( 'NONE', #282 ) ;
#248 = CARTESIAN_POINT ( 'NONE',  ( 5.731732783751346705E-18, 0.0000000000000000000, 0.04680315000000000170 ) ) ;
#249 = DIRECTION ( 'NONE',  ( 0.7071067811865462405, 8.659560562354916834E-17, -0.7071067811865486830 ) ) ;
#250 = ORIENTED_EDGE ( 'NONE', *, *, #51, .F. ) ;
#251 = CYLINDRICAL_SURFACE ( 'NONE', #160, 0.04680315000000000170 ) ;
#252 = CARTESIAN_POINT ( 'NONE',  ( -0.06250000000000002776, 0.0000000000000000000, 1.485000000000000764 ) ) ;
#253 = ORIENTED_EDGE ( 'NONE', *, *, #189, .T. ) ;
#254 = EDGE_LOOP ( 'NONE', ( #168, #50, #312, #287 ) ) ;
#255 =( CONVERSION_BASED_UNIT ( 'INCH', #235 ) LENGTH_UNIT ( ) NAMED_UNIT ( #233 ) );
#256 = CARTESIAN_POINT ( 'NONE',  ( 5.682621508323871149E-17, 0.0000000000000000000, 0.4640212600302659474 ) ) ;
#257 = ORIENTED_EDGE ( 'NONE', *, *, #107, .T. ) ;
#258 = DIRECTION ( 'NONE',  ( -1.224646799147353700E-16, -0.0000000000000000000, -1.000000000000000000 ) ) ;
#259 = DIRECTION ( 'NONE',  ( -1.224646799147353700E-16, -0.0000000000000000000, -1.000000000000000000 ) ) ;
#260 = ADVANCED_FACE ( 'NONE', ( #8 ), #3, .T. ) ;
#261 = VECTOR ( 'NONE', #268, 39.37007874015748854 ) ;
#262 = ORIENTED_EDGE ( 'NONE', *, *, #283, .T. ) ;
#263 = DIRECTION ( 'NONE',  ( 1.000000000000000000, 0.0000000000000000000, 0.0000000000000000000 ) ) ;
#264 = DIMENSIONAL_EXPONENTS ( 1.000000000000000000, 0.0000000000000000000, 0.0000000000000000000, 0.0000000000000000000, 0.0000000000000000000, 0.0000000000000000000, 0.0000000000000000000 ) ;
#265 = STYLED_ITEM ( 'NONE', ( #214 ), #131 ) ;
#266 = DIRECTION ( 'NONE',  ( -1.000000000000000000, 0.0000000000000000000, 0.0000000000000000000 ) ) ;
#267 = DIRECTION ( 'NONE',  ( -1.224646799147353700E-16, -0.0000000000000000000, -1.000000000000000000 ) ) ;
#268 = DIRECTION ( 'NONE',  ( -0.7071067811865462405, 0.0000000000000000000, -0.7071067811865486830 ) ) ;
#269 = FILL_AREA_STYLE ('',( #311 ) ) ;
#270 = CARTESIAN_POINT ( 'NONE',  ( 4.592425496802576684E-17, 0.0000000000000000000, 0.3750000000000000555 ) ) ;
#271 = CARTESIAN_POINT ( 'NONE',  ( -0.04750000000000064587, 0.0000000000000000000, 1.500000000000000222 ) ) ;
#272 = CIRCLE ( 'NONE', #40, 0.06250000000000002776 ) ;
#273 = ORIENTED_EDGE ( 'NONE', *, *, #88, .F. ) ;
#274 = ORIENTED_EDGE ( 'NONE', *, *, #36, .T. ) ;
#275 = APPLICATION_PROTOCOL_DEFINITION ( 'draft international standard', 'automotive_design', 1998, #90 ) ;
#276 = DIRECTION ( 'NONE',  ( 1.224646799147353700E-16, 0.0000000000000000000, 1.000000000000000000 ) ) ;
#277 = ORIENTED_EDGE ( 'NONE', *, *, #246, .F. ) ;
#278 = ORIENTED_EDGE ( 'NONE', *, *, #186, .F. ) ;
#279 = ADVANCED_FACE ( 'NONE', ( #180 ), #106, .T. ) ;
#280 = FACE_OUTER_BOUND ( 'NONE', #122, .T. ) ;
#281 =( GEOMETRIC_REPRESENTATION_CONTEXT ( 3 ) GLOBAL_UNCERTAINTY_ASSIGNED_CONTEXT ( ( #295 ) ) GLOBAL_UNIT_ASSIGNED_CONTEXT ( ( #255, #26, #71 ) ) REPRESENTATION_CONTEXT ( 'NONE', 'WORKASPACE' ) );
#282 = CARTESIAN_POINT ( 'NONE',  ( 0.04680315000000000863, 5.731732783751344394E-18, 0.04680314999999999476 ) ) ;
#283 = EDGE_CURVE ( 'NONE', #195, #192, #35, .T. ) ;
#284 = AXIS2_PLACEMENT_3D ( 'NONE', #308, #177, #29 ) ;
#285 = AXIS2_PLACEMENT_3D ( 'NONE', #293, #318, #70 ) ;
#286 = CIRCLE ( 'NONE', #34, 0.04680315000000000170 ) ;
#287 = ORIENTED_EDGE ( 'NONE', *, *, #310, .F. ) ;
#288 =( GEOMETRIC_REPRESENTATION_CONTEXT ( 3 ) GLOBAL_UNCERTAINTY_ASSIGNED_CONTEXT ( ( #17 ) ) GLOBAL_UNIT_ASSIGNED_CONTEXT ( ( #138, #323, #69 ) ) REPRESENTATION_CONTEXT ( 'NONE', 'WORKASPACE' ) );
#289 = CARTESIAN_POINT ( 'NONE',  ( 4.592425496802576684E-17, 0.0000000000000000000, 0.3750000000000000555 ) ) ;
#290 = CARTESIAN_POINT ( 'NONE',  ( 0.0000000000000000000, 0.0000000000000000000, 1.500000000000000222 ) ) ;
#291 = EDGE_CURVE ( 'NONE', #32, #192, #89, .T. ) ;
#292 = CARTESIAN_POINT ( 'NONE',  ( 0.0000000000000000000, 0.0000000000000000000, 0.0000000000000000000 ) ) ;
#293 = CARTESIAN_POINT ( 'NONE',  ( 5.731732783751346705E-18, 0.0000000000000000000, 0.04680315000000000170 ) ) ;
#294 = ORIENTED_EDGE ( 'NONE', *, *, #7, .F. ) ;
#295 = UNCERTAINTY_MEASURE_WITH_UNIT (LENGTH_MEASURE( 1.000000000000000082E-05 ), #255, 'distance_accuracy_value', 'NONE');
#296 = DIRECTION ( 'NONE',  ( -1.224646799147353700E-16, -0.0000000000000000000, -1.000000000000000000 ) ) ;
#297 = CONICAL_SURFACE ( 'NONE', #212, 0.04750000000000064587, 0.7853981633974466137 ) ;
#298 = FACE_OUTER_BOUND ( 'NONE', #49, .T. ) ;
#299 = CARTESIAN_POINT ( 'NONE',  ( 0.04750000000000064587, 5.817072295950006528E-18, 1.500000000000000222 ) ) ;
#300 = EDGE_LOOP ( 'NONE', ( #224, #231, #278 ) ) ;
#301 = DIRECTION ( 'NONE',  ( -1.000000000000000000, 0.0000000000000000000, 1.824027865688703052E-16 ) ) ;
#302 = CARTESIAN_POINT ( 'NONE',  ( 8.597599175627018516E-18, 0.0000000000000000000, 0.0000000000000000000 ) ) ;
#303 = CARTESIAN_POINT ( 'NONE',  ( 0.0000000000000000000, 0.0000000000000000000, 1.500000000000000222 ) ) ;
#304 = ORIENTED_EDGE ( 'NONE', *, *, #60, .F. ) ;
#305 = PRESENTATION_LAYER_ASSIGNMENT (  '', '', ( #309 ) ) ;
#306 = PRODUCT ( 'Micro_BEM-093-03', 'Micro_BEM-093-03', '', ( #93 ) ) ;
#307 = EDGE_CURVE ( 'NONE', #132, #117, #272, .T. ) ;
#308 = CARTESIAN_POINT ( 'NONE',  ( 5.682621508323871149E-17, 0.0000000000000000000, 0.4640212600302659474 ) ) ;
#309 = STYLED_ITEM ( 'NONE', ( #238 ), #127 ) ;
#310 = EDGE_CURVE ( 'NONE', #195, #57, #83, .T. ) ;
#311 = FILL_AREA_STYLE_COLOUR ( '', #179 ) ;
#312 = ORIENTED_EDGE ( 'NONE', *, *, #186, .T. ) ;
#313 = DIRECTION ( 'NONE',  ( -1.000000000000000000, 0.0000000000000000000, 1.224646799147353700E-16 ) ) ;
#314 = LINE ( 'NONE', #271, #261 ) ;
#315 = DIRECTION ( 'NONE',  ( 1.224646799147353700E-16, 0.0000000000000000000, 1.000000000000000000 ) ) ;
#316 = APPLICATION_PROTOCOL_DEFINITION ( 'draft international standard', 'automotive_design', 1998, #10 ) ;
#317 = DIRECTION ( 'NONE',  ( 1.000000000000000000, 0.0000000000000000000, -0.0000000000000000000 ) ) ;
#318 = DIRECTION ( 'NONE',  ( 0.0000000000000000000, 1.000000000000000000, 0.0000000000000000000 ) ) ;
#319 = ORIENTED_EDGE ( 'NONE', *, *, #291, .T. ) ;
#320 = DIRECTION ( 'NONE',  ( -0.0000000000000000000, -0.0000000000000000000, -1.000000000000000000 ) ) ;
#321 = DIRECTION ( 'NONE',  ( 0.0000000000000000000, 0.0000000000000000000, -1.000000000000000000 ) ) ;
#322 = PRODUCT_RELATED_PRODUCT_CATEGORY ( 'part', '', ( #306 ) ) ;
#323 =( NAMED_UNIT ( * ) PLANE_ANGLE_UNIT ( ) SI_UNIT ( $, .RADIAN. ) );
#324 = LINE ( 'NONE', #194, #92 ) ;
#325 = ORIENTED_EDGE ( 'NONE', *, *, #157, .F. ) ;
ENDSEC;
END-ISO-10303-21;
