ISO-10303-21;
HEADER;
FILE_DESCRIPTION (( 'STEP AP214' ),
    '1' );
FILE_NAME ('81938.STEP',
    '2023-06-30T22:38:02',
    ( '' ),
    ( '' ),
    'SwSTEP 2.0',
    'SolidWorks 2023',
    '' );
FILE_SCHEMA (( 'AUTOMOTIVE_DESIGN' ));
ENDSEC;

DATA;
#1 = DIRECTION ( 'NONE',  ( 0.000000000000000000, 0.000000000000000000, -1.000000000000000000 ) ) ;
#2 = DIMENSIONAL_EXPONENTS ( 1.000000000000000000, 0.000000000000000000, 0.000000000000000000, 0.000000000000000000, 0.000000000000000000, 0.000000000000000000, 0.000000000000000000 ) ;
#3 = AXIS2_PLACEMENT_3D ( 'NONE', #62, #69, #272 ) ;
#4 = CARTESIAN_POINT ( 'NONE',  ( -0.4999999999999993339, 2.000000000000000000, 0.000000000000000000 ) ) ;
#5 = PRODUCT ( '81938', '81938', '', ( #279 ) ) ;
#6 =( NAMED_UNIT ( * ) PLANE_ANGLE_UNIT ( ) SI_UNIT ( $, .RADIAN. ) );
#7 = ADVANCED_FACE ( 'NONE', ( #22 ), #81, .T. ) ;
#8 = CARTESIAN_POINT ( 'NONE',  ( 6.123233995736763571E-17, 2.000000000000000000, 0.4999999999999997224 ) ) ;
#9 = CARTESIAN_POINT ( 'NONE',  ( -6.123233995736770966E-17, 4.500000000000000000, 0.000000000000000000 ) ) ;
#10 = DIRECTION ( 'NONE',  ( -0.000000000000000000, -1.000000000000000000, -0.000000000000000000 ) ) ;
#11 = AXIS2_PLACEMENT_3D ( 'NONE', #26, #146, #197 ) ;
#12 =( GEOMETRIC_REPRESENTATION_CONTEXT ( 3 ) GLOBAL_UNCERTAINTY_ASSIGNED_CONTEXT ( ( #84 ) ) GLOBAL_UNIT_ASSIGNED_CONTEXT ( ( #220, #190, #236 ) ) REPRESENTATION_CONTEXT ( 'NONE', 'WORKASPACE' ) );
#13 = DIRECTION ( 'NONE',  ( -1.000000000000000000, -1.191669898726941412E-16, 0.000000000000000000 ) ) ;
#14 = AXIS2_PLACEMENT_3D ( 'NONE', #93, #209, #324 ) ;
#15 = DIMENSIONAL_EXPONENTS ( 1.000000000000000000, 0.000000000000000000, 0.000000000000000000, 0.000000000000000000, 0.000000000000000000, 0.000000000000000000, 0.000000000000000000 ) ;
#16 = DIRECTION ( 'NONE',  ( 0.000000000000000000, 1.000000000000000000, 0.000000000000000000 ) ) ;
#17 = CARTESIAN_POINT ( 'NONE',  ( 0.000000000000000000, 2.000000000000000000, 0.000000000000000000 ) ) ;
#18 = CLOSED_SHELL ( 'NONE', ( #283, #216, #175, #202, #126 ) ) ;
#19 =( GEOMETRIC_REPRESENTATION_CONTEXT ( 3 ) GLOBAL_UNCERTAINTY_ASSIGNED_CONTEXT ( ( #340 ) ) GLOBAL_UNIT_ASSIGNED_CONTEXT ( ( #117, #338, #292 ) ) REPRESENTATION_CONTEXT ( 'NONE', 'WORKASPACE' ) );
#20 = EDGE_CURVE ( 'NONE', #234, #313, #342, .T. ) ;
#21 = SURFACE_STYLE_FILL_AREA ( #87 ) ;
#22 = FACE_OUTER_BOUND ( 'NONE', #237, .T. ) ;
#23 = DIRECTION ( 'NONE',  ( 0.000000000000000000, 0.000000000000000000, 1.000000000000000000 ) ) ;
#24 = VERTEX_POINT ( 'NONE', #273 ) ;
#25 = CARTESIAN_POINT ( 'NONE',  ( -0.4999999999999998335, 4.500000000000000000, 0.000000000000000000 ) ) ;
#26 = CARTESIAN_POINT ( 'NONE',  ( -6.123233995736772199E-17, 4.500000000000000000, 0.000000000000000000 ) ) ;
#27 = AXIS2_PLACEMENT_3D ( 'NONE', #137, #164, #158 ) ;
#28 = PRODUCT_DEFINITION_CONTEXT ( 'detailed design', #373, 'design' ) ;
#29 = CARTESIAN_POINT ( 'NONE',  ( -6.123233995736770966E-17, 4.500000000000000000, 0.000000000000000000 ) ) ;
#30 = ORIENTED_EDGE ( 'NONE', *, *, #165, .F. ) ;
#31 = SURFACE_STYLE_USAGE ( .BOTH. , #207 ) ;
#32 = COLOUR_RGB ( '',1.000000000000000000, 0.000000000000000000, 0.000000000000000000 ) ;
#33 = LINE ( 'NONE', #134, #284 ) ;
#34 = SURFACE_STYLE_FILL_AREA ( #351 ) ;
#35 = CARTESIAN_POINT ( 'NONE',  ( 0.000000000000000000, 2.000000000000000000, -0.4999999999999997224 ) ) ;
#36 = DIRECTION ( 'NONE',  ( -1.000000000000000000, 0.000000000000000000, 0.000000000000000000 ) ) ;
#37 = DIMENSIONAL_EXPONENTS ( 1.000000000000000000, 0.000000000000000000, 0.000000000000000000, 0.000000000000000000, 0.000000000000000000, 0.000000000000000000, 0.000000000000000000 ) ;
#38 = CARTESIAN_POINT ( 'NONE',  ( 0.000000000000000000, 0.5000000000000001110, 0.000000000000000000 ) ) ;
#39 = CLOSED_SHELL ( 'NONE', ( #7, #132, #344, #262 ) ) ;
#40 = VECTOR ( 'NONE', #10, 39.37007874015748143 ) ;
#41 = EDGE_CURVE ( 'NONE', #174, #241, #259, .T. ) ;
#42 = LENGTH_MEASURE_WITH_UNIT ( LENGTH_MEASURE( 0.02539999999999999897 ), #250 );
#43 = DIRECTION ( 'NONE',  ( -1.191669898726941412E-16, 1.000000000000000000, -0.000000000000000000 ) ) ;
#44 =( LENGTH_UNIT ( ) NAMED_UNIT ( * ) SI_UNIT ( $, .METRE. ) );
#45 = AXIS2_PLACEMENT_3D ( 'NONE', #38, #350, #299 ) ;
#46 = CIRCLE ( 'NONE', #27, 0.4999999999999999445 ) ;
#47 = SPHERICAL_SURFACE ( 'NONE', #182, 0.5000000000000000000 ) ;
#48 = CARTESIAN_POINT ( 'NONE',  ( 6.123233995736766036E-17, 0.5000000000000001110, 0.5000000000000000000 ) ) ;
#49 = DIRECTION ( 'NONE',  ( -1.000000000000000000, 0.000000000000000000, 0.000000000000000000 ) ) ;
#50 = CIRCLE ( 'NONE', #103, 0.4999999999999999445 ) ;
#51 = EDGE_LOOP ( 'NONE', ( #369, #365, #336, #345 ) ) ;
#52 = CIRCLE ( 'NONE', #104, 0.5000000000000000000 ) ;
#53 = SURFACE_STYLE_USAGE ( .BOTH. , #121 ) ;
#54 = ORIENTED_EDGE ( 'NONE', *, *, #327, .F. ) ;
#55 = PRESENTATION_STYLE_ASSIGNMENT (( #53 ) ) ;
#56 = ORIENTED_EDGE ( 'NONE', *, *, #235, .F. ) ;
#57 = ORIENTED_EDGE ( 'NONE', *, *, #235, .T. ) ;
#58 = PRESENTATION_LAYER_ASSIGNMENT (  '', '', ( #244 ) ) ;
#59 = MECHANICAL_DESIGN_GEOMETRIC_PRESENTATION_REPRESENTATION (  '', ( #314 ), #212 ) ;
#60 = DIRECTION ( 'NONE',  ( -1.000000000000000000, 0.000000000000000000, 0.000000000000000000 ) ) ;
#61 = SURFACE_STYLE_USAGE ( .BOTH. , #245 ) ;
#62 = CARTESIAN_POINT ( 'NONE',  ( 0.4999999999999997224, 4.500000000000000000, 0.000000000000000000 ) ) ;
#63 = CARTESIAN_POINT ( 'NONE',  ( 0.4999999999999996114, 4.500000000000000000, 6.123233995736761105E-17 ) ) ;
#64 = MECHANICAL_DESIGN_GEOMETRIC_PRESENTATION_REPRESENTATION (  '', ( #260 ), #19 ) ;
#65 = CARTESIAN_POINT ( 'NONE',  ( -6.123233995736766036E-17, 0.5000000000000000000, 0.000000000000000000 ) ) ;
#66 = LENGTH_MEASURE_WITH_UNIT ( LENGTH_MEASURE( 0.02539999999999999897 ), #183 );
#67 = DIRECTION ( 'NONE',  ( -0.000000000000000000, -1.000000000000000000, -0.000000000000000000 ) ) ;
#68 =( LENGTH_UNIT ( ) NAMED_UNIT ( * ) SI_UNIT ( $, .METRE. ) );
#69 = DIRECTION ( 'NONE',  ( 1.191669898726941412E-16, -1.000000000000000000, 0.000000000000000000 ) ) ;
#70 = CARTESIAN_POINT ( 'NONE',  ( -6.123233995736766036E-17, 0.5000000000000000000, 0.000000000000000000 ) ) ;
#71 = SHAPE_DEFINITION_REPRESENTATION ( #326, #294 ) ;
#72 = MANIFOLD_SOLID_BREP ( 'Revolve - Tool Body (Straight Shanked)', #39 ) ;
#73 = STYLED_ITEM ( 'NONE', ( #76 ), #175 ) ;
#74 = FILL_AREA_STYLE_COLOUR ( '', #298 ) ;
#75 =( CONVERSION_BASED_UNIT ( 'INCH', #113 ) LENGTH_UNIT ( ) NAMED_UNIT ( #133 ) );
#76 = PRESENTATION_STYLE_ASSIGNMENT (( #282 ) ) ;
#77 = EDGE_CURVE ( 'NONE', #360, #232, #185, .T. ) ;
#78 = MECHANICAL_DESIGN_GEOMETRIC_PRESENTATION_REPRESENTATION (  '', ( #251 ), #337 ) ;
#79 = DIRECTION ( 'NONE',  ( 0.000000000000000000, 0.000000000000000000, -1.000000000000000000 ) ) ;
#80 =( GEOMETRIC_REPRESENTATION_CONTEXT ( 3 ) GLOBAL_UNCERTAINTY_ASSIGNED_CONTEXT ( ( #334 ) ) GLOBAL_UNIT_ASSIGNED_CONTEXT ( ( #372, #6, #302 ) ) REPRESENTATION_CONTEXT ( 'NONE', 'WORKASPACE' ) );
#81 = CYLINDRICAL_SURFACE ( 'NONE', #11, 0.4999999999999996669 ) ;
#82 =( GEOMETRIC_REPRESENTATION_CONTEXT ( 3 ) GLOBAL_UNCERTAINTY_ASSIGNED_CONTEXT ( ( #227 ) ) GLOBAL_UNIT_ASSIGNED_CONTEXT ( ( #223, #187, #105 ) ) REPRESENTATION_CONTEXT ( 'NONE', 'WORKASPACE' ) );
#83 = EDGE_LOOP ( 'NONE', ( #263, #318, #54, #339 ) ) ;
#84 = UNCERTAINTY_MEASURE_WITH_UNIT (LENGTH_MEASURE( 1.000000000000000082E-05 ), #220, 'distance_accuracy_value', 'NONE');
#85 = SURFACE_STYLE_USAGE ( .BOTH. , #173 ) ;
#86 = ORIENTED_EDGE ( 'NONE', *, *, #192, .F. ) ;
#87 = FILL_AREA_STYLE ('',( #171 ) ) ;
#88 = COLOUR_RGB ( '',1.000000000000000000, 0.000000000000000000, 0.000000000000000000 ) ;
#89 = DIRECTION ( 'NONE',  ( 0.000000000000000000, 0.000000000000000000, 1.000000000000000000 ) ) ;
#90 = ORIENTED_EDGE ( 'NONE', *, *, #112, .F. ) ;
#91 = FILL_AREA_STYLE_COLOUR ( '', #224 ) ;
#92 = EDGE_CURVE ( 'NONE', #24, #313, #97, .T. ) ;
#93 = CARTESIAN_POINT ( 'NONE',  ( 0.000000000000000000, 2.000000000000000000, 0.000000000000000000 ) ) ;
#94 = FILL_AREA_STYLE_COLOUR ( '', #153 ) ;
#95 = STYLED_ITEM ( 'NONE', ( #100 ), #194 ) ;
#96 = CIRCLE ( 'NONE', #14, 0.4999999999999997224 ) ;
#97 = LINE ( 'NONE', #63, #238 ) ;
#98 = DIMENSIONAL_EXPONENTS ( 1.000000000000000000, 0.000000000000000000, 0.000000000000000000, 0.000000000000000000, 0.000000000000000000, 0.000000000000000000, 0.000000000000000000 ) ;
#99 = DIRECTION ( 'NONE',  ( -1.191669898726941412E-16, 1.000000000000000000, -0.000000000000000000 ) ) ;
#100 = PRESENTATION_STYLE_ASSIGNMENT (( #261 ) ) ;
#101 = APPLICATION_CONTEXT ( 'automotive_design' ) ;
#102 = DIRECTION ( 'NONE',  ( 1.000000000000000000, 0.000000000000000000, -1.224646799147353207E-16 ) ) ;
#103 = AXIS2_PLACEMENT_3D ( 'NONE', #347, #208, #1 ) ;
#104 = AXIS2_PLACEMENT_3D ( 'NONE', #242, #179, #102 ) ;
#105 =( NAMED_UNIT ( * ) SI_UNIT ( $, .STERADIAN. ) SOLID_ANGLE_UNIT ( ) );
#106 = CYLINDRICAL_SURFACE ( 'NONE', #213, 0.4999999999999996669 ) ;
#107 = SURFACE_STYLE_FILL_AREA ( #166 ) ;
#108 = DIRECTION ( 'NONE',  ( -0.000000000000000000, -1.000000000000000000, -0.000000000000000000 ) ) ;
#109 = EDGE_CURVE ( 'NONE', #123, #24, #168, .T. ) ;
#110 = DIMENSIONAL_EXPONENTS ( 1.000000000000000000, 0.000000000000000000, 0.000000000000000000, 0.000000000000000000, 0.000000000000000000, 0.000000000000000000, 0.000000000000000000 ) ;
#111 = DIRECTION ( 'NONE',  ( 1.000000000000000000, 0.000000000000000000, 0.000000000000000000 ) ) ;
#112 = EDGE_CURVE ( 'NONE', #229, #174, #50, .T. ) ;
#113 = LENGTH_MEASURE_WITH_UNIT ( LENGTH_MEASURE( 0.02539999999999999897 ), #352 );
#114 = CARTESIAN_POINT ( 'NONE',  ( 0.000000000000000000, 0.000000000000000000, 0.000000000000000000 ) ) ;
#115 = ORIENTED_EDGE ( 'NONE', *, *, #77, .T. ) ;
#116 = UNCERTAINTY_MEASURE_WITH_UNIT (LENGTH_MEASURE( 1.000000000000000082E-05 ), #221, 'distance_accuracy_value', 'NONE');
#117 =( CONVERSION_BASED_UNIT ( 'INCH', #287 ) LENGTH_UNIT ( ) NAMED_UNIT ( #98 ) );
#118 = AXIS2_PLACEMENT_3D ( 'NONE', #114, #335, #79 ) ;
#119 = ORIENTED_EDGE ( 'NONE', *, *, #20, .T. ) ;
#120 = EDGE_LOOP ( 'NONE', ( #122, #57, #115, #141, #286 ) ) ;
#121 = SURFACE_SIDE_STYLE ('',( #147 ) ) ;
#122 = ORIENTED_EDGE ( 'NONE', *, *, #300, .F. ) ;
#123 = VERTEX_POINT ( 'NONE', #4 ) ;
#124 = CIRCLE ( 'NONE', #370, 0.4999999999999999445 ) ;
#125 = AXIS2_PLACEMENT_3D ( 'NONE', #264, #23, #111 ) ;
#126 = ADVANCED_FACE ( 'NONE', ( #211 ), #47, .T. ) ;
#127 = FACE_OUTER_BOUND ( 'NONE', #316, .T. ) ;
#128 = CARTESIAN_POINT ( 'NONE',  ( 2.366851347243676064E-16, 2.000000000000000000, 0.000000000000000000 ) ) ;
#129 = DIRECTION ( 'NONE',  ( -1.191669898726941412E-16, 1.000000000000000000, -0.000000000000000000 ) ) ;
#130 = SURFACE_STYLE_USAGE ( .BOTH. , #131 ) ;
#131 = SURFACE_SIDE_STYLE ('',( #249 ) ) ;
#132 = ADVANCED_FACE ( 'NONE', ( #275 ), #257, .F. ) ;
#133 = DIMENSIONAL_EXPONENTS ( 1.000000000000000000, 0.000000000000000000, 0.000000000000000000, 0.000000000000000000, 0.000000000000000000, 0.000000000000000000, 0.000000000000000000 ) ;
#134 = CARTESIAN_POINT ( 'NONE',  ( -0.4999999999999997224, 4.500000000000000000, 0.000000000000000000 ) ) ;
#135 = AXIS2_PLACEMENT_3D ( 'NONE', #305, #43, #323 ) ;
#136 = PRESENTATION_LAYER_ASSIGNMENT (  '', '', ( #303 ) ) ;
#137 = CARTESIAN_POINT ( 'NONE',  ( 0.000000000000000000, 0.5000000000000001110, 0.000000000000000000 ) ) ;
#138 =( GEOMETRIC_REPRESENTATION_CONTEXT ( 3 ) GLOBAL_UNCERTAINTY_ASSIGNED_CONTEXT ( ( #280 ) ) GLOBAL_UNIT_ASSIGNED_CONTEXT ( ( #177, #285, #289 ) ) REPRESENTATION_CONTEXT ( 'NONE', 'WORKASPACE' ) );
#139 = DIRECTION ( 'NONE',  ( 1.000000000000000000, 0.000000000000000000, 0.000000000000000000 ) ) ;
#140 = UNCERTAINTY_MEASURE_WITH_UNIT (LENGTH_MEASURE( 1.000000000000000082E-05 ), #349, 'distance_accuracy_value', 'NONE');
#141 = ORIENTED_EDGE ( 'NONE', *, *, #159, .F. ) ;
#142 = ORIENTED_EDGE ( 'NONE', *, *, #77, .F. ) ;
#143 = AXIS2_PLACEMENT_3D ( 'NONE', #191, #356, #13 ) ;
#144 = CARTESIAN_POINT ( 'NONE',  ( 0.000000000000000000, 2.000000000000000000, 0.000000000000000000 ) ) ;
#145 = COLOUR_RGB ( '',1.000000000000000000, 0.000000000000000000, 0.000000000000000000 ) ;
#146 = DIRECTION ( 'NONE',  ( -1.191669898726941412E-16, 1.000000000000000000, -0.000000000000000000 ) ) ;
#147 = SURFACE_STYLE_FILL_AREA ( #228 ) ;
#148 = ORIENTED_EDGE ( 'NONE', *, *, #192, .T. ) ;
#149 = UNCERTAINTY_MEASURE_WITH_UNIT (LENGTH_MEASURE( 1.000000000000000082E-05 ), #75, 'distance_accuracy_value', 'NONE');
#150 = CARTESIAN_POINT ( 'NONE',  ( 0.000000000000000000, 0.000000000000000000, 0.000000000000000000 ) ) ;
#151 = ORIENTED_EDGE ( 'NONE', *, *, #92, .F. ) ;
#152 = LENGTH_MEASURE_WITH_UNIT ( LENGTH_MEASURE( 0.02539999999999999897 ), #301 );
#153 = COLOUR_RGB ( '',0.7921568627450980005, 0.8196078431372548767, 0.9333333333333333481 ) ;
#154 =( GEOMETRIC_REPRESENTATION_CONTEXT ( 3 ) GLOBAL_UNCERTAINTY_ASSIGNED_CONTEXT ( ( #149 ) ) GLOBAL_UNIT_ASSIGNED_CONTEXT ( ( #75, #317, #199 ) ) REPRESENTATION_CONTEXT ( 'NONE', 'WORKASPACE' ) );
#155 = DIRECTION ( 'NONE',  ( 0.000000000000000000, 0.000000000000000000, -1.000000000000000000 ) ) ;
#156 = FACE_OUTER_BOUND ( 'NONE', #288, .T. ) ;
#157 = DIMENSIONAL_EXPONENTS ( 1.000000000000000000, 0.000000000000000000, 0.000000000000000000, 0.000000000000000000, 0.000000000000000000, 0.000000000000000000, 0.000000000000000000 ) ;
#158 = DIRECTION ( 'NONE',  ( 0.000000000000000000, 0.000000000000000000, -1.000000000000000000 ) ) ;
#159 = EDGE_CURVE ( 'NONE', #241, #232, #46, .T. ) ;
#160 =( NAMED_UNIT ( * ) SI_UNIT ( $, .STERADIAN. ) SOLID_ANGLE_UNIT ( ) );
#161 = CARTESIAN_POINT ( 'NONE',  ( 0.000000000000000000, 0.5000000000000001110, 0.000000000000000000 ) ) ;
#162 = VECTOR ( 'NONE', #67, 39.37007874015748143 ) ;
#163 = PRESENTATION_LAYER_ASSIGNMENT (  '', '', ( #260 ) ) ;
#164 = DIRECTION ( 'NONE',  ( -0.000000000000000000, -1.000000000000000000, -0.000000000000000000 ) ) ;
#165 = EDGE_CURVE ( 'NONE', #232, #229, #124, .T. ) ;
#166 = FILL_AREA_STYLE ('',( #281 ) ) ;
#167 = SURFACE_STYLE_FILL_AREA ( #333 ) ;
#168 = CIRCLE ( 'NONE', #217, 0.4999999999999995004 ) ;
#169 = AXIS2_PLACEMENT_3D ( 'NONE', #65, #155, #60 ) ;
#170 = ORIENTED_EDGE ( 'NONE', *, *, #20, .F. ) ;
#171 = FILL_AREA_STYLE_COLOUR ( '', #145 ) ;
#172 = EDGE_LOOP ( 'NONE', ( #321, #56 ) ) ;
#173 = SURFACE_SIDE_STYLE ('',( #21 ) ) ;
#174 = VERTEX_POINT ( 'NONE', #48 ) ;
#175 = ADVANCED_FACE ( 'NONE', ( #308 ), #304, .T. ) ;
#176 = ORIENTED_EDGE ( 'NONE', *, *, #300, .T. ) ;
#177 =( CONVERSION_BASED_UNIT ( 'INCH', #320 ) LENGTH_UNIT ( ) NAMED_UNIT ( #254 ) );
#178 = ORIENTED_EDGE ( 'NONE', *, *, #353, .T. ) ;
#179 = DIRECTION ( 'NONE',  ( 1.224646799147353207E-16, -0.000000000000000000, 1.000000000000000000 ) ) ;
#180 = DIRECTION ( 'NONE',  ( -1.191669898726941412E-16, 1.000000000000000000, -0.000000000000000000 ) ) ;
#181 = FILL_AREA_STYLE ('',( #91 ) ) ;
#182 = AXIS2_PLACEMENT_3D ( 'NONE', #70, #306, #139 ) ;
#183 =( LENGTH_UNIT ( ) NAMED_UNIT ( * ) SI_UNIT ( $, .METRE. ) );
#184 = CARTESIAN_POINT ( 'NONE',  ( -6.123233995736772199E-17, 4.500000000000000000, 0.000000000000000000 ) ) ;
#185 = LINE ( 'NONE', #270, #162 ) ;
#186 = AXIS2_PLACEMENT_3D ( 'NONE', #17, #16, #222 ) ;
#187 =( NAMED_UNIT ( * ) PLANE_ANGLE_UNIT ( ) SI_UNIT ( $, .RADIAN. ) );
#188 = SURFACE_SIDE_STYLE ('',( #107 ) ) ;
#189 = CARTESIAN_POINT ( 'NONE',  ( -0.5000000000000000000, 0.5000000000000001110, 6.123233995736764803E-17 ) ) ;
#190 =( NAMED_UNIT ( * ) PLANE_ANGLE_UNIT ( ) SI_UNIT ( $, .RADIAN. ) );
#191 = CARTESIAN_POINT ( 'NONE',  ( 2.366851347243676557E-16, 2.000000000000000000, 0.000000000000000000 ) ) ;
#192 = EDGE_CURVE ( 'NONE', #313, #234, #246, .T. ) ;
#193 = AXIS2_PLACEMENT_3D ( 'NONE', #29, #268, #36 ) ;
#194 = MANIFOLD_SOLID_BREP ( 'Revolve - Cutting Edge', #18 ) ;
#195 = CIRCLE ( 'NONE', #135, 0.4999999999999995004 ) ;
#196 = CARTESIAN_POINT ( 'NONE',  ( 0.4999999999999999445, 0.5000000000000001110, 0.000000000000000000 ) ) ;
#197 = DIRECTION ( 'NONE',  ( -1.000000000000000000, 0.000000000000000000, 0.000000000000000000 ) ) ;
#198 = PRODUCT_RELATED_PRODUCT_CATEGORY ( 'part', '', ( #5 ) ) ;
#199 =( NAMED_UNIT ( * ) SI_UNIT ( $, .STERADIAN. ) SOLID_ANGLE_UNIT ( ) );
#200 = ORIENTED_EDGE ( 'NONE', *, *, #109, .T. ) ;
#201 = ORIENTED_EDGE ( 'NONE', *, *, #247, .F. ) ;
#202 = ADVANCED_FACE ( 'NONE', ( #291 ), #225, .T. ) ;
#203 = DIRECTION ( 'NONE',  ( 0.000000000000000000, 0.000000000000000000, -1.000000000000000000 ) ) ;
#204 = MECHANICAL_DESIGN_GEOMETRIC_PRESENTATION_REPRESENTATION (  '', ( #73 ), #82 ) ;
#205 = ORIENTED_EDGE ( 'NONE', *, *, #247, .T. ) ;
#206 = CARTESIAN_POINT ( 'NONE',  ( 6.123233995736764803E-17, 0.000000000000000000, 0.4999999999999998335 ) ) ;
#207 = SURFACE_SIDE_STYLE ('',( #307 ) ) ;
#208 = DIRECTION ( 'NONE',  ( -0.000000000000000000, -1.000000000000000000, -0.000000000000000000 ) ) ;
#209 = DIRECTION ( 'NONE',  ( -0.000000000000000000, -1.000000000000000000, -0.000000000000000000 ) ) ;
#210 = PRESENTATION_LAYER_ASSIGNMENT (  '', '', ( #251 ) ) ;
#211 = FACE_OUTER_BOUND ( 'NONE', #51, .T. ) ;
#212 =( GEOMETRIC_REPRESENTATION_CONTEXT ( 3 ) GLOBAL_UNCERTAINTY_ASSIGNED_CONTEXT ( ( #116 ) ) GLOBAL_UNIT_ASSIGNED_CONTEXT ( ( #221, #239, #160 ) ) REPRESENTATION_CONTEXT ( 'NONE', 'WORKASPACE' ) );
#213 = AXIS2_PLACEMENT_3D ( 'NONE', #184, #129, #346 ) ;
#214 =( NAMED_UNIT ( * ) SI_UNIT ( $, .STERADIAN. ) SOLID_ANGLE_UNIT ( ) );
#215 =( NAMED_UNIT ( * ) PLANE_ANGLE_UNIT ( ) SI_UNIT ( $, .RADIAN. ) );
#216 = ADVANCED_FACE ( 'NONE', ( #358 ), #359, .T. ) ;
#217 = AXIS2_PLACEMENT_3D ( 'NONE', #128, #180, #243 ) ;
#218 = AXIS2_PLACEMENT_3D ( 'NONE', #9, #258, #49 ) ;
#219 = PRESENTATION_STYLE_ASSIGNMENT (( #31 ) ) ;
#220 =( CONVERSION_BASED_UNIT ( 'INCH', #42 ) LENGTH_UNIT ( ) NAMED_UNIT ( #2 ) );
#221 =( CONVERSION_BASED_UNIT ( 'INCH', #253 ) LENGTH_UNIT ( ) NAMED_UNIT ( #15 ) );
#222 = DIRECTION ( 'NONE',  ( 0.000000000000000000, -0.000000000000000000, 1.000000000000000000 ) ) ;
#223 =( CONVERSION_BASED_UNIT ( 'INCH', #255 ) LENGTH_UNIT ( ) NAMED_UNIT ( #157 ) );
#224 = COLOUR_RGB ( '',1.000000000000000000, 0.000000000000000000, 0.000000000000000000 ) ;
#225 = CYLINDRICAL_SURFACE ( 'NONE', #278, 0.4999999999999998335 ) ;
#226 =( LENGTH_UNIT ( ) NAMED_UNIT ( * ) SI_UNIT ( $, .METRE. ) );
#227 = UNCERTAINTY_MEASURE_WITH_UNIT (LENGTH_MEASURE( 1.000000000000000082E-05 ), #223, 'distance_accuracy_value', 'NONE');
#228 = FILL_AREA_STYLE ('',( #361 ) ) ;
#229 = VERTEX_POINT ( 'NONE', #196 ) ;
#230 = PRESENTATION_LAYER_ASSIGNMENT (  '', '', ( #95 ) ) ;
#231 = PRESENTATION_STYLE_ASSIGNMENT (( #85 ) ) ;
#232 = VERTEX_POINT ( 'NONE', #315 ) ;
#233 = DIRECTION ( 'NONE',  ( -0.000000000000000000, -1.000000000000000000, -0.000000000000000000 ) ) ;
#234 = VERTEX_POINT ( 'NONE', #25 ) ;
#235 = EDGE_CURVE ( 'NONE', #367, #360, #343, .T. ) ;
#236 =( NAMED_UNIT ( * ) SI_UNIT ( $, .STERADIAN. ) SOLID_ANGLE_UNIT ( ) );
#237 = EDGE_LOOP ( 'NONE', ( #200, #265, #170, #362 ) ) ;
#238 = VECTOR ( 'NONE', #99, 39.37007874015748143 ) ;
#239 =( NAMED_UNIT ( * ) PLANE_ANGLE_UNIT ( ) SI_UNIT ( $, .RADIAN. ) );
#240 = PRESENTATION_LAYER_ASSIGNMENT (  '', '', ( #314 ) ) ;
#241 = VERTEX_POINT ( 'NONE', #189 ) ;
#242 = CARTESIAN_POINT ( 'NONE',  ( -6.123233995736766036E-17, 0.5000000000000000000, 0.000000000000000000 ) ) ;
#243 = DIRECTION ( 'NONE',  ( -1.000000000000000000, 0.000000000000000000, 0.000000000000000000 ) ) ;
#244 = STYLED_ITEM ( 'NONE', ( #296 ), #72 ) ;
#245 = SURFACE_SIDE_STYLE ('',( #34 ) ) ;
#246 = CIRCLE ( 'NONE', #218, 0.4999999999999997780 ) ;
#247 = EDGE_CURVE ( 'NONE', #24, #123, #195, .T. ) ;
#248 = PRESENTATION_STYLE_ASSIGNMENT (( #130 ) ) ;
#249 = SURFACE_STYLE_FILL_AREA ( #276 ) ;
#250 =( LENGTH_UNIT ( ) NAMED_UNIT ( * ) SI_UNIT ( $, .METRE. ) );
#251 = STYLED_ITEM ( 'NONE', ( #248 ), #126 ) ;
#252 = COLOUR_RGB ( '',1.000000000000000000, 0.000000000000000000, 0.000000000000000000 ) ;
#253 = LENGTH_MEASURE_WITH_UNIT ( LENGTH_MEASURE( 0.02539999999999999897 ), #44 );
#254 = DIMENSIONAL_EXPONENTS ( 1.000000000000000000, 0.000000000000000000, 0.000000000000000000, 0.000000000000000000, 0.000000000000000000, 0.000000000000000000, 0.000000000000000000 ) ;
#255 = LENGTH_MEASURE_WITH_UNIT ( LENGTH_MEASURE( 0.02539999999999999897 ), #68 );
#256 = APPLICATION_PROTOCOL_DEFINITION ( 'draft international standard', 'automotive_design', 1998, #373 ) ;
#257 = PLANE ( 'NONE',  #143 ) ;
#258 = DIRECTION ( 'NONE',  ( -1.191669898726941412E-16, 1.000000000000000000, -0.000000000000000000 ) ) ;
#259 = CIRCLE ( 'NONE', #45, 0.4999999999999999445 ) ;
#260 = STYLED_ITEM ( 'NONE', ( #231 ), #202 ) ;
#261 = SURFACE_STYLE_USAGE ( .BOTH. , #332 ) ;
#262 = ADVANCED_FACE ( 'NONE', ( #156 ), #331, .F. ) ;
#263 = ORIENTED_EDGE ( 'NONE', *, *, #41, .T. ) ;
#264 = CARTESIAN_POINT ( 'NONE',  ( 0.000000000000000000, 0.000000000000000000, 0.000000000000000000 ) ) ;
#265 = ORIENTED_EDGE ( 'NONE', *, *, #92, .T. ) ;
#266 = MECHANICAL_DESIGN_GEOMETRIC_PRESENTATION_REPRESENTATION (  '', ( #95 ), #12 ) ;
#267 = DIRECTION ( 'NONE',  ( -0.000000000000000000, -1.000000000000000000, -0.000000000000000000 ) ) ;
#268 = DIRECTION ( 'NONE',  ( -1.191669898726941412E-16, 1.000000000000000000, -0.000000000000000000 ) ) ;
#269 = EDGE_LOOP ( 'NONE', ( #341, #201 ) ) ;
#270 = CARTESIAN_POINT ( 'NONE',  ( 0.000000000000000000, 0.000000000000000000, -0.4999999999999998335 ) ) ;
#271 = PRODUCT_DEFINITION ( 'UNKNOWN', '', #348, #28 ) ;
#272 = DIRECTION ( 'NONE',  ( 1.000000000000000000, 1.191669898726941412E-16, 0.000000000000000000 ) ) ;
#273 = CARTESIAN_POINT ( 'NONE',  ( 0.4999999999999997780, 2.000000000000000000, 6.123233995736763571E-17 ) ) ;
#274 = CARTESIAN_POINT ( 'NONE',  ( -6.123233995736766036E-17, 0.5000000000000000000, 0.000000000000000000 ) ) ;
#275 = FACE_OUTER_BOUND ( 'NONE', #269, .T. ) ;
#276 = FILL_AREA_STYLE ('',( #325 ) ) ;
#277 = DIRECTION ( 'NONE',  ( 1.000000000000000000, 0.000000000000000000, 0.000000000000000000 ) ) ;
#278 = AXIS2_PLACEMENT_3D ( 'NONE', #150, #233, #203 ) ;
#279 = PRODUCT_CONTEXT ( 'NONE', #101, 'mechanical' ) ;
#280 = UNCERTAINTY_MEASURE_WITH_UNIT (LENGTH_MEASURE( 1.000000000000000082E-05 ), #177, 'distance_accuracy_value', 'NONE');
#281 = FILL_AREA_STYLE_COLOUR ( '', #32 ) ;
#282 = SURFACE_STYLE_USAGE ( .BOTH. , #188 ) ;
#283 = ADVANCED_FACE ( 'NONE', ( #329 ), #295, .T. ) ;
#284 = VECTOR ( 'NONE', #322, 39.37007874015748143 ) ;
#285 =( NAMED_UNIT ( * ) PLANE_ANGLE_UNIT ( ) SI_UNIT ( $, .RADIAN. ) );
#286 = ORIENTED_EDGE ( 'NONE', *, *, #41, .F. ) ;
#287 = LENGTH_MEASURE_WITH_UNIT ( LENGTH_MEASURE( 0.02539999999999999897 ), #366 );
#288 = EDGE_LOOP ( 'NONE', ( #119, #148 ) ) ;
#289 =( NAMED_UNIT ( * ) SI_UNIT ( $, .STERADIAN. ) SOLID_ANGLE_UNIT ( ) );
#290 = ORIENTED_EDGE ( 'NONE', *, *, #310, .T. ) ;
#291 = FACE_OUTER_BOUND ( 'NONE', #120, .T. ) ;
#292 =( NAMED_UNIT ( * ) SI_UNIT ( $, .STERADIAN. ) SOLID_ANGLE_UNIT ( ) );
#293 = VERTEX_POINT ( 'NONE', #355 ) ;
#294 = ADVANCED_BREP_SHAPE_REPRESENTATION ( '81938', ( #194, #72, #125 ), #154 ) ;
#295 = SPHERICAL_SURFACE ( 'NONE', #357, 0.5000000000000000000 ) ;
#296 = PRESENTATION_STYLE_ASSIGNMENT (( #61 ) ) ;
#297 = MECHANICAL_DESIGN_GEOMETRIC_PRESENTATION_REPRESENTATION (  '', ( #303 ), #138 ) ;
#298 = COLOUR_RGB ( '',0.7921568627450980005, 0.8196078431372548767, 0.9333333333333333481 ) ;
#299 = DIRECTION ( 'NONE',  ( 0.000000000000000000, 0.000000000000000000, -1.000000000000000000 ) ) ;
#300 = EDGE_CURVE ( 'NONE', #367, #174, #368, .T. ) ;
#301 =( LENGTH_UNIT ( ) NAMED_UNIT ( * ) SI_UNIT ( $, .METRE. ) );
#302 =( NAMED_UNIT ( * ) SI_UNIT ( $, .STERADIAN. ) SOLID_ANGLE_UNIT ( ) );
#303 = STYLED_ITEM ( 'NONE', ( #55 ), #216 ) ;
#304 = PLANE ( 'NONE',  #186 ) ;
#305 = CARTESIAN_POINT ( 'NONE',  ( 2.366851347243676064E-16, 2.000000000000000000, 0.000000000000000000 ) ) ;
#306 = DIRECTION ( 'NONE',  ( 0.000000000000000000, 0.000000000000000000, 1.000000000000000000 ) ) ;
#307 = SURFACE_STYLE_FILL_AREA ( #181 ) ;
#308 = FACE_OUTER_BOUND ( 'NONE', #172, .T. ) ;
#309 = MECHANICAL_DESIGN_GEOMETRIC_PRESENTATION_REPRESENTATION (  '', ( #244 ), #80 ) ;
#310 = EDGE_CURVE ( 'NONE', #123, #234, #33, .T. ) ;
#311 = DIRECTION ( 'NONE',  ( 0.000000000000000000, 0.000000000000000000, -1.000000000000000000 ) ) ;
#312 = APPLICATION_PROTOCOL_DEFINITION ( 'draft international standard', 'automotive_design', 1998, #101 ) ;
#313 = VERTEX_POINT ( 'NONE', #371 ) ;
#314 = STYLED_ITEM ( 'NONE', ( #219 ), #283 ) ;
#315 = CARTESIAN_POINT ( 'NONE',  ( 0.000000000000000000, 0.5000000000000001110, -0.4999999999999999445 ) ) ;
#316 = EDGE_LOOP ( 'NONE', ( #151, #205, #290, #86 ) ) ;
#317 =( NAMED_UNIT ( * ) PLANE_ANGLE_UNIT ( ) SI_UNIT ( $, .RADIAN. ) );
#318 = ORIENTED_EDGE ( 'NONE', *, *, #330, .T. ) ;
#319 = EDGE_LOOP ( 'NONE', ( #178, #176, #90, #30, #142 ) ) ;
#320 = LENGTH_MEASURE_WITH_UNIT ( LENGTH_MEASURE( 0.02539999999999999897 ), #226 );
#321 = ORIENTED_EDGE ( 'NONE', *, *, #353, .F. ) ;
#322 = DIRECTION ( 'NONE',  ( -1.191669898726941412E-16, 1.000000000000000000, -0.000000000000000000 ) ) ;
#323 = DIRECTION ( 'NONE',  ( -1.000000000000000000, 0.000000000000000000, 0.000000000000000000 ) ) ;
#324 = DIRECTION ( 'NONE',  ( 0.000000000000000000, 0.000000000000000000, -1.000000000000000000 ) ) ;
#325 = FILL_AREA_STYLE_COLOUR ( '', #252 ) ;
#326 = PRODUCT_DEFINITION_SHAPE ( 'NONE', 'NONE',  #271 ) ;
#327 = EDGE_CURVE ( 'NONE', #229, #293, #328, .T. ) ;
#328 = CIRCLE ( 'NONE', #169, 0.5000000000000000000 ) ;
#329 = FACE_OUTER_BOUND ( 'NONE', #83, .T. ) ;
#330 = EDGE_CURVE ( 'NONE', #241, #293, #52, .T. ) ;
#331 = PLANE ( 'NONE',  #3 ) ;
#332 = SURFACE_SIDE_STYLE ('',( #167 ) ) ;
#333 = FILL_AREA_STYLE ('',( #74 ) ) ;
#334 = UNCERTAINTY_MEASURE_WITH_UNIT (LENGTH_MEASURE( 1.000000000000000082E-05 ), #372, 'distance_accuracy_value', 'NONE');
#335 = DIRECTION ( 'NONE',  ( -0.000000000000000000, -1.000000000000000000, -0.000000000000000000 ) ) ;
#336 = ORIENTED_EDGE ( 'NONE', *, *, #165, .T. ) ;
#337 =( GEOMETRIC_REPRESENTATION_CONTEXT ( 3 ) GLOBAL_UNCERTAINTY_ASSIGNED_CONTEXT ( ( #140 ) ) GLOBAL_UNIT_ASSIGNED_CONTEXT ( ( #349, #215, #214 ) ) REPRESENTATION_CONTEXT ( 'NONE', 'WORKASPACE' ) );
#338 =( NAMED_UNIT ( * ) PLANE_ANGLE_UNIT ( ) SI_UNIT ( $, .RADIAN. ) );
#339 = ORIENTED_EDGE ( 'NONE', *, *, #112, .T. ) ;
#340 = UNCERTAINTY_MEASURE_WITH_UNIT (LENGTH_MEASURE( 1.000000000000000082E-05 ), #117, 'distance_accuracy_value', 'NONE');
#341 = ORIENTED_EDGE ( 'NONE', *, *, #109, .F. ) ;
#342 = CIRCLE ( 'NONE', #193, 0.4999999999999997780 ) ;
#343 = CIRCLE ( 'NONE', #363, 0.4999999999999997224 ) ;
#344 = ADVANCED_FACE ( 'NONE', ( #127 ), #106, .T. ) ;
#345 = ORIENTED_EDGE ( 'NONE', *, *, #327, .T. ) ;
#346 = DIRECTION ( 'NONE',  ( -1.000000000000000000, 0.000000000000000000, 0.000000000000000000 ) ) ;
#347 = CARTESIAN_POINT ( 'NONE',  ( 0.000000000000000000, 0.5000000000000001110, 0.000000000000000000 ) ) ;
#348 = PRODUCT_DEFINITION_FORMATION_WITH_SPECIFIED_SOURCE ( 'ANY', '', #5, .NOT_KNOWN. ) ;
#349 =( CONVERSION_BASED_UNIT ( 'INCH', #66 ) LENGTH_UNIT ( ) NAMED_UNIT ( #37 ) );
#350 = DIRECTION ( 'NONE',  ( -0.000000000000000000, -1.000000000000000000, -0.000000000000000000 ) ) ;
#351 = FILL_AREA_STYLE ('',( #94 ) ) ;
#352 =( LENGTH_UNIT ( ) NAMED_UNIT ( * ) SI_UNIT ( $, .METRE. ) );
#353 = EDGE_CURVE ( 'NONE', #360, #367, #96, .T. ) ;
#354 = PRESENTATION_LAYER_ASSIGNMENT (  '', '', ( #73 ) ) ;
#355 = CARTESIAN_POINT ( 'NONE',  ( -3.061616997868383018E-17, 0.000000000000000000, 0.000000000000000000 ) ) ;
#356 = DIRECTION ( 'NONE',  ( -1.191669898726941412E-16, 1.000000000000000000, 0.000000000000000000 ) ) ;
#357 = AXIS2_PLACEMENT_3D ( 'NONE', #274, #89, #277 ) ;
#358 = FACE_OUTER_BOUND ( 'NONE', #319, .T. ) ;
#359 = CYLINDRICAL_SURFACE ( 'NONE', #118, 0.4999999999999998335 ) ;
#360 = VERTEX_POINT ( 'NONE', #35 ) ;
#361 = FILL_AREA_STYLE_COLOUR ( '', #88 ) ;
#362 = ORIENTED_EDGE ( 'NONE', *, *, #310, .F. ) ;
#363 = AXIS2_PLACEMENT_3D ( 'NONE', #144, #267, #364 ) ;
#364 = DIRECTION ( 'NONE',  ( 0.000000000000000000, 0.000000000000000000, -1.000000000000000000 ) ) ;
#365 = ORIENTED_EDGE ( 'NONE', *, *, #159, .T. ) ;
#366 =( LENGTH_UNIT ( ) NAMED_UNIT ( * ) SI_UNIT ( $, .METRE. ) );
#367 = VERTEX_POINT ( 'NONE', #8 ) ;
#368 = LINE ( 'NONE', #206, #40 ) ;
#369 = ORIENTED_EDGE ( 'NONE', *, *, #330, .F. ) ;
#370 = AXIS2_PLACEMENT_3D ( 'NONE', #161, #108, #311 ) ;
#371 = CARTESIAN_POINT ( 'NONE',  ( 0.4999999999999997780, 4.500000000000000000, 6.123233995736763571E-17 ) ) ;
#372 =( CONVERSION_BASED_UNIT ( 'INCH', #152 ) LENGTH_UNIT ( ) NAMED_UNIT ( #110 ) );
#373 = APPLICATION_CONTEXT ( 'automotive_design' ) ;
ENDSEC;
END-ISO-10303-21;
