ISO-10303-21;
HEADER;
FILE_DESCRIPTION (( 'STEP AP214' ),
    '1' );
FILE_NAME ('Micro_GEM-046-2.STEP',
    '2021-09-01T18:51:05',
    ( '' ),
    ( '' ),
    'SwSTEP 2.0',
    'SolidWorks 2020',
    '' );
FILE_SCHEMA (( 'AUTOMOTIVE_DESIGN' ));
ENDSEC;

DATA;
#1 = VECTOR ( 'NONE', #100, 39.37007874015748143 ) ;
#2 = ADVANCED_FACE ( 'NONE', ( #15 ), #20, .T. ) ;
#3 = CARTESIAN_POINT ( 'NONE',  ( 0.0000000000000000000, 0.0000000000000000000, 1.500000000000000222 ) ) ;
#4 = CARTESIAN_POINT ( 'NONE',  ( 0.02342655000000000778, 0.0000000000000000000, 0.1089999999999999997 ) ) ;
#5 = CARTESIAN_POINT ( 'NONE',  ( 1.334865011070615584E-17, 0.0000000000000000000, 0.1089999999999999997 ) ) ;
#6 = CARTESIAN_POINT ( 'NONE',  ( 0.0000000000000000000, 0.0000000000000000000, 1.500000000000000222 ) ) ;
#7 = PLANE ( 'NONE',  #144 ) ;
#8 = DIRECTION ( 'NONE',  ( 0.7071067811865462405, 8.659560562354916834E-17, -0.7071067811865486830 ) ) ;
#9 = CARTESIAN_POINT ( 'NONE',  ( -0.04750000000000064587, 0.0000000000000000000, 1.500000000000000222 ) ) ;
#10 = AXIS2_PLACEMENT_3D ( 'NONE', #244, #245, #130 ) ;
#11 =( NAMED_UNIT ( * ) PLANE_ANGLE_UNIT ( ) SI_UNIT ( $, .RADIAN. ) );
#12 = EDGE_CURVE ( 'NONE', #230, #139, #28, .T. ) ;
#13 = CARTESIAN_POINT ( 'NONE',  ( 4.048640026209108604E-17, 0.0000000000000000000, 0.3305965466147405274 ) ) ;
#14 = SURFACE_STYLE_USAGE ( .BOTH. , #156 ) ;
#15 = FACE_OUTER_BOUND ( 'NONE', #24, .T. ) ;
#16 = DIRECTION ( 'NONE',  ( 0.0000000000000000000, 0.0000000000000000000, 1.000000000000000000 ) ) ;
#17 = ORIENTED_EDGE ( 'NONE', *, *, #235, .T. ) ;
#18 = ORIENTED_EDGE ( 'NONE', *, *, #159, .F. ) ;
#19 = PRESENTATION_LAYER_ASSIGNMENT (  '', '', ( #149 ) ) ;
#20 = CYLINDRICAL_SURFACE ( 'NONE', #252, 0.06250000000000002776 ) ;
#21 = ORIENTED_EDGE ( 'NONE', *, *, #181, .F. ) ;
#22 = APPLICATION_PROTOCOL_DEFINITION ( 'draft international standard', 'automotive_design', 1998, #220 ) ;
#23 = EDGE_CURVE ( 'NONE', #136, #31, #120, .T. ) ;
#24 = EDGE_LOOP ( 'NONE', ( #138, #97, #91, #95 ) ) ;
#25 = ORIENTED_EDGE ( 'NONE', *, *, #231, .F. ) ;
#26 = ADVANCED_FACE ( 'NONE', ( #73 ), #161, .T. ) ;
#27 = ORIENTED_EDGE ( 'NONE', *, *, #48, .T. ) ;
#28 = CIRCLE ( 'NONE', #83, 0.06250000000000002776 ) ;
#29 = AXIS2_PLACEMENT_3D ( 'NONE', #5, #285, #45 ) ;
#30 = ORIENTED_EDGE ( 'NONE', *, *, #23, .T. ) ;
#31 = VERTEX_POINT ( 'NONE', #248 ) ;
#32 = EDGE_CURVE ( 'NONE', #254, #230, #201, .T. ) ;
#33 = VECTOR ( 'NONE', #269, 39.37007874015748143 ) ;
#34 = PRODUCT_DEFINITION_FORMATION_WITH_SPECIFIED_SOURCE ( 'ANY', '', #167, .NOT_KNOWN. ) ;
#35 = ADVANCED_FACE ( 'NONE', ( #94 ), #157, .T. ) ;
#36 = EDGE_CURVE ( 'NONE', #210, #165, #108, .T. ) ;
#37 = DIRECTION ( 'NONE',  ( 1.000000000000000000, 0.0000000000000000000, -0.0000000000000000000 ) ) ;
#38 = SURFACE_STYLE_FILL_AREA ( #238 ) ;
#39 =( GEOMETRIC_REPRESENTATION_CONTEXT ( 3 ) GLOBAL_UNCERTAINTY_ASSIGNED_CONTEXT ( ( #242 ) ) GLOBAL_UNIT_ASSIGNED_CONTEXT ( ( #80, #11, #171 ) ) REPRESENTATION_CONTEXT ( 'NONE', 'WORKASPACE' ) );
#40 = DIRECTION ( 'NONE',  ( -1.224646799147353700E-16, -0.0000000000000000000, -1.000000000000000000 ) ) ;
#41 = PLANE ( 'NONE',  #177 ) ;
#42 = EDGE_CURVE ( 'NONE', #165, #210, #287, .T. ) ;
#43 = APPLICATION_PROTOCOL_DEFINITION ( 'draft international standard', 'automotive_design', 1998, #69 ) ;
#44 = FACE_OUTER_BOUND ( 'NONE', #99, .T. ) ;
#45 = DIRECTION ( 'NONE',  ( -1.000000000000000000, 0.0000000000000000000, 0.0000000000000000000 ) ) ;
#46 = AXIS2_PLACEMENT_3D ( 'NONE', #223, #89, #134 ) ;
#47 =( CONVERSION_BASED_UNIT ( 'INCH', #131 ) LENGTH_UNIT ( ) NAMED_UNIT ( #185 ) );
#48 = EDGE_CURVE ( 'NONE', #234, #31, #62, .T. ) ;
#49 = DIRECTION ( 'NONE',  ( -1.224646799147353700E-16, -0.0000000000000000000, -1.000000000000000000 ) ) ;
#50 = DIRECTION ( 'NONE',  ( -1.224646799147353700E-16, -0.0000000000000000000, -1.000000000000000000 ) ) ;
#51 = EDGE_LOOP ( 'NONE', ( #272, #176, #179, #187 ) ) ;
#52 = CONICAL_SURFACE ( 'NONE', #57, 0.02342654999999999391, 0.1745329251994338915 ) ;
#53 = AXIS2_PLACEMENT_3D ( 'NONE', #111, #16, #96 ) ;
#54 = ORIENTED_EDGE ( 'NONE', *, *, #184, .T. ) ;
#55 = AXIS2_PLACEMENT_3D ( 'NONE', #224, #218, #124 ) ;
#56 = PRODUCT_RELATED_PRODUCT_CATEGORY ( 'part', '', ( #167 ) ) ;
#57 = AXIS2_PLACEMENT_3D ( 'NONE', #213, #106, #58 ) ;
#58 = DIRECTION ( 'NONE',  ( 1.000000000000000000, 0.0000000000000000000, 0.0000000000000000000 ) ) ;
#59 = DIRECTION ( 'NONE',  ( -0.1736481776669311916, 2.126576849575783316E-17, 0.9848077530122080203 ) ) ;
#60 = DIRECTION ( 'NONE',  ( 1.000000000000000000, 0.0000000000000000000, 0.0000000000000000000 ) ) ;
#61 = LINE ( 'NONE', #9, #214 ) ;
#62 = LINE ( 'NONE', #81, #162 ) ;
#63 = EDGE_CURVE ( 'NONE', #141, #139, #133, .T. ) ;
#64 = FILL_AREA_STYLE ('',( #192 ) ) ;
#65 = PRODUCT_DEFINITION_SHAPE ( 'NONE', 'NONE',  #232 ) ;
#66 = DIRECTION ( 'NONE',  ( 0.0000000000000000000, 0.0000000000000000000, 1.000000000000000000 ) ) ;
#67 = SURFACE_SIDE_STYLE ('',( #105 ) ) ;
#68 = CARTESIAN_POINT ( 'NONE',  ( 3.513419753651716505E-34, 0.0000000000000000000, 2.868924947256543719E-18 ) ) ;
#69 = APPLICATION_CONTEXT ( 'automotive_design' ) ;
#70 = MECHANICAL_DESIGN_GEOMETRIC_PRESENTATION_REPRESENTATION (  '', ( #137 ), #75 ) ;
#71 = ORIENTED_EDGE ( 'NONE', *, *, #42, .T. ) ;
#72 = ORIENTED_EDGE ( 'NONE', *, *, #231, .T. ) ;
#73 = FACE_OUTER_BOUND ( 'NONE', #51, .T. ) ;
#74 = EDGE_CURVE ( 'NONE', #165, #254, #61, .T. ) ;
#75 =( GEOMETRIC_REPRESENTATION_CONTEXT ( 3 ) GLOBAL_UNCERTAINTY_ASSIGNED_CONTEXT ( ( #263 ) ) GLOBAL_UNIT_ASSIGNED_CONTEXT ( ( #47, #107, #152 ) ) REPRESENTATION_CONTEXT ( 'NONE', 'WORKASPACE' ) );
#76 = AXIS2_PLACEMENT_3D ( 'NONE', #228, #270, #158 ) ;
#77 = FACE_OUTER_BOUND ( 'NONE', #225, .T. ) ;
#78 = FACE_OUTER_BOUND ( 'NONE', #164, .T. ) ;
#79 = LINE ( 'NONE', #169, #233 ) ;
#80 =( CONVERSION_BASED_UNIT ( 'INCH', #284 ) LENGTH_UNIT ( ) NAMED_UNIT ( #259 ) );
#81 = CARTESIAN_POINT ( 'NONE',  ( -0.02342655000000000085, 0.0000000000000000000, 2.868924947256543719E-18 ) ) ;
#82 = CARTESIAN_POINT ( 'NONE',  ( 0.0000000000000000000, 0.0000000000000000000, 1.485000000000000764 ) ) ;
#83 = AXIS2_PLACEMENT_3D ( 'NONE', #13, #292, #271 ) ;
#84 = AXIS2_PLACEMENT_3D ( 'NONE', #250, #50, #135 ) ;
#85 = UNCERTAINTY_MEASURE_WITH_UNIT (LENGTH_MEASURE( 1.000000000000000082E-05 ), #140, 'distance_accuracy_value', 'NONE');
#86 = DIRECTION ( 'NONE',  ( 1.000000000000000000, 0.0000000000000000000, 0.0000000000000000000 ) ) ;
#87 = DIRECTION ( 'NONE',  ( 0.0000000000000000000, 0.0000000000000000000, 1.000000000000000000 ) ) ;
#88 = CARTESIAN_POINT ( 'NONE',  ( -0.06250000000000002776, 0.0000000000000000000, 1.485000000000000764 ) ) ;
#89 = DIRECTION ( 'NONE',  ( -1.224646799147353700E-16, -0.0000000000000000000, -1.000000000000000000 ) ) ;
#90 = ADVANCED_FACE ( 'NONE', ( #217 ), #7, .F. ) ;
#91 = ORIENTED_EDGE ( 'NONE', *, *, #12, .F. ) ;
#92 = CIRCLE ( 'NONE', #101, 0.06250000000000002776 ) ;
#93 =( NAMED_UNIT ( * ) PLANE_ANGLE_UNIT ( ) SI_UNIT ( $, .RADIAN. ) );
#94 = FACE_OUTER_BOUND ( 'NONE', #163, .T. ) ;
#95 = ORIENTED_EDGE ( 'NONE', *, *, #32, .F. ) ;
#96 = DIRECTION ( 'NONE',  ( 1.000000000000000000, 0.0000000000000000000, 0.0000000000000000000 ) ) ;
#97 = ORIENTED_EDGE ( 'NONE', *, *, #63, .T. ) ;
#98 = ADVANCED_FACE ( 'NONE', ( #174 ), #52, .T. ) ;
#99 = EDGE_LOOP ( 'NONE', ( #199, #255, #293, #298 ) ) ;
#100 = DIRECTION ( 'NONE',  ( 0.1736481776669313859, 0.0000000000000000000, 0.9848077530122077983 ) ) ;
#101 = AXIS2_PLACEMENT_3D ( 'NONE', #146, #40, #102 ) ;
#102 = DIRECTION ( 'NONE',  ( 1.000000000000000000, 0.0000000000000000000, 0.0000000000000000000 ) ) ;
#103 = DIRECTION ( 'NONE',  ( 1.000000000000000000, 0.0000000000000000000, 0.0000000000000000000 ) ) ;
#104 = CARTESIAN_POINT ( 'NONE',  ( -0.06249999999999997918, 0.0000000000000000000, 0.3305965466147405274 ) ) ;
#105 = SURFACE_STYLE_FILL_AREA ( #64 ) ;
#106 = DIRECTION ( 'NONE',  ( 1.224646799147353700E-16, 0.0000000000000000000, 1.000000000000000000 ) ) ;
#107 =( NAMED_UNIT ( * ) PLANE_ANGLE_UNIT ( ) SI_UNIT ( $, .RADIAN. ) );
#108 = CIRCLE ( 'NONE', #76, 0.04750000000000064587 ) ;
#109 = DIRECTION ( 'NONE',  ( 1.000000000000000000, 0.0000000000000000000, 0.0000000000000000000 ) ) ;
#110 = CARTESIAN_POINT ( 'NONE',  ( 0.0000000000000000000, 0.0000000000000000000, 1.500000000000000222 ) ) ;
#111 = CARTESIAN_POINT ( 'NONE',  ( 0.0000000000000000000, 0.0000000000000000000, 0.0000000000000000000 ) ) ;
#112 = DIRECTION ( 'NONE',  ( -1.000000000000000000, 0.0000000000000000000, 0.0000000000000000000 ) ) ;
#113 = SHAPE_DEFINITION_REPRESENTATION ( #65, #196 ) ;
#114 = DIRECTION ( 'NONE',  ( -0.0000000000000000000, -0.0000000000000000000, -1.000000000000000000 ) ) ;
#115 = EDGE_CURVE ( 'NONE', #31, #136, #122, .T. ) ;
#116 =( LENGTH_UNIT ( ) NAMED_UNIT ( * ) SI_UNIT ( $, .METRE. ) );
#117 = ORIENTED_EDGE ( 'NONE', *, *, #74, .T. ) ;
#118 = ORIENTED_EDGE ( 'NONE', *, *, #36, .T. ) ;
#119 = AXIS2_PLACEMENT_3D ( 'NONE', #216, #262, #280 ) ;
#120 = CIRCLE ( 'NONE', #286, 0.02342655000000000085 ) ;
#121 = DIMENSIONAL_EXPONENTS ( 1.000000000000000000, 0.0000000000000000000, 0.0000000000000000000, 0.0000000000000000000, 0.0000000000000000000, 0.0000000000000000000, 0.0000000000000000000 ) ;
#122 = CIRCLE ( 'NONE', #10, 0.02342655000000000085 ) ;
#123 = DIRECTION ( 'NONE',  ( 0.0000000000000000000, 0.0000000000000000000, 1.000000000000000000 ) ) ;
#124 = DIRECTION ( 'NONE',  ( -1.000000000000000000, 0.0000000000000000000, 0.0000000000000000000 ) ) ;
#125 = CARTESIAN_POINT ( 'NONE',  ( 0.02342655000000000085, 2.868924947256542564E-18, -2.868924947256543719E-18 ) ) ;
#126 = DIRECTION ( 'NONE',  ( 0.0000000000000000000, 0.0000000000000000000, -1.000000000000000000 ) ) ;
#127 = PRODUCT_DEFINITION_CONTEXT ( 'detailed design', #220, 'design' ) ;
#128 = DIRECTION ( 'NONE',  ( -0.0000000000000000000, -0.0000000000000000000, -1.000000000000000000 ) ) ;
#129 = CYLINDRICAL_SURFACE ( 'NONE', #55, 0.06250000000000002776 ) ;
#130 = DIRECTION ( 'NONE',  ( -1.000000000000000000, 0.0000000000000000000, 1.224646799147353700E-16 ) ) ;
#131 = LENGTH_MEASURE_WITH_UNIT ( LENGTH_MEASURE( 0.02539999999999999897 ), #215 );
#132 = AXIS2_PLACEMENT_3D ( 'NONE', #82, #126, #103 ) ;
#133 = LINE ( 'NONE', #173, #278 ) ;
#134 = DIRECTION ( 'NONE',  ( -1.000000000000000000, 0.0000000000000000000, 1.224646799147353700E-16 ) ) ;
#135 = DIRECTION ( 'NONE',  ( -1.000000000000000000, 0.0000000000000000000, 1.224646799147353700E-16 ) ) ;
#136 = VERTEX_POINT ( 'NONE', #188 ) ;
#137 = STYLED_ITEM ( 'NONE', ( #221 ), #281 ) ;
#138 = ORIENTED_EDGE ( 'NONE', *, *, #299, .T. ) ;
#139 = VERTEX_POINT ( 'NONE', #170 ) ;
#140 =( CONVERSION_BASED_UNIT ( 'INCH', #268 ) LENGTH_UNIT ( ) NAMED_UNIT ( #121 ) );
#141 = VERTEX_POINT ( 'NONE', #194 ) ;
#142 = ADVANCED_FACE ( 'NONE', ( #44 ), #297, .T. ) ;
#143 = AXIS2_PLACEMENT_3D ( 'NONE', #243, #291, #60 ) ;
#144 = AXIS2_PLACEMENT_3D ( 'NONE', #264, #66, #151 ) ;
#145 = ORIENTED_EDGE ( 'NONE', *, *, #184, .F. ) ;
#146 = CARTESIAN_POINT ( 'NONE',  ( 4.048640026209108604E-17, 0.0000000000000000000, 0.3305965466147405274 ) ) ;
#147 = LINE ( 'NONE', #125, #166 ) ;
#148 = FACE_OUTER_BOUND ( 'NONE', #229, .T. ) ;
#149 = STYLED_ITEM ( 'NONE', ( #227 ), #196 ) ;
#150 = FACE_OUTER_BOUND ( 'NONE', #277, .T. ) ;
#151 = DIRECTION ( 'NONE',  ( 1.000000000000000000, 0.0000000000000000000, -0.0000000000000000000 ) ) ;
#152 =( NAMED_UNIT ( * ) SI_UNIT ( $, .STERADIAN. ) SOLID_ANGLE_UNIT ( ) );
#153 = CARTESIAN_POINT ( 'NONE',  ( 0.0000000000000000000, 0.0000000000000000000, 1.500000000000000222 ) ) ;
#154 = AXIS2_PLACEMENT_3D ( 'NONE', #289, #237, #109 ) ;
#155 = ORIENTED_EDGE ( 'NONE', *, *, #42, .F. ) ;
#156 = SURFACE_SIDE_STYLE ('',( #38 ) ) ;
#157 = CYLINDRICAL_SURFACE ( 'NONE', #84, 0.02342655000000000085 ) ;
#158 = DIRECTION ( 'NONE',  ( 1.000000000000000000, 0.0000000000000000000, 0.0000000000000000000 ) ) ;
#159 = EDGE_CURVE ( 'NONE', #141, #254, #279, .T. ) ;
#160 = ORIENTED_EDGE ( 'NONE', *, *, #32, .T. ) ;
#161 = CYLINDRICAL_SURFACE ( 'NONE', #46, 0.02342655000000000085 ) ;
#162 = VECTOR ( 'NONE', #193, 39.37007874015748143 ) ;
#163 = EDGE_LOOP ( 'NONE', ( #273, #296, #27, #205 ) ) ;
#164 = EDGE_LOOP ( 'NONE', ( #251, #155, #117, #18 ) ) ;
#165 = VERTEX_POINT ( 'NONE', #260 ) ;
#166 = VECTOR ( 'NONE', #283, 39.37007874015748143 ) ;
#167 = PRODUCT ( 'Micro_GEM-046-2', 'Micro_GEM-046-2', '', ( #200 ) ) ;
#168 = LINE ( 'NONE', #4, #1 ) ;
#169 = CARTESIAN_POINT ( 'NONE',  ( -0.02342654999999998350, 2.868924947256542179E-18, 0.1089999999999999997 ) ) ;
#170 = CARTESIAN_POINT ( 'NONE',  ( 0.06250000000000006939, 7.654042494670963708E-18, 0.3305965466147405274 ) ) ;
#171 =( NAMED_UNIT ( * ) SI_UNIT ( $, .STERADIAN. ) SOLID_ANGLE_UNIT ( ) );
#172 =( GEOMETRIC_REPRESENTATION_CONTEXT ( 3 ) GLOBAL_UNCERTAINTY_ASSIGNED_CONTEXT ( ( #85 ) ) GLOBAL_UNIT_ASSIGNED_CONTEXT ( ( #140, #93, #204 ) ) REPRESENTATION_CONTEXT ( 'NONE', 'WORKASPACE' ) );
#173 = CARTESIAN_POINT ( 'NONE',  ( 0.06250000000000002776, 7.654042494670959086E-18, 1.500000000000000222 ) ) ;
#174 = FACE_OUTER_BOUND ( 'NONE', #182, .T. ) ;
#175 = SURFACE_STYLE_USAGE ( .BOTH. , #67 ) ;
#176 = ORIENTED_EDGE ( 'NONE', *, *, #246, .T. ) ;
#177 = AXIS2_PLACEMENT_3D ( 'NONE', #3, #87, #37 ) ;
#178 = CARTESIAN_POINT ( 'NONE',  ( -0.06250000000000002776, 0.0000000000000000000, 1.500000000000000222 ) ) ;
#179 = ORIENTED_EDGE ( 'NONE', *, *, #115, .F. ) ;
#180 = ORIENTED_EDGE ( 'NONE', *, *, #63, .F. ) ;
#181 = EDGE_CURVE ( 'NONE', #234, #183, #212, .T. ) ;
#182 = EDGE_LOOP ( 'NONE', ( #267, #207, #54, #72 ) ) ;
#183 = VERTEX_POINT ( 'NONE', #261 ) ;
#184 = EDGE_CURVE ( 'NONE', #183, #139, #168, .T. ) ;
#185 = DIMENSIONAL_EXPONENTS ( 1.000000000000000000, 0.0000000000000000000, 0.0000000000000000000, 0.0000000000000000000, 0.0000000000000000000, 0.0000000000000000000, 0.0000000000000000000 ) ;
#186 = MECHANICAL_DESIGN_GEOMETRIC_PRESENTATION_REPRESENTATION (  '', ( #149 ), #172 ) ;
#187 = ORIENTED_EDGE ( 'NONE', *, *, #48, .F. ) ;
#188 = CARTESIAN_POINT ( 'NONE',  ( 0.02342655000000000085, 2.868924947256542564E-18, 0.0000000000000000000 ) ) ;
#189 = AXIS2_PLACEMENT_3D ( 'NONE', #6, #195, #266 ) ;
#190 =( LENGTH_UNIT ( ) NAMED_UNIT ( * ) SI_UNIT ( $, .METRE. ) );
#191 = CARTESIAN_POINT ( 'NONE',  ( 1.334865011070615584E-17, 0.0000000000000000000, 0.1089999999999999997 ) ) ;
#192 = FILL_AREA_STYLE_COLOUR ( '', #208 ) ;
#193 = DIRECTION ( 'NONE',  ( -1.224646799147353700E-16, -0.0000000000000000000, -1.000000000000000000 ) ) ;
#194 = CARTESIAN_POINT ( 'NONE',  ( 0.06250000000000002776, 7.654042494670959086E-18, 1.485000000000000764 ) ) ;
#195 = DIRECTION ( 'NONE',  ( 0.0000000000000000000, 0.0000000000000000000, -1.000000000000000000 ) ) ;
#196 = ADVANCED_BREP_SHAPE_REPRESENTATION ( 'Micro_GEM-046-2', ( #281, #53 ), #39 ) ;
#197 = DIRECTION ( 'NONE',  ( -1.224646799147353700E-16, -0.0000000000000000000, -1.000000000000000000 ) ) ;
#198 = FILL_AREA_STYLE_COLOUR ( '', #202 ) ;
#199 = ORIENTED_EDGE ( 'NONE', *, *, #36, .F. ) ;
#200 = PRODUCT_CONTEXT ( 'NONE', #69, 'mechanical' ) ;
#201 = LINE ( 'NONE', #178, #33 ) ;
#202 = COLOUR_RGB ( '',0.7921568627450980005, 0.8196078431372548767, 0.9333333333333333481 ) ;
#203 = EDGE_LOOP ( 'NONE', ( #276, #30 ) ) ;
#204 =( NAMED_UNIT ( * ) SI_UNIT ( $, .STERADIAN. ) SOLID_ANGLE_UNIT ( ) );
#205 = ORIENTED_EDGE ( 'NONE', *, *, #23, .F. ) ;
#206 = ORIENTED_EDGE ( 'NONE', *, *, #159, .T. ) ;
#207 = ORIENTED_EDGE ( 'NONE', *, *, #209, .F. ) ;
#208 = COLOUR_RGB ( '',0.7921568627450980005, 0.8196078431372548767, 0.9333333333333333481 ) ;
#209 = EDGE_CURVE ( 'NONE', #183, #234, #236, .T. ) ;
#210 = VERTEX_POINT ( 'NONE', #219 ) ;
#211 = CIRCLE ( 'NONE', #132, 0.06250000000000002776 ) ;
#212 = CIRCLE ( 'NONE', #222, 0.02342654999999999391 ) ;
#213 = CARTESIAN_POINT ( 'NONE',  ( 1.334865011070615584E-17, 0.0000000000000000000, 0.1089999999999999997 ) ) ;
#214 = VECTOR ( 'NONE', #265, 39.37007874015748854 ) ;
#215 =( LENGTH_UNIT ( ) NAMED_UNIT ( * ) SI_UNIT ( $, .METRE. ) );
#216 = CARTESIAN_POINT ( 'NONE',  ( 0.0000000000000000000, 0.0000000000000000000, 1.500000000000000222 ) ) ;
#217 = FACE_OUTER_BOUND ( 'NONE', #203, .T. ) ;
#218 = DIRECTION ( 'NONE',  ( -0.0000000000000000000, -0.0000000000000000000, -1.000000000000000000 ) ) ;
#219 = CARTESIAN_POINT ( 'NONE',  ( 0.04750000000000064587, 6.735557395310483192E-18, 1.500000000000000222 ) ) ;
#220 = APPLICATION_CONTEXT ( 'automotive_design' ) ;
#221 = PRESENTATION_STYLE_ASSIGNMENT (( #175 ) ) ;
#222 = AXIS2_PLACEMENT_3D ( 'NONE', #191, #197, #239 ) ;
#223 = CARTESIAN_POINT ( 'NONE',  ( 0.0000000000000000000, 0.0000000000000000000, 0.0000000000000000000 ) ) ;
#224 = CARTESIAN_POINT ( 'NONE',  ( 0.0000000000000000000, 0.0000000000000000000, 1.500000000000000222 ) ) ;
#225 = EDGE_LOOP ( 'NONE', ( #71, #118 ) ) ;
#226 = ADVANCED_FACE ( 'NONE', ( #77 ), #41, .T. ) ;
#227 = PRESENTATION_STYLE_ASSIGNMENT (( #14 ) ) ;
#228 = CARTESIAN_POINT ( 'NONE',  ( 0.0000000000000000000, 0.0000000000000000000, 1.500000000000000222 ) ) ;
#229 = EDGE_LOOP ( 'NONE', ( #180, #206, #160, #25 ) ) ;
#230 = VERTEX_POINT ( 'NONE', #104 ) ;
#231 = EDGE_CURVE ( 'NONE', #139, #230, #92, .T. ) ;
#232 = PRODUCT_DEFINITION ( 'UNKNOWN', '', #34, #127 ) ;
#233 = VECTOR ( 'NONE', #59, 39.37007874015747433 ) ;
#234 = VERTEX_POINT ( 'NONE', #282 ) ;
#235 = EDGE_CURVE ( 'NONE', #234, #230, #79, .T. ) ;
#236 = CIRCLE ( 'NONE', #29, 0.02342654999999999391 ) ;
#237 = DIRECTION ( 'NONE',  ( 0.0000000000000000000, 0.0000000000000000000, -1.000000000000000000 ) ) ;
#238 = FILL_AREA_STYLE ('',( #198 ) ) ;
#239 = DIRECTION ( 'NONE',  ( -1.000000000000000000, 0.0000000000000000000, 0.0000000000000000000 ) ) ;
#240 = PRESENTATION_LAYER_ASSIGNMENT (  '', '', ( #137 ) ) ;
#241 = CARTESIAN_POINT ( 'NONE',  ( 0.04750000000000064587, 5.817072295950006528E-18, 1.500000000000000222 ) ) ;
#242 = UNCERTAINTY_MEASURE_WITH_UNIT (LENGTH_MEASURE( 1.000000000000000082E-05 ), #80, 'distance_accuracy_value', 'NONE');
#243 = CARTESIAN_POINT ( 'NONE',  ( 1.334865011070615584E-17, 0.0000000000000000000, 0.1089999999999999997 ) ) ;
#244 = CARTESIAN_POINT ( 'NONE',  ( 3.513419753651716505E-34, 0.0000000000000000000, 2.868924947256543719E-18 ) ) ;
#245 = DIRECTION ( 'NONE',  ( -1.224646799147353700E-16, -0.0000000000000000000, -1.000000000000000000 ) ) ;
#246 = EDGE_CURVE ( 'NONE', #183, #136, #147, .T. ) ;
#247 = ADVANCED_FACE ( 'NONE', ( #150 ), #274, .T. ) ;
#248 = CARTESIAN_POINT ( 'NONE',  ( -0.02342655000000000085, 0.0000000000000000000, 5.737849894513087439E-18 ) ) ;
#249 = ADVANCED_FACE ( 'NONE', ( #78 ), #257, .T. ) ;
#250 = CARTESIAN_POINT ( 'NONE',  ( 0.0000000000000000000, 0.0000000000000000000, 0.0000000000000000000 ) ) ;
#251 = ORIENTED_EDGE ( 'NONE', *, *, #275, .F. ) ;
#252 = AXIS2_PLACEMENT_3D ( 'NONE', #110, #114, #112 ) ;
#253 = ORIENTED_EDGE ( 'NONE', *, *, #12, .T. ) ;
#254 = VERTEX_POINT ( 'NONE', #88 ) ;
#255 = ORIENTED_EDGE ( 'NONE', *, *, #275, .T. ) ;
#256 = AXIS2_PLACEMENT_3D ( 'NONE', #153, #123, #86 ) ;
#257 = CONICAL_SURFACE ( 'NONE', #189, 0.04750000000000064587, 0.7853981633974466137 ) ;
#258 = ADVANCED_FACE ( 'NONE', ( #148 ), #129, .T. ) ;
#259 = DIMENSIONAL_EXPONENTS ( 1.000000000000000000, 0.0000000000000000000, 0.0000000000000000000, 0.0000000000000000000, 0.0000000000000000000, 0.0000000000000000000, 0.0000000000000000000 ) ;
#260 = CARTESIAN_POINT ( 'NONE',  ( -0.04750000000000064587, 0.0000000000000000000, 1.500000000000000222 ) ) ;
#261 = CARTESIAN_POINT ( 'NONE',  ( 0.02342655000000000778, 0.0000000000000000000, 0.1089999999999999997 ) ) ;
#262 = DIRECTION ( 'NONE',  ( 0.0000000000000000000, 0.0000000000000000000, -1.000000000000000000 ) ) ;
#263 = UNCERTAINTY_MEASURE_WITH_UNIT (LENGTH_MEASURE( 1.000000000000000082E-05 ), #47, 'distance_accuracy_value', 'NONE');
#264 = CARTESIAN_POINT ( 'NONE',  ( 0.0000000000000000000, 0.0000000000000000000, 0.0000000000000000000 ) ) ;
#265 = DIRECTION ( 'NONE',  ( -0.7071067811865462405, 0.0000000000000000000, -0.7071067811865486830 ) ) ;
#266 = DIRECTION ( 'NONE',  ( -1.000000000000000000, 0.0000000000000000000, 0.0000000000000000000 ) ) ;
#267 = ORIENTED_EDGE ( 'NONE', *, *, #235, .F. ) ;
#268 = LENGTH_MEASURE_WITH_UNIT ( LENGTH_MEASURE( 0.02539999999999999897 ), #116 );
#269 = DIRECTION ( 'NONE',  ( -0.0000000000000000000, -0.0000000000000000000, -1.000000000000000000 ) ) ;
#270 = DIRECTION ( 'NONE',  ( 0.0000000000000000000, 0.0000000000000000000, 1.000000000000000000 ) ) ;
#271 = DIRECTION ( 'NONE',  ( 1.000000000000000000, 0.0000000000000000000, 0.0000000000000000000 ) ) ;
#272 = ORIENTED_EDGE ( 'NONE', *, *, #181, .T. ) ;
#273 = ORIENTED_EDGE ( 'NONE', *, *, #246, .F. ) ;
#274 = CONICAL_SURFACE ( 'NONE', #143, 0.02342654999999999391, 0.1745329251994338915 ) ;
#275 = EDGE_CURVE ( 'NONE', #210, #141, #288, .T. ) ;
#276 = ORIENTED_EDGE ( 'NONE', *, *, #115, .T. ) ;
#277 = EDGE_LOOP ( 'NONE', ( #21, #17, #253, #145 ) ) ;
#278 = VECTOR ( 'NONE', #128, 39.37007874015748143 ) ;
#279 = CIRCLE ( 'NONE', #154, 0.06250000000000002776 ) ;
#280 = DIRECTION ( 'NONE',  ( -1.000000000000000000, 0.0000000000000000000, 0.0000000000000000000 ) ) ;
#281 = MANIFOLD_SOLID_BREP ( 'Cut-Revolve1', #290 ) ;
#282 = CARTESIAN_POINT ( 'NONE',  ( -0.02342654999999998350, 5.261483720963751017E-18, 0.1089999999999999997 ) ) ;
#283 = DIRECTION ( 'NONE',  ( -1.224646799147353700E-16, -0.0000000000000000000, -1.000000000000000000 ) ) ;
#284 = LENGTH_MEASURE_WITH_UNIT ( LENGTH_MEASURE( 0.02539999999999999897 ), #190 );
#285 = DIRECTION ( 'NONE',  ( -1.224646799147353700E-16, -0.0000000000000000000, -1.000000000000000000 ) ) ;
#286 = AXIS2_PLACEMENT_3D ( 'NONE', #68, #49, #295 ) ;
#287 = CIRCLE ( 'NONE', #256, 0.04750000000000064587 ) ;
#288 = LINE ( 'NONE', #241, #294 ) ;
#289 = CARTESIAN_POINT ( 'NONE',  ( 0.0000000000000000000, 0.0000000000000000000, 1.485000000000000764 ) ) ;
#290 = CLOSED_SHELL ( 'NONE', ( #26, #247, #142, #2, #258, #226, #249, #98, #35, #90 ) ) ;
#291 = DIRECTION ( 'NONE',  ( 1.224646799147353700E-16, 0.0000000000000000000, 1.000000000000000000 ) ) ;
#292 = DIRECTION ( 'NONE',  ( -1.224646799147353700E-16, -0.0000000000000000000, -1.000000000000000000 ) ) ;
#293 = ORIENTED_EDGE ( 'NONE', *, *, #299, .F. ) ;
#294 = VECTOR ( 'NONE', #8, 39.37007874015748854 ) ;
#295 = DIRECTION ( 'NONE',  ( -1.000000000000000000, 0.0000000000000000000, 1.224646799147353700E-16 ) ) ;
#296 = ORIENTED_EDGE ( 'NONE', *, *, #209, .T. ) ;
#297 = CONICAL_SURFACE ( 'NONE', #119, 0.04750000000000064587, 0.7853981633974466137 ) ;
#298 = ORIENTED_EDGE ( 'NONE', *, *, #74, .F. ) ;
#299 = EDGE_CURVE ( 'NONE', #254, #141, #211, .T. ) ;
ENDSEC;
END-ISO-10303-21;
