ISO-10303-21;
HEADER;
FILE_DESCRIPTION (( 'STEP AP214' ),
    '1' );
FILE_NAME ('49121.STEP',
    '2023-06-30T21:57:56',
    ( '' ),
    ( '' ),
    'SwSTEP 2.0',
    'SolidWorks 2023',
    '' );
FILE_SCHEMA (( 'AUTOMOTIVE_DESIGN' ));
ENDSEC;

DATA;
#1 = DIRECTION ( 'NONE',  ( 0.000000000000000000, 0.000000000000000000, -1.000000000000000000 ) ) ;
#2 =( CONVERSION_BASED_UNIT ( 'INCH', #312 ) LENGTH_UNIT ( ) NAMED_UNIT ( #251 ) );
#3 = MECHANICAL_DESIGN_GEOMETRIC_PRESENTATION_REPRESENTATION (  '', ( #11 ), #229 ) ;
#4 = SPHERICAL_SURFACE ( 'NONE', #66, 0.1250000000000000000 ) ;
#5 =( NAMED_UNIT ( * ) PLANE_ANGLE_UNIT ( ) SI_UNIT ( $, .RADIAN. ) );
#6 =( NAMED_UNIT ( * ) SI_UNIT ( $, .STERADIAN. ) SOLID_ANGLE_UNIT ( ) );
#7 = AXIS2_PLACEMENT_3D ( 'NONE', #333, #123, #345 ) ;
#8 = SURFACE_STYLE_USAGE ( .BOTH. , #216 ) ;
#9 = LENGTH_MEASURE_WITH_UNIT ( LENGTH_MEASURE( 0.02539999999999999897 ), #248 );
#10 = CARTESIAN_POINT ( 'NONE',  ( 1.836970198721030427E-16, 1.000000000000000000, 0.000000000000000000 ) ) ;
#11 = STYLED_ITEM ( 'NONE', ( #199 ), #108 ) ;
#12 =( NAMED_UNIT ( * ) SI_UNIT ( $, .STERADIAN. ) SOLID_ANGLE_UNIT ( ) );
#13 = CYLINDRICAL_SURFACE ( 'NONE', #115, 0.1249999999999999306 ) ;
#14 =( CONVERSION_BASED_UNIT ( 'INCH', #9 ) LENGTH_UNIT ( ) NAMED_UNIT ( #104 ) );
#15 = EDGE_LOOP ( 'NONE', ( #368, #93 ) ) ;
#16 = AXIS2_PLACEMENT_3D ( 'NONE', #264, #290, #89 ) ;
#17 = CIRCLE ( 'NONE', #130, 0.1249999999999999445 ) ;
#18 =( GEOMETRIC_REPRESENTATION_CONTEXT ( 3 ) GLOBAL_UNCERTAINTY_ASSIGNED_CONTEXT ( ( #175 ) ) GLOBAL_UNIT_ASSIGNED_CONTEXT ( ( #100, #217, #102 ) ) REPRESENTATION_CONTEXT ( 'NONE', 'WORKASPACE' ) );
#19 = CARTESIAN_POINT ( 'NONE',  ( 0.1249999999999998751, 1.000000000000000000, 1.530808498934190276E-17 ) ) ;
#20 = EDGE_CURVE ( 'NONE', #21, #167, #150, .T. ) ;
#21 = VERTEX_POINT ( 'NONE', #19 ) ;
#22 = DIRECTION ( 'NONE',  ( -1.224646799147353700E-16, 1.000000000000000000, -0.000000000000000000 ) ) ;
#23 = EDGE_LOOP ( 'NONE', ( #204, #371, #319, #74, #107 ) ) ;
#24 = AXIS2_PLACEMENT_3D ( 'NONE', #193, #22, #283 ) ;
#25 = PRESENTATION_LAYER_ASSIGNMENT (  '', '', ( #180 ) ) ;
#26 =( LENGTH_UNIT ( ) NAMED_UNIT ( * ) SI_UNIT ( $, .METRE. ) );
#27 = ORIENTED_EDGE ( 'NONE', *, *, #308, .F. ) ;
#28 = VERTEX_POINT ( 'NONE', #152 ) ;
#29 = ORIENTED_EDGE ( 'NONE', *, *, #20, .T. ) ;
#30 = CIRCLE ( 'NONE', #252, 0.1250000000000000000 ) ;
#31 = FACE_OUTER_BOUND ( 'NONE', #190, .T. ) ;
#32 = PRESENTATION_LAYER_ASSIGNMENT (  '', '', ( #189 ) ) ;
#33 =( NAMED_UNIT ( * ) PLANE_ANGLE_UNIT ( ) SI_UNIT ( $, .RADIAN. ) );
#34 = CARTESIAN_POINT ( 'NONE',  ( -0.1249999999999995143, 1.000000000000000000, 0.000000000000000000 ) ) ;
#35 = AXIS2_PLACEMENT_3D ( 'NONE', #226, #346, #293 ) ;
#36 = CARTESIAN_POINT ( 'NONE',  ( 0.000000000000000000, 0.000000000000000000, 0.000000000000000000 ) ) ;
#37 = DIRECTION ( 'NONE',  ( -0.000000000000000000, -1.000000000000000000, -0.000000000000000000 ) ) ;
#38 = PRODUCT_CONTEXT ( 'NONE', #79, 'mechanical' ) ;
#39 = AXIS2_PLACEMENT_3D ( 'NONE', #176, #256, #332 ) ;
#40 = FILL_AREA_STYLE ('',( #274 ) ) ;
#41 = ADVANCED_FACE ( 'NONE', ( #49 ), #119, .F. ) ;
#42 = DIRECTION ( 'NONE',  ( 0.000000000000000000, -0.000000000000000000, 1.000000000000000000 ) ) ;
#43 = CARTESIAN_POINT ( 'NONE',  ( 0.000000000000000000, 0.1250000000000000278, -0.1250000000000000000 ) ) ;
#44 = CARTESIAN_POINT ( 'NONE',  ( -1.530808498934191509E-17, 0.1250000000000000000, 0.000000000000000000 ) ) ;
#45 = EDGE_CURVE ( 'NONE', #116, #338, #170, .T. ) ;
#46 = EDGE_LOOP ( 'NONE', ( #278, #282, #137, #254 ) ) ;
#47 = DIRECTION ( 'NONE',  ( -0.000000000000000000, -1.000000000000000000, -0.000000000000000000 ) ) ;
#48 =( CONVERSION_BASED_UNIT ( 'INCH', #307 ) LENGTH_UNIT ( ) NAMED_UNIT ( #329 ) );
#49 = FACE_OUTER_BOUND ( 'NONE', #15, .T. ) ;
#50 = PRESENTATION_LAYER_ASSIGNMENT (  '', '', ( #60 ) ) ;
#51 = CIRCLE ( 'NONE', #221, 0.1250000000000000000 ) ;
#52 =( LENGTH_UNIT ( ) NAMED_UNIT ( * ) SI_UNIT ( $, .METRE. ) );
#53 = CARTESIAN_POINT ( 'NONE',  ( 0.1249999999999997641, 3.000000000000000444, 1.530808498934189352E-17 ) ) ;
#54 =( NAMED_UNIT ( * ) SI_UNIT ( $, .STERADIAN. ) SOLID_ANGLE_UNIT ( ) );
#55 = EDGE_CURVE ( 'NONE', #28, #338, #78, .T. ) ;
#56 = CLOSED_SHELL ( 'NONE', ( #182, #320, #323, #181, #273 ) ) ;
#57 = DIRECTION ( 'NONE',  ( 1.000000000000000000, 0.000000000000000000, 0.000000000000000000 ) ) ;
#58 = DIRECTION ( 'NONE',  ( 0.000000000000000000, 0.000000000000000000, 1.000000000000000000 ) ) ;
#59 =( NAMED_UNIT ( * ) PLANE_ANGLE_UNIT ( ) SI_UNIT ( $, .RADIAN. ) );
#60 = STYLED_ITEM ( 'NONE', ( #354 ), #323 ) ;
#61 = FACE_OUTER_BOUND ( 'NONE', #46, .T. ) ;
#62 = MECHANICAL_DESIGN_GEOMETRIC_PRESENTATION_REPRESENTATION (  '', ( #180 ), #260 ) ;
#63 = APPLICATION_PROTOCOL_DEFINITION ( 'draft international standard', 'automotive_design', 1998, #79 ) ;
#64 = DIMENSIONAL_EXPONENTS ( 1.000000000000000000, 0.000000000000000000, 0.000000000000000000, 0.000000000000000000, 0.000000000000000000, 0.000000000000000000, 0.000000000000000000 ) ;
#65 = CARTESIAN_POINT ( 'NONE',  ( 0.000000000000000000, 1.000000000000000000, 0.000000000000000000 ) ) ;
#66 = AXIS2_PLACEMENT_3D ( 'NONE', #240, #58, #57 ) ;
#67 =( NAMED_UNIT ( * ) PLANE_ANGLE_UNIT ( ) SI_UNIT ( $, .RADIAN. ) );
#68 = DIRECTION ( 'NONE',  ( 0.000000000000000000, 0.000000000000000000, -1.000000000000000000 ) ) ;
#69 = MECHANICAL_DESIGN_GEOMETRIC_PRESENTATION_REPRESENTATION (  '', ( #189 ), #369 ) ;
#70 = ORIENTED_EDGE ( 'NONE', *, *, #285, .F. ) ;
#71 = DIMENSIONAL_EXPONENTS ( 1.000000000000000000, 0.000000000000000000, 0.000000000000000000, 0.000000000000000000, 0.000000000000000000, 0.000000000000000000, 0.000000000000000000 ) ;
#72 = SHAPE_DEFINITION_REPRESENTATION ( #207, #173 ) ;
#73 = ORIENTED_EDGE ( 'NONE', *, *, #82, .F. ) ;
#74 = ORIENTED_EDGE ( 'NONE', *, *, #325, .F. ) ;
#75 = VERTEX_POINT ( 'NONE', #287 ) ;
#76 = SURFACE_STYLE_USAGE ( .BOTH. , #109 ) ;
#77 = FILL_AREA_STYLE ('',( #334 ) ) ;
#78 = CIRCLE ( 'NONE', #336, 0.1250000000000000000 ) ;
#79 = APPLICATION_CONTEXT ( 'automotive_design' ) ;
#80 = CARTESIAN_POINT ( 'NONE',  ( 0.000000000000000000, 0.1250000000000000278, 0.000000000000000000 ) ) ;
#81 = SURFACE_STYLE_USAGE ( .BOTH. , #302 ) ;
#82 = EDGE_CURVE ( 'NONE', #116, #232, #92, .T. ) ;
#83 = CYLINDRICAL_SURFACE ( 'NONE', #218, 0.1249999999999999306 ) ;
#84 = MECHANICAL_DESIGN_GEOMETRIC_PRESENTATION_REPRESENTATION (  '', ( #85 ), #158 ) ;
#85 = STYLED_ITEM ( 'NONE', ( #211 ), #320 ) ;
#86 = DIRECTION ( 'NONE',  ( -1.224646799147353700E-16, 1.000000000000000000, -0.000000000000000000 ) ) ;
#87 = LINE ( 'NONE', #53, #185 ) ;
#88 = ADVANCED_FACE ( 'NONE', ( #362 ), #366, .T. ) ;
#89 = DIRECTION ( 'NONE',  ( -1.000000000000000000, 0.000000000000000000, 0.000000000000000000 ) ) ;
#90 = FACE_OUTER_BOUND ( 'NONE', #364, .T. ) ;
#91 = FILL_AREA_STYLE_COLOUR ( '', #105 ) ;
#92 = CIRCLE ( 'NONE', #157, 0.1250000000000000000 ) ;
#93 = ORIENTED_EDGE ( 'NONE', *, *, #20, .F. ) ;
#94 = SURFACE_STYLE_FILL_AREA ( #294 ) ;
#95 =( NAMED_UNIT ( * ) SI_UNIT ( $, .STERADIAN. ) SOLID_ANGLE_UNIT ( ) );
#96 = PRESENTATION_LAYER_ASSIGNMENT (  '', '', ( #11 ) ) ;
#97 = CARTESIAN_POINT ( 'NONE',  ( -7.654042494670957545E-18, 0.000000000000000000, 0.000000000000000000 ) ) ;
#98 = EDGE_CURVE ( 'NONE', #75, #232, #341, .T. ) ;
#99 = FILL_AREA_STYLE_COLOUR ( '', #299 ) ;
#100 =( CONVERSION_BASED_UNIT ( 'INCH', #351 ) LENGTH_UNIT ( ) NAMED_UNIT ( #324 ) );
#101 = CARTESIAN_POINT ( 'NONE',  ( 0.1249999999999998751, 3.000000000000000444, 0.000000000000000000 ) ) ;
#102 =( NAMED_UNIT ( * ) SI_UNIT ( $, .STERADIAN. ) SOLID_ANGLE_UNIT ( ) );
#103 = AXIS2_PLACEMENT_3D ( 'NONE', #288, #126, #1 ) ;
#104 = DIMENSIONAL_EXPONENTS ( 1.000000000000000000, 0.000000000000000000, 0.000000000000000000, 0.000000000000000000, 0.000000000000000000, 0.000000000000000000, 0.000000000000000000 ) ;
#105 = COLOUR_RGB ( '',1.000000000000000000, 0.000000000000000000, 0.000000000000000000 ) ;
#106 = EDGE_LOOP ( 'NONE', ( #236, #340 ) ) ;
#107 = ORIENTED_EDGE ( 'NONE', *, *, #120, .F. ) ;
#108 = MANIFOLD_SOLID_BREP ( 'Revolve - Cutting Edge', #56 ) ;
#109 = SURFACE_SIDE_STYLE ('',( #280 ) ) ;
#110 = DIRECTION ( 'NONE',  ( -1.000000000000000000, 0.000000000000000000, 0.000000000000000000 ) ) ;
#111 = ORIENTED_EDGE ( 'NONE', *, *, #131, .T. ) ;
#112 =( NAMED_UNIT ( * ) SI_UNIT ( $, .STERADIAN. ) SOLID_ANGLE_UNIT ( ) );
#113 = VERTEX_POINT ( 'NONE', #263 ) ;
#114 = COLOUR_RGB ( '',1.000000000000000000, 0.000000000000000000, 0.000000000000000000 ) ;
#115 = AXIS2_PLACEMENT_3D ( 'NONE', #36, #186, #132 ) ;
#116 = VERTEX_POINT ( 'NONE', #210 ) ;
#117 = CARTESIAN_POINT ( 'NONE',  ( 1.530808498934191509E-17, 0.1250000000000000278, 0.1249999999999999861 ) ) ;
#118 = EDGE_CURVE ( 'NONE', #75, #113, #342, .T. ) ;
#119 = PLANE ( 'NONE',  #313 ) ;
#120 = EDGE_CURVE ( 'NONE', #232, #28, #322, .T. ) ;
#121 = UNCERTAINTY_MEASURE_WITH_UNIT (LENGTH_MEASURE( 1.000000000000000082E-05 ), #125, 'distance_accuracy_value', 'NONE');
#122 = CARTESIAN_POINT ( 'NONE',  ( -6.123233995736772199E-17, 3.000000000000000444, 0.000000000000000000 ) ) ;
#123 = DIRECTION ( 'NONE',  ( -0.000000000000000000, -1.000000000000000000, -0.000000000000000000 ) ) ;
#124 = COLOUR_RGB ( '',0.7921568627450980005, 0.8196078431372548767, 0.9333333333333333481 ) ;
#125 =( CONVERSION_BASED_UNIT ( 'INCH', #156 ) LENGTH_UNIT ( ) NAMED_UNIT ( #276 ) );
#126 = DIRECTION ( 'NONE',  ( -0.000000000000000000, -1.000000000000000000, -0.000000000000000000 ) ) ;
#127 = FILL_AREA_STYLE_COLOUR ( '', #327 ) ;
#128 =( NAMED_UNIT ( * ) SI_UNIT ( $, .STERADIAN. ) SOLID_ANGLE_UNIT ( ) );
#129 =( GEOMETRIC_REPRESENTATION_CONTEXT ( 3 ) GLOBAL_UNCERTAINTY_ASSIGNED_CONTEXT ( ( #121 ) ) GLOBAL_UNIT_ASSIGNED_CONTEXT ( ( #125, #267, #54 ) ) REPRESENTATION_CONTEXT ( 'NONE', 'WORKASPACE' ) );
#130 = AXIS2_PLACEMENT_3D ( 'NONE', #303, #143, #247 ) ;
#131 = EDGE_CURVE ( 'NONE', #21, #219, #87, .T. ) ;
#132 = DIRECTION ( 'NONE',  ( 0.000000000000000000, 0.000000000000000000, -1.000000000000000000 ) ) ;
#133 = DIRECTION ( 'NONE',  ( -1.000000000000000000, 0.000000000000000000, 0.000000000000000000 ) ) ;
#134 = DIRECTION ( 'NONE',  ( -0.000000000000000000, -1.000000000000000000, -0.000000000000000000 ) ) ;
#135 = PRODUCT_RELATED_PRODUCT_CATEGORY ( 'part', '', ( #239 ) ) ;
#136 = FACE_OUTER_BOUND ( 'NONE', #23, .T. ) ;
#137 = ORIENTED_EDGE ( 'NONE', *, *, #45, .F. ) ;
#138 = FACE_OUTER_BOUND ( 'NONE', #106, .T. ) ;
#139 =( CONVERSION_BASED_UNIT ( 'INCH', #321 ) LENGTH_UNIT ( ) NAMED_UNIT ( #355 ) );
#140 = DIRECTION ( 'NONE',  ( 0.000000000000000000, 0.000000000000000000, 1.000000000000000000 ) ) ;
#141 = EDGE_LOOP ( 'NONE', ( #305, #328 ) ) ;
#142 =( GEOMETRIC_REPRESENTATION_CONTEXT ( 3 ) GLOBAL_UNCERTAINTY_ASSIGNED_CONTEXT ( ( #148 ) ) GLOBAL_UNIT_ASSIGNED_CONTEXT ( ( #350, #59, #95 ) ) REPRESENTATION_CONTEXT ( 'NONE', 'WORKASPACE' ) );
#143 = DIRECTION ( 'NONE',  ( -1.224646799147353700E-16, 1.000000000000000000, -0.000000000000000000 ) ) ;
#144 = DIRECTION ( 'NONE',  ( -0.000000000000000000, -1.000000000000000000, -0.000000000000000000 ) ) ;
#145 = ORIENTED_EDGE ( 'NONE', *, *, #241, .T. ) ;
#146 = DIRECTION ( 'NONE',  ( 1.000000000000000000, 1.224646799147353700E-16, 0.000000000000000000 ) ) ;
#147 = DIRECTION ( 'NONE',  ( -1.000000000000000000, -1.224646799147353700E-16, 0.000000000000000000 ) ) ;
#148 = UNCERTAINTY_MEASURE_WITH_UNIT (LENGTH_MEASURE( 1.000000000000000082E-05 ), #350, 'distance_accuracy_value', 'NONE');
#149 = VERTEX_POINT ( 'NONE', #266 ) ;
#150 = CIRCLE ( 'NONE', #24, 0.1249999999999997086 ) ;
#151 = PRESENTATION_LAYER_ASSIGNMENT (  '', '', ( #245 ) ) ;
#152 = CARTESIAN_POINT ( 'NONE',  ( -0.1250000000000000000, 0.1250000000000000278, 1.530808498934191201E-17 ) ) ;
#153 = CARTESIAN_POINT ( 'NONE',  ( 0.000000000000000000, 0.000000000000000000, 0.000000000000000000 ) ) ;
#154 = ORIENTED_EDGE ( 'NONE', *, *, #98, .T. ) ;
#155 = MECHANICAL_DESIGN_GEOMETRIC_PRESENTATION_REPRESENTATION (  '', ( #245 ), #142 ) ;
#156 = LENGTH_MEASURE_WITH_UNIT ( LENGTH_MEASURE( 0.02539999999999999897 ), #52 );
#157 = AXIS2_PLACEMENT_3D ( 'NONE', #80, #144, #258 ) ;
#158 =( GEOMETRIC_REPRESENTATION_CONTEXT ( 3 ) GLOBAL_UNCERTAINTY_ASSIGNED_CONTEXT ( ( #194 ) ) GLOBAL_UNIT_ASSIGNED_CONTEXT ( ( #2, #33, #6 ) ) REPRESENTATION_CONTEXT ( 'NONE', 'WORKASPACE' ) );
#159 = PRESENTATION_STYLE_ASSIGNMENT (( #215 ) ) ;
#160 = SURFACE_STYLE_FILL_AREA ( #356 ) ;
#161 = DIRECTION ( 'NONE',  ( 1.000000000000000000, 0.000000000000000000, 0.000000000000000000 ) ) ;
#162 = SURFACE_STYLE_FILL_AREA ( #40 ) ;
#163 =( LENGTH_UNIT ( ) NAMED_UNIT ( * ) SI_UNIT ( $, .METRE. ) );
#164 = SURFACE_SIDE_STYLE ('',( #162 ) ) ;
#165 = CARTESIAN_POINT ( 'NONE',  ( -1.530808498934191509E-17, 0.1250000000000000000, 0.000000000000000000 ) ) ;
#166 =( LENGTH_UNIT ( ) NAMED_UNIT ( * ) SI_UNIT ( $, .METRE. ) );
#167 = VERTEX_POINT ( 'NONE', #34 ) ;
#168 = FILL_AREA_STYLE ('',( #339 ) ) ;
#169 = DIRECTION ( 'NONE',  ( 1.000000000000000000, 0.000000000000000000, -1.224646799147353207E-16 ) ) ;
#170 = CIRCLE ( 'NONE', #39, 0.1250000000000000000 ) ;
#171 = PRODUCT_DEFINITION_CONTEXT ( 'detailed design', #349, 'design' ) ;
#172 =( NAMED_UNIT ( * ) PLANE_ANGLE_UNIT ( ) SI_UNIT ( $, .RADIAN. ) );
#173 = ADVANCED_BREP_SHAPE_REPRESENTATION ( '49121', ( #108, #238, #179 ), #335 ) ;
#174 = EDGE_CURVE ( 'NONE', #233, #116, #51, .T. ) ;
#175 = UNCERTAINTY_MEASURE_WITH_UNIT (LENGTH_MEASURE( 1.000000000000000082E-05 ), #100, 'distance_accuracy_value', 'NONE');
#176 = CARTESIAN_POINT ( 'NONE',  ( -1.530808498934191509E-17, 0.1250000000000000000, 0.000000000000000000 ) ) ;
#177 = LINE ( 'NONE', #261, #208 ) ;
#178 = SURFACE_STYLE_FILL_AREA ( #318 ) ;
#179 = AXIS2_PLACEMENT_3D ( 'NONE', #358, #140, #161 ) ;
#180 = STYLED_ITEM ( 'NONE', ( #272 ), #181 ) ;
#181 = ADVANCED_FACE ( 'NONE', ( #136 ), #13, .T. ) ;
#182 = ADVANCED_FACE ( 'NONE', ( #61 ), #192, .T. ) ;
#183 = SURFACE_SIDE_STYLE ('',( #178 ) ) ;
#184 = CARTESIAN_POINT ( 'NONE',  ( 0.000000000000000000, 0.1250000000000000278, 0.000000000000000000 ) ) ;
#185 = VECTOR ( 'NONE', #242, 39.37007874015748143 ) ;
#186 = DIRECTION ( 'NONE',  ( -0.000000000000000000, -1.000000000000000000, -0.000000000000000000 ) ) ;
#187 = DIRECTION ( 'NONE',  ( -0.000000000000000000, -1.000000000000000000, -0.000000000000000000 ) ) ;
#188 =( NAMED_UNIT ( * ) PLANE_ANGLE_UNIT ( ) SI_UNIT ( $, .RADIAN. ) );
#189 = STYLED_ITEM ( 'NONE', ( #309 ), #238 ) ;
#190 = EDGE_LOOP ( 'NONE', ( #311, #361, #281, #310 ) ) ;
#191 = ADVANCED_FACE ( 'NONE', ( #348 ), #255, .T. ) ;
#192 = SPHERICAL_SURFACE ( 'NONE', #269, 0.1250000000000000000 ) ;
#193 = CARTESIAN_POINT ( 'NONE',  ( 1.836970198721030427E-16, 1.000000000000000000, 0.000000000000000000 ) ) ;
#194 = UNCERTAINTY_MEASURE_WITH_UNIT (LENGTH_MEASURE( 1.000000000000000082E-05 ), #2, 'distance_accuracy_value', 'NONE');
#195 = DIRECTION ( 'NONE',  ( 1.224646799147353700E-16, -1.000000000000000000, 0.000000000000000000 ) ) ;
#196 = DIRECTION ( 'NONE',  ( -1.224646799147353700E-16, 1.000000000000000000, 0.000000000000000000 ) ) ;
#197 = LENGTH_MEASURE_WITH_UNIT ( LENGTH_MEASURE( 0.02539999999999999897 ), #26 );
#198 = ADVANCED_FACE ( 'NONE', ( #231 ), #223, .F. ) ;
#199 = PRESENTATION_STYLE_ASSIGNMENT (( #81 ) ) ;
#200 = COLOUR_RGB ( '',0.7921568627450980005, 0.8196078431372548767, 0.9333333333333333481 ) ;
#201 = UNCERTAINTY_MEASURE_WITH_UNIT (LENGTH_MEASURE( 1.000000000000000082E-05 ), #284, 'distance_accuracy_value', 'NONE');
#202 = CARTESIAN_POINT ( 'NONE',  ( -6.123233995736772199E-17, 3.000000000000000444, 0.000000000000000000 ) ) ;
#203 = DIRECTION ( 'NONE',  ( -1.224646799147353700E-16, 1.000000000000000000, -0.000000000000000000 ) ) ;
#204 = ORIENTED_EDGE ( 'NONE', *, *, #98, .F. ) ;
#205 =( LENGTH_UNIT ( ) NAMED_UNIT ( * ) SI_UNIT ( $, .METRE. ) );
#206 = PRODUCT_DEFINITION_FORMATION_WITH_SPECIFIED_SOURCE ( 'ANY', '', #239, .NOT_KNOWN. ) ;
#207 = PRODUCT_DEFINITION_SHAPE ( 'NONE', 'NONE',  #352 ) ;
#208 = VECTOR ( 'NONE', #86, 39.37007874015748143 ) ;
#209 = PRESENTATION_STYLE_ASSIGNMENT (( #316 ) ) ;
#210 = CARTESIAN_POINT ( 'NONE',  ( 0.1250000000000000000, 0.1250000000000000278, 0.000000000000000000 ) ) ;
#211 = PRESENTATION_STYLE_ASSIGNMENT (( #289 ) ) ;
#212 = EDGE_CURVE ( 'NONE', #219, #149, #17, .T. ) ;
#213 = COLOUR_RGB ( '',1.000000000000000000, 0.000000000000000000, 0.000000000000000000 ) ;
#214 = SURFACE_SIDE_STYLE ('',( #237 ) ) ;
#215 = SURFACE_STYLE_USAGE ( .BOTH. , #296 ) ;
#216 = SURFACE_SIDE_STYLE ('',( #160 ) ) ;
#217 =( NAMED_UNIT ( * ) PLANE_ANGLE_UNIT ( ) SI_UNIT ( $, .RADIAN. ) );
#218 = AXIS2_PLACEMENT_3D ( 'NONE', #153, #187, #298 ) ;
#219 = VERTEX_POINT ( 'NONE', #257 ) ;
#220 = DIRECTION ( 'NONE',  ( -1.000000000000000000, 0.000000000000000000, 0.000000000000000000 ) ) ;
#221 = AXIS2_PLACEMENT_3D ( 'NONE', #184, #134, #353 ) ;
#222 = ORIENTED_EDGE ( 'NONE', *, *, #131, .F. ) ;
#223 = PLANE ( 'NONE',  #347 ) ;
#224 = UNCERTAINTY_MEASURE_WITH_UNIT (LENGTH_MEASURE( 1.000000000000000082E-05 ), #14, 'distance_accuracy_value', 'NONE');
#225 = ORIENTED_EDGE ( 'NONE', *, *, #337, .T. ) ;
#226 = CARTESIAN_POINT ( 'NONE',  ( 0.000000000000000000, 1.000000000000000000, 0.000000000000000000 ) ) ;
#227 = EDGE_LOOP ( 'NONE', ( #225, #111, #70, #259 ) ) ;
#228 = CARTESIAN_POINT ( 'NONE',  ( 1.836970198721030181E-16, 1.000000000000000000, 0.000000000000000000 ) ) ;
#229 =( GEOMETRIC_REPRESENTATION_CONTEXT ( 3 ) GLOBAL_UNCERTAINTY_ASSIGNED_CONTEXT ( ( #230 ) ) GLOBAL_UNIT_ASSIGNED_CONTEXT ( ( #48, #5, #128 ) ) REPRESENTATION_CONTEXT ( 'NONE', 'WORKASPACE' ) );
#230 = UNCERTAINTY_MEASURE_WITH_UNIT (LENGTH_MEASURE( 1.000000000000000082E-05 ), #48, 'distance_accuracy_value', 'NONE');
#231 = FACE_OUTER_BOUND ( 'NONE', #141, .T. ) ;
#232 = VERTEX_POINT ( 'NONE', #117 ) ;
#233 = VERTEX_POINT ( 'NONE', #43 ) ;
#234 = SURFACE_STYLE_FILL_AREA ( #77 ) ;
#235 = FILL_AREA_STYLE ('',( #91 ) ) ;
#236 = ORIENTED_EDGE ( 'NONE', *, *, #241, .F. ) ;
#237 = SURFACE_STYLE_FILL_AREA ( #235 ) ;
#238 = MANIFOLD_SOLID_BREP ( 'Revolve - Tool Body (Straight Shanked)', #317 ) ;
#239 = PRODUCT ( '49121', '49121', '', ( #38 ) ) ;
#240 = CARTESIAN_POINT ( 'NONE',  ( -1.530808498934191509E-17, 0.1250000000000000000, 0.000000000000000000 ) ) ;
#241 = EDGE_CURVE ( 'NONE', #113, #75, #330, .T. ) ;
#242 = DIRECTION ( 'NONE',  ( -1.224646799147353700E-16, 1.000000000000000000, -0.000000000000000000 ) ) ;
#243 = AXIS2_PLACEMENT_3D ( 'NONE', #202, #370, #220 ) ;
#244 = SURFACE_STYLE_USAGE ( .BOTH. , #164 ) ;
#245 = STYLED_ITEM ( 'NONE', ( #159 ), #182 ) ;
#246 = DIRECTION ( 'NONE',  ( 0.000000000000000000, 1.000000000000000000, 0.000000000000000000 ) ) ;
#247 = DIRECTION ( 'NONE',  ( -1.000000000000000000, 0.000000000000000000, 0.000000000000000000 ) ) ;
#248 =( LENGTH_UNIT ( ) NAMED_UNIT ( * ) SI_UNIT ( $, .METRE. ) );
#249 = AXIS2_PLACEMENT_3D ( 'NONE', #10, #331, #133 ) ;
#250 = MECHANICAL_DESIGN_GEOMETRIC_PRESENTATION_REPRESENTATION (  '', ( #314 ), #129 ) ;
#251 = DIMENSIONAL_EXPONENTS ( 1.000000000000000000, 0.000000000000000000, 0.000000000000000000, 0.000000000000000000, 0.000000000000000000, 0.000000000000000000, 0.000000000000000000 ) ;
#252 = AXIS2_PLACEMENT_3D ( 'NONE', #357, #37, #68 ) ;
#253 = CARTESIAN_POINT ( 'NONE',  ( 1.530808498934190893E-17, 0.000000000000000000, 0.1249999999999999306 ) ) ;
#254 = ORIENTED_EDGE ( 'NONE', *, *, #82, .T. ) ;
#255 = CYLINDRICAL_SURFACE ( 'NONE', #243, 0.1249999999999998335 ) ;
#256 = DIRECTION ( 'NONE',  ( 0.000000000000000000, 0.000000000000000000, -1.000000000000000000 ) ) ;
#257 = CARTESIAN_POINT ( 'NONE',  ( 0.1249999999999998751, 3.000000000000000444, 1.530808498934190276E-17 ) ) ;
#258 = DIRECTION ( 'NONE',  ( 0.000000000000000000, 0.000000000000000000, -1.000000000000000000 ) ) ;
#259 = ORIENTED_EDGE ( 'NONE', *, *, #297, .F. ) ;
#260 =( GEOMETRIC_REPRESENTATION_CONTEXT ( 3 ) GLOBAL_UNCERTAINTY_ASSIGNED_CONTEXT ( ( #363 ) ) GLOBAL_UNIT_ASSIGNED_CONTEXT ( ( #139, #67, #301 ) ) REPRESENTATION_CONTEXT ( 'NONE', 'WORKASPACE' ) );
#261 = CARTESIAN_POINT ( 'NONE',  ( -0.1249999999999999029, 3.000000000000000444, 0.000000000000000000 ) ) ;
#262 = DIRECTION ( 'NONE',  ( 1.224646799147353207E-16, -0.000000000000000000, 1.000000000000000000 ) ) ;
#263 = CARTESIAN_POINT ( 'NONE',  ( 0.000000000000000000, 1.000000000000000000, -0.1249999999999998751 ) ) ;
#264 = CARTESIAN_POINT ( 'NONE',  ( -6.123233995736772199E-17, 3.000000000000000444, 0.000000000000000000 ) ) ;
#265 = VECTOR ( 'NONE', #372, 39.37007874015748143 ) ;
#266 = CARTESIAN_POINT ( 'NONE',  ( -0.1250000000000000278, 3.000000000000000444, 0.000000000000000000 ) ) ;
#267 =( NAMED_UNIT ( * ) PLANE_ANGLE_UNIT ( ) SI_UNIT ( $, .RADIAN. ) );
#268 = MECHANICAL_DESIGN_GEOMETRIC_PRESENTATION_REPRESENTATION (  '', ( #60 ), #18 ) ;
#269 = AXIS2_PLACEMENT_3D ( 'NONE', #165, #286, #365 ) ;
#270 = LENGTH_MEASURE_WITH_UNIT ( LENGTH_MEASURE( 0.02539999999999999897 ), #271 );
#271 =( LENGTH_UNIT ( ) NAMED_UNIT ( * ) SI_UNIT ( $, .METRE. ) );
#272 = PRESENTATION_STYLE_ASSIGNMENT (( #8 ) ) ;
#273 = ADVANCED_FACE ( 'NONE', ( #31 ), #4, .T. ) ;
#274 = FILL_AREA_STYLE_COLOUR ( '', #114 ) ;
#275 = FILL_AREA_STYLE_COLOUR ( '', #213 ) ;
#276 = DIMENSIONAL_EXPONENTS ( 1.000000000000000000, 0.000000000000000000, 0.000000000000000000, 0.000000000000000000, 0.000000000000000000, 0.000000000000000000, 0.000000000000000000 ) ;
#277 = APPLICATION_PROTOCOL_DEFINITION ( 'draft international standard', 'automotive_design', 1998, #349 ) ;
#278 = ORIENTED_EDGE ( 'NONE', *, *, #120, .T. ) ;
#279 = AXIS2_PLACEMENT_3D ( 'NONE', #122, #203, #110 ) ;
#280 = SURFACE_STYLE_FILL_AREA ( #168 ) ;
#281 = ORIENTED_EDGE ( 'NONE', *, *, #174, .T. ) ;
#282 = ORIENTED_EDGE ( 'NONE', *, *, #55, .T. ) ;
#283 = DIRECTION ( 'NONE',  ( -1.000000000000000000, 0.000000000000000000, 0.000000000000000000 ) ) ;
#284 =( CONVERSION_BASED_UNIT ( 'INCH', #197 ) LENGTH_UNIT ( ) NAMED_UNIT ( #71 ) );
#285 = EDGE_CURVE ( 'NONE', #149, #219, #359, .T. ) ;
#286 = DIRECTION ( 'NONE',  ( 0.000000000000000000, 0.000000000000000000, 1.000000000000000000 ) ) ;
#287 = CARTESIAN_POINT ( 'NONE',  ( 1.530808498934190585E-17, 1.000000000000000000, 0.1249999999999998751 ) ) ;
#288 = CARTESIAN_POINT ( 'NONE',  ( 0.000000000000000000, 0.1250000000000000278, 0.000000000000000000 ) ) ;
#289 = SURFACE_STYLE_USAGE ( .BOTH. , #183 ) ;
#290 = DIRECTION ( 'NONE',  ( -1.224646799147353700E-16, 1.000000000000000000, -0.000000000000000000 ) ) ;
#291 = AXIS2_PLACEMENT_3D ( 'NONE', #65, #246, #42 ) ;
#292 = VECTOR ( 'NONE', #47, 39.37007874015748143 ) ;
#293 = DIRECTION ( 'NONE',  ( 0.000000000000000000, 0.000000000000000000, -1.000000000000000000 ) ) ;
#294 = FILL_AREA_STYLE ('',( #99 ) ) ;
#295 = CIRCLE ( 'NONE', #249, 0.1249999999999997086 ) ;
#296 = SURFACE_SIDE_STYLE ('',( #94 ) ) ;
#297 = EDGE_CURVE ( 'NONE', #167, #149, #177, .T. ) ;
#298 = DIRECTION ( 'NONE',  ( 0.000000000000000000, 0.000000000000000000, -1.000000000000000000 ) ) ;
#299 = COLOUR_RGB ( '',1.000000000000000000, 0.000000000000000000, 0.000000000000000000 ) ;
#300 = PLANE ( 'NONE',  #291 ) ;
#301 =( NAMED_UNIT ( * ) SI_UNIT ( $, .STERADIAN. ) SOLID_ANGLE_UNIT ( ) );
#302 = SURFACE_SIDE_STYLE ('',( #234 ) ) ;
#303 = CARTESIAN_POINT ( 'NONE',  ( -6.123233995736772199E-17, 3.000000000000000444, 0.000000000000000000 ) ) ;
#304 = ORIENTED_EDGE ( 'NONE', *, *, #212, .F. ) ;
#305 = ORIENTED_EDGE ( 'NONE', *, *, #285, .T. ) ;
#306 = ORIENTED_EDGE ( 'NONE', *, *, #174, .F. ) ;
#307 = LENGTH_MEASURE_WITH_UNIT ( LENGTH_MEASURE( 0.02539999999999999897 ), #166 );
#308 = EDGE_CURVE ( 'NONE', #113, #233, #315, .T. ) ;
#309 = PRESENTATION_STYLE_ASSIGNMENT (( #76 ) ) ;
#310 = ORIENTED_EDGE ( 'NONE', *, *, #45, .T. ) ;
#311 = ORIENTED_EDGE ( 'NONE', *, *, #55, .F. ) ;
#312 = LENGTH_MEASURE_WITH_UNIT ( LENGTH_MEASURE( 0.02539999999999999897 ), #205 );
#313 = AXIS2_PLACEMENT_3D ( 'NONE', #228, #196, #147 ) ;
#314 = STYLED_ITEM ( 'NONE', ( #209 ), #273 ) ;
#315 = LINE ( 'NONE', #344, #265 ) ;
#316 = SURFACE_STYLE_USAGE ( .BOTH. , #214 ) ;
#317 = CLOSED_SHELL ( 'NONE', ( #88, #41, #191, #198 ) ) ;
#318 = FILL_AREA_STYLE ('',( #127 ) ) ;
#319 = ORIENTED_EDGE ( 'NONE', *, *, #308, .T. ) ;
#320 = ADVANCED_FACE ( 'NONE', ( #90 ), #83, .T. ) ;
#321 = LENGTH_MEASURE_WITH_UNIT ( LENGTH_MEASURE( 0.02539999999999999897 ), #163 );
#322 = CIRCLE ( 'NONE', #103, 0.1250000000000000000 ) ;
#323 = ADVANCED_FACE ( 'NONE', ( #138 ), #300, .T. ) ;
#324 = DIMENSIONAL_EXPONENTS ( 1.000000000000000000, 0.000000000000000000, 0.000000000000000000, 0.000000000000000000, 0.000000000000000000, 0.000000000000000000, 0.000000000000000000 ) ;
#325 = EDGE_CURVE ( 'NONE', #28, #233, #30, .T. ) ;
#326 =( LENGTH_UNIT ( ) NAMED_UNIT ( * ) SI_UNIT ( $, .METRE. ) );
#327 = COLOUR_RGB ( '',1.000000000000000000, 0.000000000000000000, 0.000000000000000000 ) ;
#328 = ORIENTED_EDGE ( 'NONE', *, *, #212, .T. ) ;
#329 = DIMENSIONAL_EXPONENTS ( 1.000000000000000000, 0.000000000000000000, 0.000000000000000000, 0.000000000000000000, 0.000000000000000000, 0.000000000000000000, 0.000000000000000000 ) ;
#330 = CIRCLE ( 'NONE', #7, 0.1249999999999998751 ) ;
#331 = DIRECTION ( 'NONE',  ( -1.224646799147353700E-16, 1.000000000000000000, -0.000000000000000000 ) ) ;
#332 = DIRECTION ( 'NONE',  ( -1.000000000000000000, 0.000000000000000000, 0.000000000000000000 ) ) ;
#333 = CARTESIAN_POINT ( 'NONE',  ( 0.000000000000000000, 1.000000000000000000, 0.000000000000000000 ) ) ;
#334 = FILL_AREA_STYLE_COLOUR ( '', #124 ) ;
#335 =( GEOMETRIC_REPRESENTATION_CONTEXT ( 3 ) GLOBAL_UNCERTAINTY_ASSIGNED_CONTEXT ( ( #224 ) ) GLOBAL_UNIT_ASSIGNED_CONTEXT ( ( #14, #188, #12 ) ) REPRESENTATION_CONTEXT ( 'NONE', 'WORKASPACE' ) );
#336 = AXIS2_PLACEMENT_3D ( 'NONE', #44, #262, #169 ) ;
#337 = EDGE_CURVE ( 'NONE', #167, #21, #295, .T. ) ;
#338 = VERTEX_POINT ( 'NONE', #97 ) ;
#339 = FILL_AREA_STYLE_COLOUR ( '', #200 ) ;
#340 = ORIENTED_EDGE ( 'NONE', *, *, #118, .F. ) ;
#341 = LINE ( 'NONE', #253, #292 ) ;
#342 = CIRCLE ( 'NONE', #35, 0.1249999999999998751 ) ;
#343 = PRESENTATION_LAYER_ASSIGNMENT (  '', '', ( #85 ) ) ;
#344 = CARTESIAN_POINT ( 'NONE',  ( 0.000000000000000000, 0.000000000000000000, -0.1249999999999999306 ) ) ;
#345 = DIRECTION ( 'NONE',  ( 0.000000000000000000, 0.000000000000000000, -1.000000000000000000 ) ) ;
#346 = DIRECTION ( 'NONE',  ( -0.000000000000000000, -1.000000000000000000, -0.000000000000000000 ) ) ;
#347 = AXIS2_PLACEMENT_3D ( 'NONE', #101, #195, #146 ) ;
#348 = FACE_OUTER_BOUND ( 'NONE', #373, .T. ) ;
#349 = APPLICATION_CONTEXT ( 'automotive_design' ) ;
#350 =( CONVERSION_BASED_UNIT ( 'INCH', #270 ) LENGTH_UNIT ( ) NAMED_UNIT ( #64 ) );
#351 = LENGTH_MEASURE_WITH_UNIT ( LENGTH_MEASURE( 0.02539999999999999897 ), #326 );
#352 = PRODUCT_DEFINITION ( 'UNKNOWN', '', #206, #171 ) ;
#353 = DIRECTION ( 'NONE',  ( 0.000000000000000000, 0.000000000000000000, -1.000000000000000000 ) ) ;
#354 = PRESENTATION_STYLE_ASSIGNMENT (( #244 ) ) ;
#355 = DIMENSIONAL_EXPONENTS ( 1.000000000000000000, 0.000000000000000000, 0.000000000000000000, 0.000000000000000000, 0.000000000000000000, 0.000000000000000000, 0.000000000000000000 ) ;
#356 = FILL_AREA_STYLE ('',( #275 ) ) ;
#357 = CARTESIAN_POINT ( 'NONE',  ( 0.000000000000000000, 0.1250000000000000278, 0.000000000000000000 ) ) ;
#358 = CARTESIAN_POINT ( 'NONE',  ( 0.000000000000000000, 0.000000000000000000, 0.000000000000000000 ) ) ;
#359 = CIRCLE ( 'NONE', #16, 0.1249999999999999445 ) ;
#360 = PRESENTATION_LAYER_ASSIGNMENT (  '', '', ( #314 ) ) ;
#361 = ORIENTED_EDGE ( 'NONE', *, *, #325, .T. ) ;
#362 = FACE_OUTER_BOUND ( 'NONE', #227, .T. ) ;
#363 = UNCERTAINTY_MEASURE_WITH_UNIT (LENGTH_MEASURE( 1.000000000000000082E-05 ), #139, 'distance_accuracy_value', 'NONE');
#364 = EDGE_LOOP ( 'NONE', ( #145, #154, #73, #306, #27 ) ) ;
#365 = DIRECTION ( 'NONE',  ( 1.000000000000000000, 0.000000000000000000, 0.000000000000000000 ) ) ;
#366 = CYLINDRICAL_SURFACE ( 'NONE', #279, 0.1249999999999998335 ) ;
#367 = ORIENTED_EDGE ( 'NONE', *, *, #297, .T. ) ;
#368 = ORIENTED_EDGE ( 'NONE', *, *, #337, .F. ) ;
#369 =( GEOMETRIC_REPRESENTATION_CONTEXT ( 3 ) GLOBAL_UNCERTAINTY_ASSIGNED_CONTEXT ( ( #201 ) ) GLOBAL_UNIT_ASSIGNED_CONTEXT ( ( #284, #172, #112 ) ) REPRESENTATION_CONTEXT ( 'NONE', 'WORKASPACE' ) );
#370 = DIRECTION ( 'NONE',  ( -1.224646799147353700E-16, 1.000000000000000000, -0.000000000000000000 ) ) ;
#371 = ORIENTED_EDGE ( 'NONE', *, *, #118, .T. ) ;
#372 = DIRECTION ( 'NONE',  ( -0.000000000000000000, -1.000000000000000000, -0.000000000000000000 ) ) ;
#373 = EDGE_LOOP ( 'NONE', ( #222, #29, #367, #304 ) ) ;
ENDSEC;
END-ISO-10303-21;
