ISO-10303-21;
HEADER;
FILE_DESCRIPTION (( 'STEP AP214' ),
    '1' );
FILE_NAME ('Micro_SHLM-120-4X.STEP',
    '2021-09-02T08:29:04',
    ( '' ),
    ( '' ),
    'SwSTEP 2.0',
    'SolidWorks 2020',
    '' );
FILE_SCHEMA (( 'AUTOMOTIVE_DESIGN' ));
ENDSEC;

DATA;
#1 = STYLED_ITEM ( 'NONE', ( #121 ), #27 ) ;
#2 = DIRECTION ( 'NONE',  ( 0.7071067811865540120, 8.659560562355011744E-17, -0.7071067811865410224 ) ) ;
#3 = DIRECTION ( 'NONE',  ( 0.0000000000000000000, 0.0000000000000000000, 1.000000000000000000 ) ) ;
#4 = UNCERTAINTY_MEASURE_WITH_UNIT (LENGTH_MEASURE( 1.000000000000000082E-05 ), #215, 'distance_accuracy_value', 'NONE');
#5 = CARTESIAN_POINT ( 'NONE',  ( 0.2212204999999994870, 2.709169772307763601E-17, 3.937007999999999619 ) ) ;
#6 = SURFACE_STYLE_FILL_AREA ( #118 ) ;
#7 = SURFACE_STYLE_USAGE ( .BOTH. , #208 ) ;
#8 = FACE_OUTER_BOUND ( 'NONE', #89, .T. ) ;
#9 = MECHANICAL_DESIGN_GEOMETRIC_PRESENTATION_REPRESENTATION (  '', ( #203 ), #284 ) ;
#10 = CARTESIAN_POINT ( 'NONE',  ( 0.2359842795000000049, 2.889973925387693713E-17, -2.889973925387693713E-17 ) ) ;
#11 = DIRECTION ( 'NONE',  ( 1.000000000000000000, 0.0000000000000000000, 0.0000000000000000000 ) ) ;
#12 = EDGE_CURVE ( 'NONE', #292, #243, #39, .T. ) ;
#13 = DIRECTION ( 'NONE',  ( -1.224646799147353207E-16, -0.0000000000000000000, -1.000000000000000000 ) ) ;
#14 = FACE_OUTER_BOUND ( 'NONE', #172, .T. ) ;
#15 =( NAMED_UNIT ( * ) SI_UNIT ( $, .STERADIAN. ) SOLID_ANGLE_UNIT ( ) );
#16 = AXIS2_PLACEMENT_3D ( 'NONE', #78, #53, #140 ) ;
#17 = VERTEX_POINT ( 'NONE', #223 ) ;
#18 = DIRECTION ( 'NONE',  ( -1.000000000000000000, 0.0000000000000000000, 1.224646799147353207E-16 ) ) ;
#19 = ORIENTED_EDGE ( 'NONE', *, *, #122, .T. ) ;
#20 = UNCERTAINTY_MEASURE_WITH_UNIT (LENGTH_MEASURE( 1.000000000000000082E-05 ), #165, 'distance_accuracy_value', 'NONE');
#21 = CARTESIAN_POINT ( 'NONE',  ( 0.2212204999999994870, 2.801018282243818278E-17, 3.937007999999999619 ) ) ;
#22 = ORIENTED_EDGE ( 'NONE', *, *, #199, .T. ) ;
#23 =( GEOMETRIC_REPRESENTATION_CONTEXT ( 3 ) GLOBAL_UNCERTAINTY_ASSIGNED_CONTEXT ( ( #4 ) ) GLOBAL_UNIT_ASSIGNED_CONTEXT ( ( #215, #37, #15 ) ) REPRESENTATION_CONTEXT ( 'NONE', 'WORKASPACE' ) );
#24 = APPLICATION_CONTEXT ( 'automotive_design' ) ;
#25 = ADVANCED_FACE ( 'NONE', ( #79 ), #68, .T. ) ;
#26 = ORIENTED_EDGE ( 'NONE', *, *, #151, .F. ) ;
#27 = ADVANCED_BREP_SHAPE_REPRESENTATION ( 'Micro_SHLM-120-4X', ( #277, #186 ), #23 ) ;
#28 = CARTESIAN_POINT ( 'NONE',  ( 2.410722122708761257E-16, 0.0000000000000000000, 1.968503999999999809 ) ) ;
#29 =( CONVERSION_BASED_UNIT ( 'INCH', #248 ) LENGTH_UNIT ( ) NAMED_UNIT ( #255 ) );
#30 = APPLICATION_PROTOCOL_DEFINITION ( 'draft international standard', 'automotive_design', 1998, #221 ) ;
#31 = ORIENTED_EDGE ( 'NONE', *, *, #275, .T. ) ;
#32 = VECTOR ( 'NONE', #259, 39.37007874015748143 ) ;
#33 = ADVANCED_FACE ( 'NONE', ( #133 ), #224, .T. ) ;
#34 = ORIENTED_EDGE ( 'NONE', *, *, #264, .T. ) ;
#35 = FILL_AREA_STYLE ('',( #232 ) ) ;
#36 = CARTESIAN_POINT ( 'NONE',  ( 2.412362748993267856E-16, 0.0000000000000000000, 1.969843673027070974 ) ) ;
#37 =( NAMED_UNIT ( * ) PLANE_ANGLE_UNIT ( ) SI_UNIT ( $, .RADIAN. ) );
#38 =( LENGTH_UNIT ( ) NAMED_UNIT ( * ) SI_UNIT ( $, .METRE. ) );
#39 = CIRCLE ( 'NONE', #50, 0.2359842795000000049 ) ;
#40 = DIRECTION ( 'NONE',  ( 1.000000000000000000, 0.0000000000000000000, 0.0000000000000000000 ) ) ;
#41 = VECTOR ( 'NONE', #152, 39.37007874015748143 ) ;
#42 = DIRECTION ( 'NONE',  ( -1.224646799147353207E-16, -0.0000000000000000000, -1.000000000000000000 ) ) ;
#43 = DIRECTION ( 'NONE',  ( -1.224646799147353207E-16, -0.0000000000000000000, -1.000000000000000000 ) ) ;
#44 = EDGE_LOOP ( 'NONE', ( #137, #129, #193, #110 ) ) ;
#45 = AXIS2_PLACEMENT_3D ( 'NONE', #36, #42, #40 ) ;
#46 = ORIENTED_EDGE ( 'NONE', *, *, #167, .T. ) ;
#47 = ORIENTED_EDGE ( 'NONE', *, *, #249, .F. ) ;
#48 = DIRECTION ( 'NONE',  ( -1.000000000000000000, 0.0000000000000000000, 0.0000000000000000000 ) ) ;
#49 = CARTESIAN_POINT ( 'NONE',  ( -0.2362204999999999999, 0.0000000000000000000, 3.922007999999999495 ) ) ;
#50 = AXIS2_PLACEMENT_3D ( 'NONE', #294, #134, #147 ) ;
#51 = ORIENTED_EDGE ( 'NONE', *, *, #167, .F. ) ;
#52 = EDGE_CURVE ( 'NONE', #17, #113, #173, .T. ) ;
#53 = DIRECTION ( 'NONE',  ( -0.0000000000000000000, -0.0000000000000000000, -1.000000000000000000 ) ) ;
#54 = APPLICATION_PROTOCOL_DEFINITION ( 'draft international standard', 'automotive_design', 1998, #24 ) ;
#55 = CIRCLE ( 'NONE', #45, 0.2362204999999999999 ) ;
#56 = CARTESIAN_POINT ( 'NONE',  ( 0.0000000000000000000, 0.0000000000000000000, 0.0000000000000000000 ) ) ;
#57 = FACE_OUTER_BOUND ( 'NONE', #70, .T. ) ;
#58 = CARTESIAN_POINT ( 'NONE',  ( 0.2359842795000000049, 2.889973925387693713E-17, 0.0000000000000000000 ) ) ;
#59 = DIRECTION ( 'NONE',  ( 1.224646799147353207E-16, 0.0000000000000000000, 1.000000000000000000 ) ) ;
#60 = ORIENTED_EDGE ( 'NONE', *, *, #187, .F. ) ;
#61 = CONICAL_SURFACE ( 'NONE', #225, 0.2359842795000000049, 0.1745329251994338915 ) ;
#62 = PRODUCT_DEFINITION_FORMATION_WITH_SPECIFIED_SOURCE ( 'ANY', '', #123, .NOT_KNOWN. ) ;
#63 = ORIENTED_EDGE ( 'NONE', *, *, #122, .F. ) ;
#64 = ORIENTED_EDGE ( 'NONE', *, *, #205, .F. ) ;
#65 = DIRECTION ( 'NONE',  ( -1.000000000000000000, 0.0000000000000000000, 0.0000000000000000000 ) ) ;
#66 = CONICAL_SURFACE ( 'NONE', #244, 0.2359842795000000049, 0.1745329251994338915 ) ;
#67 = ORIENTED_EDGE ( 'NONE', *, *, #182, .T. ) ;
#68 = CONICAL_SURFACE ( 'NONE', #262, 0.2212204999999994870, 0.7853981633974573828 ) ;
#69 = PRESENTATION_LAYER_ASSIGNMENT (  '', '', ( #203 ) ) ;
#70 = EDGE_LOOP ( 'NONE', ( #47, #269, #67, #141 ) ) ;
#71 = CARTESIAN_POINT ( 'NONE',  ( -0.2359842795000000049, 0.0000000000000000000, 5.779947850775387426E-17 ) ) ;
#72 = LINE ( 'NONE', #287, #270 ) ;
#73 = CARTESIAN_POINT ( 'NONE',  ( 0.0000000000000000000, 0.0000000000000000000, 0.0000000000000000000 ) ) ;
#74 = CARTESIAN_POINT ( 'NONE',  ( 0.0000000000000000000, 0.0000000000000000000, 3.937007999999999619 ) ) ;
#75 = AXIS2_PLACEMENT_3D ( 'NONE', #28, #91, #291 ) ;
#76 = LINE ( 'NONE', #98, #162 ) ;
#77 = CARTESIAN_POINT ( 'NONE',  ( 0.0000000000000000000, 0.0000000000000000000, 3.937007999999999619 ) ) ;
#78 = CARTESIAN_POINT ( 'NONE',  ( 0.0000000000000000000, 0.0000000000000000000, 3.937007999999999619 ) ) ;
#79 = FACE_OUTER_BOUND ( 'NONE', #83, .T. ) ;
#80 = DIMENSIONAL_EXPONENTS ( 1.000000000000000000, 0.0000000000000000000, 0.0000000000000000000, 0.0000000000000000000, 0.0000000000000000000, 0.0000000000000000000, 0.0000000000000000000 ) ;
#81 = EDGE_CURVE ( 'NONE', #289, #245, #109, .T. ) ;
#82 = EDGE_LOOP ( 'NONE', ( #26, #299, #100, #88 ) ) ;
#83 = EDGE_LOOP ( 'NONE', ( #273, #148, #63, #288 ) ) ;
#84 =( NAMED_UNIT ( * ) PLANE_ANGLE_UNIT ( ) SI_UNIT ( $, .RADIAN. ) );
#85 = VECTOR ( 'NONE', #211, 39.37007874015748143 ) ;
#86 = DIRECTION ( 'NONE',  ( -1.224646799147353207E-16, -0.0000000000000000000, -1.000000000000000000 ) ) ;
#87 =( LENGTH_UNIT ( ) NAMED_UNIT ( * ) SI_UNIT ( $, .METRE. ) );
#88 = ORIENTED_EDGE ( 'NONE', *, *, #12, .F. ) ;
#89 = EDGE_LOOP ( 'NONE', ( #240, #231, #51, #280 ) ) ;
#90 = AXIS2_PLACEMENT_3D ( 'NONE', #214, #13, #282 ) ;
#91 = DIRECTION ( 'NONE',  ( -1.224646799147353207E-16, -0.0000000000000000000, -1.000000000000000000 ) ) ;
#92 = VECTOR ( 'NONE', #276, 39.37007874015748143 ) ;
#93 = PRODUCT_CONTEXT ( 'NONE', #24, 'mechanical' ) ;
#94 = CYLINDRICAL_SURFACE ( 'NONE', #157, 0.2359842795000000049 ) ;
#95 = CYLINDRICAL_SURFACE ( 'NONE', #16, 0.2362204999999999999 ) ;
#96 = SURFACE_SIDE_STYLE ('',( #6 ) ) ;
#97 = LENGTH_MEASURE_WITH_UNIT ( LENGTH_MEASURE( 0.02539999999999999897 ), #38 );
#98 = CARTESIAN_POINT ( 'NONE',  ( -0.2359842795000000049, 0.0000000000000000000, 2.889973925387693713E-17 ) ) ;
#99 = CARTESIAN_POINT ( 'NONE',  ( 0.2359842795000002547, 0.0000000000000000000, 1.968503999999999809 ) ) ;
#100 = ORIENTED_EDGE ( 'NONE', *, *, #128, .T. ) ;
#101 = FACE_OUTER_BOUND ( 'NONE', #192, .T. ) ;
#102 = AXIS2_PLACEMENT_3D ( 'NONE', #107, #86, #18 ) ;
#103 = ADVANCED_FACE ( 'NONE', ( #190 ), #296, .T. ) ;
#104 = DIRECTION ( 'NONE',  ( 1.000000000000000000, 0.0000000000000000000, 0.0000000000000000000 ) ) ;
#105 = PRESENTATION_STYLE_ASSIGNMENT (( #7 ) ) ;
#106 = LINE ( 'NONE', #5, #198 ) ;
#107 = CARTESIAN_POINT ( 'NONE',  ( 0.0000000000000000000, 0.0000000000000000000, 0.0000000000000000000 ) ) ;
#108 = ADVANCED_FACE ( 'NONE', ( #14 ), #66, .T. ) ;
#109 = CIRCLE ( 'NONE', #274, 0.2359842795000000049 ) ;
#110 = ORIENTED_EDGE ( 'NONE', *, *, #199, .F. ) ;
#111 = EDGE_CURVE ( 'NONE', #113, #267, #130, .T. ) ;
#112 = VERTEX_POINT ( 'NONE', #202 ) ;
#113 = VERTEX_POINT ( 'NONE', #49 ) ;
#114 = COLOUR_RGB ( '',0.7921568627450980005, 0.8196078431372548767, 0.9333333333333333481 ) ;
#115 = EDGE_CURVE ( 'NONE', #112, #113, #131, .T. ) ;
#116 = CARTESIAN_POINT ( 'NONE',  ( 0.0000000000000000000, 0.0000000000000000000, 3.922007999999999495 ) ) ;
#117 = CARTESIAN_POINT ( 'NONE',  ( 0.0000000000000000000, 0.0000000000000000000, 3.937007999999999619 ) ) ;
#118 = FILL_AREA_STYLE ('',( #230 ) ) ;
#119 = DIRECTION ( 'NONE',  ( 1.000000000000000000, 0.0000000000000000000, -0.0000000000000000000 ) ) ;
#120 = DIMENSIONAL_EXPONENTS ( 1.000000000000000000, 0.0000000000000000000, 0.0000000000000000000, 0.0000000000000000000, 0.0000000000000000000, 0.0000000000000000000, 0.0000000000000000000 ) ;
#121 = PRESENTATION_STYLE_ASSIGNMENT (( #258 ) ) ;
#122 = EDGE_CURVE ( 'NONE', #113, #112, #185, .T. ) ;
#123 = PRODUCT ( 'Micro_SHLM-120-4X', 'Micro_SHLM-120-4X', '', ( #93 ) ) ;
#124 = LINE ( 'NONE', #206, #295 ) ;
#125 = AXIS2_PLACEMENT_3D ( 'NONE', #117, #166, #146 ) ;
#126 = DIRECTION ( 'NONE',  ( -0.1736481776669311916, 2.126576849575783316E-17, 0.9848077530122080203 ) ) ;
#127 =( LENGTH_UNIT ( ) NAMED_UNIT ( * ) SI_UNIT ( $, .METRE. ) );
#128 = EDGE_CURVE ( 'NONE', #245, #243, #76, .T. ) ;
#129 = ORIENTED_EDGE ( 'NONE', *, *, #115, .T. ) ;
#130 = LINE ( 'NONE', #200, #92 ) ;
#131 = CIRCLE ( 'NONE', #154, 0.2362204999999999999 ) ;
#132 = ORIENTED_EDGE ( 'NONE', *, *, #136, .T. ) ;
#133 = FACE_OUTER_BOUND ( 'NONE', #82, .T. ) ;
#134 = DIRECTION ( 'NONE',  ( -1.224646799147353207E-16, -0.0000000000000000000, -1.000000000000000000 ) ) ;
#135 = COLOUR_RGB ( '',0.7921568627450980005, 0.8196078431372548767, 0.9333333333333333481 ) ;
#136 = EDGE_CURVE ( 'NONE', #289, #171, #238, .T. ) ;
#137 = ORIENTED_EDGE ( 'NONE', *, *, #264, .F. ) ;
#138 = AXIS2_PLACEMENT_3D ( 'NONE', #77, #261, #237 ) ;
#139 = DIRECTION ( 'NONE',  ( 0.0000000000000000000, 0.0000000000000000000, -1.000000000000000000 ) ) ;
#140 = DIRECTION ( 'NONE',  ( -1.000000000000000000, 0.0000000000000000000, 0.0000000000000000000 ) ) ;
#141 = ORIENTED_EDGE ( 'NONE', *, *, #136, .F. ) ;
#142 = FACE_OUTER_BOUND ( 'NONE', #207, .T. ) ;
#143 = ORIENTED_EDGE ( 'NONE', *, *, #111, .F. ) ;
#144 = DIRECTION ( 'NONE',  ( -0.0000000000000000000, -0.0000000000000000000, -1.000000000000000000 ) ) ;
#145 = DIRECTION ( 'NONE',  ( 1.224646799147353207E-16, 0.0000000000000000000, 1.000000000000000000 ) ) ;
#146 = DIRECTION ( 'NONE',  ( -1.000000000000000000, 0.0000000000000000000, 0.0000000000000000000 ) ) ;
#147 = DIRECTION ( 'NONE',  ( -1.000000000000000000, 0.0000000000000000000, 1.224646799147353207E-16 ) ) ;
#148 = ORIENTED_EDGE ( 'NONE', *, *, #205, .T. ) ;
#149 = CIRCLE ( 'NONE', #75, 0.2359842795000000049 ) ;
#150 = ORIENTED_EDGE ( 'NONE', *, *, #52, .T. ) ;
#151 = EDGE_CURVE ( 'NONE', #289, #292, #184, .T. ) ;
#152 = DIRECTION ( 'NONE',  ( -0.7071067811865540120, 0.0000000000000000000, -0.7071067811865410224 ) ) ;
#153 = ADVANCED_FACE ( 'NONE', ( #57 ), #61, .T. ) ;
#154 = AXIS2_PLACEMENT_3D ( 'NONE', #178, #139, #227 ) ;
#155 = PRODUCT_RELATED_PRODUCT_CATEGORY ( 'part', '', ( #123 ) ) ;
#156 = ORIENTED_EDGE ( 'NONE', *, *, #297, .T. ) ;
#157 = AXIS2_PLACEMENT_3D ( 'NONE', #73, #161, #281 ) ;
#158 = ORIENTED_EDGE ( 'NONE', *, *, #81, .F. ) ;
#159 = CARTESIAN_POINT ( 'NONE',  ( -0.2359842794999997828, 2.891420358783783796E-17, 1.968503999999999809 ) ) ;
#160 = ADVANCED_FACE ( 'NONE', ( #286 ), #95, .T. ) ;
#161 = DIRECTION ( 'NONE',  ( -1.224646799147353207E-16, -0.0000000000000000000, -1.000000000000000000 ) ) ;
#162 = VECTOR ( 'NONE', #285, 39.37007874015748143 ) ;
#163 = SURFACE_STYLE_FILL_AREA ( #35 ) ;
#164 = CARTESIAN_POINT ( 'NONE',  ( 0.2359842795000002547, 0.0000000000000000000, 1.968503999999999809 ) ) ;
#165 =( CONVERSION_BASED_UNIT ( 'INCH', #97 ) LENGTH_UNIT ( ) NAMED_UNIT ( #80 ) );
#166 = DIRECTION ( 'NONE',  ( 0.0000000000000000000, 0.0000000000000000000, -1.000000000000000000 ) ) ;
#167 = EDGE_CURVE ( 'NONE', #243, #292, #195, .T. ) ;
#168 = PRESENTATION_LAYER_ASSIGNMENT (  '', '', ( #1 ) ) ;
#169 = DIRECTION ( 'NONE',  ( 0.0000000000000000000, 0.0000000000000000000, 1.000000000000000000 ) ) ;
#170 = CARTESIAN_POINT ( 'NONE',  ( 2.410722122708761257E-16, 0.0000000000000000000, 1.968503999999999809 ) ) ;
#171 = VERTEX_POINT ( 'NONE', #209 ) ;
#172 = EDGE_LOOP ( 'NONE', ( #60, #158, #132, #22 ) ) ;
#173 = LINE ( 'NONE', #271, #41 ) ;
#174 = CARTESIAN_POINT ( 'NONE',  ( 0.0000000000000000000, 0.0000000000000000000, 3.937007999999999619 ) ) ;
#175 = AXIS2_PLACEMENT_3D ( 'NONE', #116, #180, #279 ) ;
#176 = PRODUCT_DEFINITION_CONTEXT ( 'detailed design', #221, 'design' ) ;
#177 = ADVANCED_FACE ( 'NONE', ( #229 ), #179, .T. ) ;
#178 = CARTESIAN_POINT ( 'NONE',  ( 0.0000000000000000000, 0.0000000000000000000, 3.922007999999999495 ) ) ;
#179 = CONICAL_SURFACE ( 'NONE', #125, 0.2212204999999994870, 0.7853981633974573828 ) ;
#180 = DIRECTION ( 'NONE',  ( 0.0000000000000000000, 0.0000000000000000000, -1.000000000000000000 ) ) ;
#181 = DIRECTION ( 'NONE',  ( -1.000000000000000000, 0.0000000000000000000, 1.224646799147353207E-16 ) ) ;
#182 = EDGE_CURVE ( 'NONE', #267, #171, #55, .T. ) ;
#183 = ORIENTED_EDGE ( 'NONE', *, *, #297, .F. ) ;
#184 = LINE ( 'NONE', #10, #32 ) ;
#185 = CIRCLE ( 'NONE', #175, 0.2362204999999999999 ) ;
#186 = AXIS2_PLACEMENT_3D ( 'NONE', #293, #3, #197 ) ;
#187 = EDGE_CURVE ( 'NONE', #245, #267, #124, .T. ) ;
#188 = CARTESIAN_POINT ( 'NONE',  ( 3.539197317345351204E-33, 0.0000000000000000000, 2.889973925387693713E-17 ) ) ;
#189 = DIRECTION ( 'NONE',  ( 0.0000000000000000000, 0.0000000000000000000, 1.000000000000000000 ) ) ;
#190 = FACE_OUTER_BOUND ( 'NONE', #44, .T. ) ;
#191 = AXIS2_PLACEMENT_3D ( 'NONE', #260, #189, #234 ) ;
#192 = EDGE_LOOP ( 'NONE', ( #156, #31 ) ) ;
#193 = ORIENTED_EDGE ( 'NONE', *, *, #111, .T. ) ;
#194 = UNCERTAINTY_MEASURE_WITH_UNIT (LENGTH_MEASURE( 1.000000000000000082E-05 ), #29, 'distance_accuracy_value', 'NONE');
#195 = CIRCLE ( 'NONE', #210, 0.2359842795000000049 ) ;
#196 = DIRECTION ( 'NONE',  ( -1.000000000000000000, 0.0000000000000000000, 0.0000000000000000000 ) ) ;
#197 = DIRECTION ( 'NONE',  ( 1.000000000000000000, 0.0000000000000000000, 0.0000000000000000000 ) ) ;
#198 = VECTOR ( 'NONE', #2, 39.37007874015748143 ) ;
#199 = EDGE_CURVE ( 'NONE', #171, #267, #219, .T. ) ;
#200 = CARTESIAN_POINT ( 'NONE',  ( -0.2362204999999999999, 0.0000000000000000000, 3.937007999999999619 ) ) ;
#201 = ORIENTED_EDGE ( 'NONE', *, *, #12, .T. ) ;
#202 = CARTESIAN_POINT ( 'NONE',  ( 0.2362204999999999999, 2.892866792179873879E-17, 3.922007999999999495 ) ) ;
#203 = STYLED_ITEM ( 'NONE', ( #105 ), #277 ) ;
#204 =( NAMED_UNIT ( * ) SI_UNIT ( $, .STERADIAN. ) SOLID_ANGLE_UNIT ( ) );
#205 = EDGE_CURVE ( 'NONE', #251, #112, #106, .T. ) ;
#206 = CARTESIAN_POINT ( 'NONE',  ( -0.2359842794999997828, 2.889973925387693713E-17, 1.968503999999999809 ) ) ;
#207 = EDGE_LOOP ( 'NONE', ( #46, #201 ) ) ;
#208 = SURFACE_SIDE_STYLE ('',( #163 ) ) ;
#209 = CARTESIAN_POINT ( 'NONE',  ( 0.2362205000000002775, 2.892866792179876961E-17, 1.969843673027070974 ) ) ;
#210 = AXIS2_PLACEMENT_3D ( 'NONE', #188, #235, #181 ) ;
#211 = DIRECTION ( 'NONE',  ( 0.1736481776669313859, 0.0000000000000000000, 0.9848077530122077983 ) ) ;
#212 = CIRCLE ( 'NONE', #278, 0.2212204999999994870 ) ;
#213 = PLANE ( 'NONE',  #138 ) ;
#214 = CARTESIAN_POINT ( 'NONE',  ( 2.412362748993267856E-16, 0.0000000000000000000, 1.969843673027070974 ) ) ;
#215 =( CONVERSION_BASED_UNIT ( 'INCH', #239 ) LENGTH_UNIT ( ) NAMED_UNIT ( #120 ) );
#216 = EDGE_LOOP ( 'NONE', ( #19, #34, #252, #143 ) ) ;
#217 = DIRECTION ( 'NONE',  ( 0.0000000000000000000, 0.0000000000000000000, -1.000000000000000000 ) ) ;
#218 = PRODUCT_DEFINITION ( 'UNKNOWN', '', #62, #176 ) ;
#219 = CIRCLE ( 'NONE', #90, 0.2362204999999999999 ) ;
#220 =( GEOMETRIC_REPRESENTATION_CONTEXT ( 3 ) GLOBAL_UNCERTAINTY_ASSIGNED_CONTEXT ( ( #194 ) ) GLOBAL_UNIT_ASSIGNED_CONTEXT ( ( #29, #84, #204 ) ) REPRESENTATION_CONTEXT ( 'NONE', 'WORKASPACE' ) );
#221 = APPLICATION_CONTEXT ( 'automotive_design' ) ;
#222 = CARTESIAN_POINT ( 'NONE',  ( 0.0000000000000000000, 0.0000000000000000000, 3.937007999999999619 ) ) ;
#223 = CARTESIAN_POINT ( 'NONE',  ( -0.2212204999999994870, 0.0000000000000000000, 3.937007999999999619 ) ) ;
#224 = CYLINDRICAL_SURFACE ( 'NONE', #102, 0.2359842795000000049 ) ;
#225 = AXIS2_PLACEMENT_3D ( 'NONE', #253, #145, #104 ) ;
#226 = SHAPE_DEFINITION_REPRESENTATION ( #265, #27 ) ;
#227 = DIRECTION ( 'NONE',  ( 1.000000000000000000, 0.0000000000000000000, 0.0000000000000000000 ) ) ;
#228 = MECHANICAL_DESIGN_GEOMETRIC_PRESENTATION_REPRESENTATION (  '', ( #1 ), #220 ) ;
#229 = FACE_OUTER_BOUND ( 'NONE', #266, .T. ) ;
#230 = FILL_AREA_STYLE_COLOUR ( '', #135 ) ;
#231 = ORIENTED_EDGE ( 'NONE', *, *, #151, .T. ) ;
#232 = FILL_AREA_STYLE_COLOUR ( '', #114 ) ;
#233 = DIRECTION ( 'NONE',  ( 0.0000000000000000000, 0.0000000000000000000, 1.000000000000000000 ) ) ;
#234 = DIRECTION ( 'NONE',  ( 1.000000000000000000, 0.0000000000000000000, 0.0000000000000000000 ) ) ;
#235 = DIRECTION ( 'NONE',  ( -1.224646799147353207E-16, -0.0000000000000000000, -1.000000000000000000 ) ) ;
#236 =( NAMED_UNIT ( * ) PLANE_ANGLE_UNIT ( ) SI_UNIT ( $, .RADIAN. ) );
#237 = DIRECTION ( 'NONE',  ( 1.000000000000000000, 0.0000000000000000000, -0.0000000000000000000 ) ) ;
#238 = LINE ( 'NONE', #164, #85 ) ;
#239 = LENGTH_MEASURE_WITH_UNIT ( LENGTH_MEASURE( 0.02539999999999999897 ), #127 );
#240 = ORIENTED_EDGE ( 'NONE', *, *, #249, .T. ) ;
#241 = ADVANCED_FACE ( 'NONE', ( #8 ), #94, .T. ) ;
#242 = DIRECTION ( 'NONE',  ( 1.000000000000000000, 0.0000000000000000000, 0.0000000000000000000 ) ) ;
#243 = VERTEX_POINT ( 'NONE', #71 ) ;
#244 = AXIS2_PLACEMENT_3D ( 'NONE', #170, #59, #242 ) ;
#245 = VERTEX_POINT ( 'NONE', #159 ) ;
#246 = ADVANCED_FACE ( 'NONE', ( #142 ), #257, .F. ) ;
#247 = CARTESIAN_POINT ( 'NONE',  ( 2.410722122708761257E-16, 0.0000000000000000000, 1.968503999999999809 ) ) ;
#248 = LENGTH_MEASURE_WITH_UNIT ( LENGTH_MEASURE( 0.02539999999999999897 ), #87 );
#249 = EDGE_CURVE ( 'NONE', #245, #289, #149, .T. ) ;
#250 = AXIS2_PLACEMENT_3D ( 'NONE', #174, #272, #65 ) ;
#251 = VERTEX_POINT ( 'NONE', #21 ) ;
#252 = ORIENTED_EDGE ( 'NONE', *, *, #182, .F. ) ;
#253 = CARTESIAN_POINT ( 'NONE',  ( 2.410722122708761257E-16, 0.0000000000000000000, 1.968503999999999809 ) ) ;
#254 = CARTESIAN_POINT ( 'NONE',  ( -0.2362204999999997779, 0.0000000000000000000, 1.969843673027070974 ) ) ;
#255 = DIMENSIONAL_EXPONENTS ( 1.000000000000000000, 0.0000000000000000000, 0.0000000000000000000, 0.0000000000000000000, 0.0000000000000000000, 0.0000000000000000000, 0.0000000000000000000 ) ;
#256 = AXIS2_PLACEMENT_3D ( 'NONE', #56, #233, #119 ) ;
#257 = PLANE ( 'NONE',  #256 ) ;
#258 = SURFACE_STYLE_USAGE ( .BOTH. , #96 ) ;
#259 = DIRECTION ( 'NONE',  ( -1.224646799147353207E-16, -0.0000000000000000000, -1.000000000000000000 ) ) ;
#260 = CARTESIAN_POINT ( 'NONE',  ( 0.0000000000000000000, 0.0000000000000000000, 3.937007999999999619 ) ) ;
#261 = DIRECTION ( 'NONE',  ( 0.0000000000000000000, 0.0000000000000000000, 1.000000000000000000 ) ) ;
#262 = AXIS2_PLACEMENT_3D ( 'NONE', #222, #217, #48 ) ;
#263 = CIRCLE ( 'NONE', #191, 0.2212204999999994870 ) ;
#264 = EDGE_CURVE ( 'NONE', #112, #171, #72, .T. ) ;
#265 = PRODUCT_DEFINITION_SHAPE ( 'NONE', 'NONE',  #218 ) ;
#266 = EDGE_LOOP ( 'NONE', ( #64, #183, #150, #290 ) ) ;
#267 = VERTEX_POINT ( 'NONE', #254 ) ;
#268 = ADVANCED_FACE ( 'NONE', ( #101 ), #213, .T. ) ;
#269 = ORIENTED_EDGE ( 'NONE', *, *, #187, .T. ) ;
#270 = VECTOR ( 'NONE', #144, 39.37007874015748143 ) ;
#271 = CARTESIAN_POINT ( 'NONE',  ( -0.2212204999999994870, 0.0000000000000000000, 3.937007999999999619 ) ) ;
#272 = DIRECTION ( 'NONE',  ( -0.0000000000000000000, -0.0000000000000000000, -1.000000000000000000 ) ) ;
#273 = ORIENTED_EDGE ( 'NONE', *, *, #275, .F. ) ;
#274 = AXIS2_PLACEMENT_3D ( 'NONE', #247, #43, #196 ) ;
#275 = EDGE_CURVE ( 'NONE', #251, #17, #212, .T. ) ;
#276 = DIRECTION ( 'NONE',  ( -0.0000000000000000000, -0.0000000000000000000, -1.000000000000000000 ) ) ;
#277 = MANIFOLD_SOLID_BREP ( 'Cut-Revolve1', #298 ) ;
#278 = AXIS2_PLACEMENT_3D ( 'NONE', #74, #169, #11 ) ;
#279 = DIRECTION ( 'NONE',  ( 1.000000000000000000, 0.0000000000000000000, 0.0000000000000000000 ) ) ;
#280 = ORIENTED_EDGE ( 'NONE', *, *, #128, .F. ) ;
#281 = DIRECTION ( 'NONE',  ( -1.000000000000000000, 0.0000000000000000000, 1.224646799147353207E-16 ) ) ;
#282 = DIRECTION ( 'NONE',  ( 1.000000000000000000, 0.0000000000000000000, 0.0000000000000000000 ) ) ;
#283 =( NAMED_UNIT ( * ) SI_UNIT ( $, .STERADIAN. ) SOLID_ANGLE_UNIT ( ) );
#284 =( GEOMETRIC_REPRESENTATION_CONTEXT ( 3 ) GLOBAL_UNCERTAINTY_ASSIGNED_CONTEXT ( ( #20 ) ) GLOBAL_UNIT_ASSIGNED_CONTEXT ( ( #165, #236, #283 ) ) REPRESENTATION_CONTEXT ( 'NONE', 'WORKASPACE' ) );
#285 = DIRECTION ( 'NONE',  ( -1.224646799147353207E-16, -0.0000000000000000000, -1.000000000000000000 ) ) ;
#286 = FACE_OUTER_BOUND ( 'NONE', #216, .T. ) ;
#287 = CARTESIAN_POINT ( 'NONE',  ( 0.2362204999999999999, 2.892866792179873879E-17, 3.937007999999999619 ) ) ;
#288 = ORIENTED_EDGE ( 'NONE', *, *, #52, .F. ) ;
#289 = VERTEX_POINT ( 'NONE', #99 ) ;
#290 = ORIENTED_EDGE ( 'NONE', *, *, #115, .F. ) ;
#291 = DIRECTION ( 'NONE',  ( -1.000000000000000000, 0.0000000000000000000, 0.0000000000000000000 ) ) ;
#292 = VERTEX_POINT ( 'NONE', #58 ) ;
#293 = CARTESIAN_POINT ( 'NONE',  ( 0.0000000000000000000, 0.0000000000000000000, 0.0000000000000000000 ) ) ;
#294 = CARTESIAN_POINT ( 'NONE',  ( 3.539197317345351204E-33, 0.0000000000000000000, 2.889973925387693713E-17 ) ) ;
#295 = VECTOR ( 'NONE', #126, 39.37007874015747433 ) ;
#296 = CYLINDRICAL_SURFACE ( 'NONE', #250, 0.2362204999999999999 ) ;
#297 = EDGE_CURVE ( 'NONE', #17, #251, #263, .T. ) ;
#298 = CLOSED_SHELL ( 'NONE', ( #241, #153, #25, #160, #103, #268, #177, #108, #33, #246 ) ) ;
#299 = ORIENTED_EDGE ( 'NONE', *, *, #81, .T. ) ;
ENDSEC;
END-ISO-10303-21;
