ISO-10303-21;
HEADER;
FILE_DESCRIPTION (( 'STEP AP214' ),
    '1' );
FILE_NAME ('59637.STEP',
    '2023-07-24T15:18:01',
    ( '' ),
    ( '' ),
    'SwSTEP 2.0',
    'SolidWorks 2023',
    '' );
FILE_SCHEMA (( 'AUTOMOTIVE_DESIGN' ));
ENDSEC;

DATA;
#1 = ORIENTED_EDGE ( 'NONE', *, *, #155, .T. ) ;
#2 = EDGE_CURVE ( 'NONE', #325, #27, #12, .T. ) ;
#3 = SURFACE_STYLE_USAGE ( .BOTH. , #113 ) ;
#4 = ORIENTED_EDGE ( 'NONE', *, *, #318, .F. ) ;
#5 = TOROIDAL_SURFACE ( 'NONE', #224, 3.000000000000000000, 1.000000000000000000 ) ;
#6 = EDGE_CURVE ( 'NONE', #83, #93, #322, .T. ) ;
#7 =( LENGTH_UNIT ( ) NAMED_UNIT ( * ) SI_UNIT ( .MILLI., .METRE. ) );
#8 = VERTEX_POINT ( 'NONE', #57 ) ;
#9 =( NAMED_UNIT ( * ) SI_UNIT ( $, .STERADIAN. ) SOLID_ANGLE_UNIT ( ) );
#10 = APPLICATION_PROTOCOL_DEFINITION ( 'draft international standard', 'automotive_design', 1998, #149 ) ;
#11 = CARTESIAN_POINT ( 'NONE',  ( 1.469576158976823750E-15, 63.00000000000000000, 0.000000000000000000 ) ) ;
#12 = CIRCLE ( 'NONE', #227, 3.999999999999993339 ) ;
#13 = CIRCLE ( 'NONE', #165, 1.000000000000000000 ) ;
#14 = SURFACE_STYLE_USAGE ( .BOTH. , #19 ) ;
#15 = PRESENTATION_LAYER_ASSIGNMENT (  '', '', ( #297 ) ) ;
#16 = UNCERTAINTY_MEASURE_WITH_UNIT (LENGTH_MEASURE( 1.000000000000000082E-05 ), #7, 'distance_accuracy_value', 'NONE');
#17 = CARTESIAN_POINT ( 'NONE',  ( 0.000000000000000000, 1.000000000000000000, -4.000000000000000000 ) ) ;
#18 = CARTESIAN_POINT ( 'NONE',  ( 3.999999999999998224, 63.00000000000000000, 4.898587196589408884E-16 ) ) ;
#19 = SURFACE_SIDE_STYLE ('',( #350 ) ) ;
#20 = LINE ( 'NONE', #18, #347 ) ;
#21 = STYLED_ITEM ( 'NONE', ( #218 ), #358 ) ;
#22 =( NAMED_UNIT ( * ) SI_UNIT ( $, .STERADIAN. ) SOLID_ANGLE_UNIT ( ) );
#23 = FILL_AREA_STYLE ('',( #25 ) ) ;
#24 = CARTESIAN_POINT ( 'NONE',  ( -3.999999999999994671, 63.00000000000000000, 0.000000000000000000 ) ) ;
#25 = FILL_AREA_STYLE_COLOUR ( '', #351 ) ;
#26 = STYLED_ITEM ( 'NONE', ( #245 ), #192 ) ;
#27 = VERTEX_POINT ( 'NONE', #183 ) ;
#28 = DIRECTION ( 'NONE',  ( -0.000000000000000000, -1.000000000000000000, -0.000000000000000000 ) ) ;
#29 = DIRECTION ( 'NONE',  ( 0.000000000000000000, 0.000000000000000000, -1.000000000000000000 ) ) ;
#30 = ORIENTED_EDGE ( 'NONE', *, *, #123, .F. ) ;
#31 = MECHANICAL_DESIGN_GEOMETRIC_PRESENTATION_REPRESENTATION (  '', ( #26 ), #114 ) ;
#32 = MECHANICAL_DESIGN_GEOMETRIC_PRESENTATION_REPRESENTATION (  '', ( #217 ), #340 ) ;
#33 = VERTEX_POINT ( 'NONE', #290 ) ;
#34 = CARTESIAN_POINT ( 'NONE',  ( 0.000000000000000000, 1.000000000000000000, 0.000000000000000000 ) ) ;
#35 = DIRECTION ( 'NONE',  ( -1.000000000000000000, 0.000000000000000000, 0.000000000000000000 ) ) ;
#36 = FILL_AREA_STYLE_COLOUR ( '', #274 ) ;
#37 = ORIENTED_EDGE ( 'NONE', *, *, #2, .F. ) ;
#38 = AXIS2_PLACEMENT_3D ( 'NONE', #247, #193, #277 ) ;
#39 = FILL_AREA_STYLE ('',( #299 ) ) ;
#40 = FACE_OUTER_BOUND ( 'NONE', #369, .T. ) ;
#41 = DIRECTION ( 'NONE',  ( -9.448620473410002383E-17, 1.000000000000000000, -0.000000000000000000 ) ) ;
#42 = PRESENTATION_LAYER_ASSIGNMENT (  '', '', ( #233 ) ) ;
#43 = DIRECTION ( 'NONE',  ( 1.000000000000000000, 0.000000000000000000, 0.000000000000000000 ) ) ;
#44 = SURFACE_STYLE_USAGE ( .BOTH. , #164 ) ;
#45 = EDGE_CURVE ( 'NONE', #136, #86, #258, .T. ) ;
#46 =( NAMED_UNIT ( * ) PLANE_ANGLE_UNIT ( ) SI_UNIT ( $, .RADIAN. ) );
#47 = AXIS2_PLACEMENT_3D ( 'NONE', #229, #137, #261 ) ;
#48 = PLANE ( 'NONE',  #157 ) ;
#49 = UNCERTAINTY_MEASURE_WITH_UNIT (LENGTH_MEASURE( 1.000000000000000082E-05 ), #159, 'distance_accuracy_value', 'NONE');
#50 = FILL_AREA_STYLE_COLOUR ( '', #367 ) ;
#51 = EDGE_CURVE ( 'NONE', #136, #83, #154, .T. ) ;
#52 = SURFACE_STYLE_FILL_AREA ( #339 ) ;
#53 = CIRCLE ( 'NONE', #313, 3.999999999999998224 ) ;
#54 = PRODUCT_RELATED_PRODUCT_CATEGORY ( 'part', '', ( #70 ) ) ;
#55 = DIRECTION ( 'NONE',  ( -0.000000000000000000, -1.000000000000000000, -0.000000000000000000 ) ) ;
#56 = SURFACE_STYLE_USAGE ( .BOTH. , #341 ) ;
#57 = CARTESIAN_POINT ( 'NONE',  ( 4.286263797015736595E-16, 0.000000000000000000, 3.000000000000000000 ) ) ;
#58 = PRESENTATION_STYLE_ASSIGNMENT (( #56 ) ) ;
#59 = EDGE_LOOP ( 'NONE', ( #242, #360, #270, #119 ) ) ;
#60 = AXIS2_PLACEMENT_3D ( 'NONE', #260, #201, #138 ) ;
#61 = AXIS2_PLACEMENT_3D ( 'NONE', #67, #184, #276 ) ;
#62 = FILL_AREA_STYLE ('',( #145 ) ) ;
#63 = EDGE_CURVE ( 'NONE', #27, #325, #252, .T. ) ;
#64 = ORIENTED_EDGE ( 'NONE', *, *, #123, .T. ) ;
#65 =( NAMED_UNIT ( * ) SI_UNIT ( $, .STERADIAN. ) SOLID_ANGLE_UNIT ( ) );
#66 = EDGE_LOOP ( 'NONE', ( #212, #1, #112, #239 ) ) ;
#67 = CARTESIAN_POINT ( 'NONE',  ( 0.000000000000000000, 0.000000000000000000, 0.000000000000000000 ) ) ;
#68 = VERTEX_POINT ( 'NONE', #348 ) ;
#69 = ADVANCED_BREP_SHAPE_REPRESENTATION ( '59637', ( #321, #192, #75 ), #278 ) ;
#70 = PRODUCT ( '59637', '59637', '', ( #332 ) ) ;
#71 =( NAMED_UNIT ( * ) SI_UNIT ( $, .STERADIAN. ) SOLID_ANGLE_UNIT ( ) );
#72 = EDGE_CURVE ( 'NONE', #93, #8, #296, .T. ) ;
#73 =( NAMED_UNIT ( * ) PLANE_ANGLE_UNIT ( ) SI_UNIT ( $, .RADIAN. ) );
#74 = CARTESIAN_POINT ( 'NONE',  ( 3.999999999999999112, 11.99999999999999645, 4.898587196589409870E-16 ) ) ;
#75 = AXIS2_PLACEMENT_3D ( 'NONE', #130, #328, #43 ) ;
#76 = FACE_OUTER_BOUND ( 'NONE', #66, .T. ) ;
#77 = CYLINDRICAL_SURFACE ( 'NONE', #253, 4.000000000000000000 ) ;
#78 = SURFACE_STYLE_USAGE ( .BOTH. , #200 ) ;
#79 = COLOUR_RGB ( '',1.000000000000000000, 0.000000000000000000, 0.000000000000000000 ) ;
#80 = PRESENTATION_LAYER_ASSIGNMENT (  '', '', ( #217 ) ) ;
#81 = FACE_OUTER_BOUND ( 'NONE', #59, .T. ) ;
#82 = SURFACE_SIDE_STYLE ('',( #109 ) ) ;
#83 = VERTEX_POINT ( 'NONE', #17 ) ;
#84 =( LENGTH_UNIT ( ) NAMED_UNIT ( * ) SI_UNIT ( .MILLI., .METRE. ) );
#85 =( NAMED_UNIT ( * ) PLANE_ANGLE_UNIT ( ) SI_UNIT ( $, .RADIAN. ) );
#86 = VERTEX_POINT ( 'NONE', #359 ) ;
#87 = LINE ( 'NONE', #143, #314 ) ;
#88 = ORIENTED_EDGE ( 'NONE', *, *, #51, .F. ) ;
#89 = UNCERTAINTY_MEASURE_WITH_UNIT (LENGTH_MEASURE( 1.000000000000000082E-05 ), #99, 'distance_accuracy_value', 'NONE');
#90 = ORIENTED_EDGE ( 'NONE', *, *, #271, .T. ) ;
#91 = MECHANICAL_DESIGN_GEOMETRIC_PRESENTATION_REPRESENTATION (  '', ( #233 ), #335 ) ;
#92 =( NAMED_UNIT ( * ) PLANE_ANGLE_UNIT ( ) SI_UNIT ( $, .RADIAN. ) );
#93 = VERTEX_POINT ( 'NONE', #222 ) ;
#94 = ADVANCED_FACE ( 'NONE', ( #127 ), #77, .T. ) ;
#95 = DIRECTION ( 'NONE',  ( -0.000000000000000000, -1.000000000000000000, -0.000000000000000000 ) ) ;
#96 = DIRECTION ( 'NONE',  ( -9.448620473410002383E-17, 1.000000000000000000, -0.000000000000000000 ) ) ;
#97 = PRESENTATION_LAYER_ASSIGNMENT (  '', '', ( #26 ) ) ;
#98 = AXIS2_PLACEMENT_3D ( 'NONE', #34, #176, #153 ) ;
#99 =( LENGTH_UNIT ( ) NAMED_UNIT ( * ) SI_UNIT ( .MILLI., .METRE. ) );
#100 = ADVANCED_FACE ( 'NONE', ( #76 ), #170, .T. ) ;
#101 =( NAMED_UNIT ( * ) SI_UNIT ( $, .STERADIAN. ) SOLID_ANGLE_UNIT ( ) );
#102 = PLANE ( 'NONE',  #103 ) ;
#103 = AXIS2_PLACEMENT_3D ( 'NONE', #190, #223, #132 ) ;
#104 = PRESENTATION_LAYER_ASSIGNMENT (  '', '', ( #21 ) ) ;
#105 = CYLINDRICAL_SURFACE ( 'NONE', #47, 3.999999999999996447 ) ;
#106 = APPLICATION_CONTEXT ( 'automotive_design' ) ;
#107 = DIRECTION ( 'NONE',  ( 0.000000000000000000, -1.000000000000000000, -0.000000000000000000 ) ) ;
#108 = CLOSED_SHELL ( 'NONE', ( #94, #214, #209, #307, #358, #211 ) ) ;
#109 = SURFACE_STYLE_FILL_AREA ( #198 ) ;
#110 = FILL_AREA_STYLE_COLOUR ( '', #323 ) ;
#111 = PRESENTATION_STYLE_ASSIGNMENT (( #311 ) ) ;
#112 = ORIENTED_EDGE ( 'NONE', *, *, #343, .F. ) ;
#113 = SURFACE_SIDE_STYLE ('',( #292 ) ) ;
#114 =( GEOMETRIC_REPRESENTATION_CONTEXT ( 3 ) GLOBAL_UNCERTAINTY_ASSIGNED_CONTEXT ( ( #89 ) ) GLOBAL_UNIT_ASSIGNED_CONTEXT ( ( #99, #168, #9 ) ) REPRESENTATION_CONTEXT ( 'NONE', 'WORKASPACE' ) );
#115 = COLOUR_RGB ( '',1.000000000000000000, 0.000000000000000000, 0.000000000000000000 ) ;
#116 = DIRECTION ( 'NONE',  ( -0.000000000000000000, -1.000000000000000000, -0.000000000000000000 ) ) ;
#117 = ORIENTED_EDGE ( 'NONE', *, *, #343, .T. ) ;
#118 = DIRECTION ( 'NONE',  ( -1.000000000000000000, 0.000000000000000000, 0.000000000000000000 ) ) ;
#119 = ORIENTED_EDGE ( 'NONE', *, *, #266, .F. ) ;
#120 = FACE_OUTER_BOUND ( 'NONE', #182, .T. ) ;
#121 = ORIENTED_EDGE ( 'NONE', *, *, #45, .T. ) ;
#122 = STYLED_ITEM ( 'NONE', ( #205 ), #214 ) ;
#123 = EDGE_CURVE ( 'NONE', #8, #93, #240, .T. ) ;
#124 = DIRECTION ( 'NONE',  ( -0.000000000000000000, -1.000000000000000000, -0.000000000000000000 ) ) ;
#125 = CARTESIAN_POINT ( 'NONE',  ( 6.288372600415924928E-15, 11.99999999999999645, 0.000000000000000000 ) ) ;
#126 = DIRECTION ( 'NONE',  ( -1.000000000000000000, 0.000000000000000000, 0.000000000000000000 ) ) ;
#127 = FACE_OUTER_BOUND ( 'NONE', #267, .T. ) ;
#128 =( GEOMETRIC_REPRESENTATION_CONTEXT ( 3 ) GLOBAL_UNCERTAINTY_ASSIGNED_CONTEXT ( ( #219 ) ) GLOBAL_UNIT_ASSIGNED_CONTEXT ( ( #243, #73, #131 ) ) REPRESENTATION_CONTEXT ( 'NONE', 'WORKASPACE' ) );
#129 = DIRECTION ( 'NONE',  ( -0.000000000000000000, -1.000000000000000000, -0.000000000000000000 ) ) ;
#130 = CARTESIAN_POINT ( 'NONE',  ( 0.000000000000000000, 0.000000000000000000, 0.000000000000000000 ) ) ;
#131 =( NAMED_UNIT ( * ) SI_UNIT ( $, .STERADIAN. ) SOLID_ANGLE_UNIT ( ) );
#132 = DIRECTION ( 'NONE',  ( -1.000000000000000000, -9.448620473410002383E-17, 0.000000000000000000 ) ) ;
#133 = MECHANICAL_DESIGN_GEOMETRIC_PRESENTATION_REPRESENTATION (  '', ( #122 ), #175 ) ;
#134 =( GEOMETRIC_REPRESENTATION_CONTEXT ( 3 ) GLOBAL_UNCERTAINTY_ASSIGNED_CONTEXT ( ( #248 ) ) GLOBAL_UNIT_ASSIGNED_CONTEXT ( ( #269, #46, #167 ) ) REPRESENTATION_CONTEXT ( 'NONE', 'WORKASPACE' ) );
#135 = PLANE ( 'NONE',  #60 ) ;
#136 = VERTEX_POINT ( 'NONE', #355 ) ;
#137 = DIRECTION ( 'NONE',  ( -9.448620473410002383E-17, 1.000000000000000000, -0.000000000000000000 ) ) ;
#138 = DIRECTION ( 'NONE',  ( 0.000000000000000000, -0.000000000000000000, 1.000000000000000000 ) ) ;
#139 = PRODUCT_DEFINITION_CONTEXT ( 'detailed design', #149, 'design' ) ;
#140 = TOROIDAL_SURFACE ( 'NONE', #98, 3.000000000000000000, 1.000000000000000000 ) ;
#141 = SURFACE_SIDE_STYLE ('',( #52 ) ) ;
#142 = EDGE_LOOP ( 'NONE', ( #202, #64 ) ) ;
#143 = CARTESIAN_POINT ( 'NONE',  ( 4.898587196589412829E-16, 0.000000000000000000, 4.000000000000000000 ) ) ;
#144 = DIRECTION ( 'NONE',  ( 0.000000000000000000, 0.000000000000000000, -1.000000000000000000 ) ) ;
#145 = FILL_AREA_STYLE_COLOUR ( '', #166 ) ;
#146 = AXIS2_PLACEMENT_3D ( 'NONE', #250, #306, #333 ) ;
#147 = PRODUCT_DEFINITION ( 'UNKNOWN', '', #148, #139 ) ;
#148 = PRODUCT_DEFINITION_FORMATION_WITH_SPECIFIED_SOURCE ( 'ANY', '', #70, .NOT_KNOWN. ) ;
#149 = APPLICATION_CONTEXT ( 'automotive_design' ) ;
#150 = ORIENTED_EDGE ( 'NONE', *, *, #45, .F. ) ;
#151 = CARTESIAN_POINT ( 'NONE',  ( 0.000000000000000000, 1.000000000000000000, 0.000000000000000000 ) ) ;
#152 = ORIENTED_EDGE ( 'NONE', *, *, #194, .F. ) ;
#153 = DIRECTION ( 'NONE',  ( 0.000000000000000000, 0.000000000000000000, -1.000000000000000000 ) ) ;
#154 = LINE ( 'NONE', #235, #156 ) ;
#155 = EDGE_CURVE ( 'NONE', #325, #213, #20, .T. ) ;
#156 = VECTOR ( 'NONE', #116, 1000.000000000000000 ) ;
#157 = AXIS2_PLACEMENT_3D ( 'NONE', #284, #107, #334 ) ;
#158 = CARTESIAN_POINT ( 'NONE',  ( 0.000000000000000000, 0.000000000000000000, 0.000000000000000000 ) ) ;
#159 =( LENGTH_UNIT ( ) NAMED_UNIT ( * ) SI_UNIT ( .MILLI., .METRE. ) );
#160 =( LENGTH_UNIT ( ) NAMED_UNIT ( * ) SI_UNIT ( .MILLI., .METRE. ) );
#161 = SURFACE_STYLE_USAGE ( .BOTH. , #298 ) ;
#162 =( NAMED_UNIT ( * ) PLANE_ANGLE_UNIT ( ) SI_UNIT ( $, .RADIAN. ) );
#163 = UNCERTAINTY_MEASURE_WITH_UNIT (LENGTH_MEASURE( 1.000000000000000082E-05 ), #173, 'distance_accuracy_value', 'NONE');
#164 = SURFACE_SIDE_STYLE ('',( #330 ) ) ;
#165 = AXIS2_PLACEMENT_3D ( 'NONE', #195, #226, #310 ) ;
#166 = COLOUR_RGB ( '',0.7921568627450980005, 0.8196078431372548767, 0.9333333333333333481 ) ;
#167 =( NAMED_UNIT ( * ) SI_UNIT ( $, .STERADIAN. ) SOLID_ANGLE_UNIT ( ) );
#168 =( NAMED_UNIT ( * ) PLANE_ANGLE_UNIT ( ) SI_UNIT ( $, .RADIAN. ) );
#169 = DIRECTION ( 'NONE',  ( -9.448620473410002383E-17, 1.000000000000000000, -0.000000000000000000 ) ) ;
#170 = CYLINDRICAL_SURFACE ( 'NONE', #363, 3.999999999999996447 ) ;
#171 =( NAMED_UNIT ( * ) PLANE_ANGLE_UNIT ( ) SI_UNIT ( $, .RADIAN. ) );
#172 = VECTOR ( 'NONE', #255, 1000.000000000000000 ) ;
#173 =( LENGTH_UNIT ( ) NAMED_UNIT ( * ) SI_UNIT ( .MILLI., .METRE. ) );
#174 = SURFACE_STYLE_FILL_AREA ( #23 ) ;
#175 =( GEOMETRIC_REPRESENTATION_CONTEXT ( 3 ) GLOBAL_UNCERTAINTY_ASSIGNED_CONTEXT ( ( #16 ) ) GLOBAL_UNIT_ASSIGNED_CONTEXT ( ( #7, #92, #319 ) ) REPRESENTATION_CONTEXT ( 'NONE', 'WORKASPACE' ) );
#176 = DIRECTION ( 'NONE',  ( -0.000000000000000000, -1.000000000000000000, -0.000000000000000000 ) ) ;
#177 = ORIENTED_EDGE ( 'NONE', *, *, #6, .T. ) ;
#178 = AXIS2_PLACEMENT_3D ( 'NONE', #158, #28, #263 ) ;
#179 = ORIENTED_EDGE ( 'NONE', *, *, #51, .T. ) ;
#180 = DIRECTION ( 'NONE',  ( 0.000000000000000000, 0.000000000000000000, -1.000000000000000000 ) ) ;
#181 = ADVANCED_FACE ( 'NONE', ( #353 ), #102, .F. ) ;
#182 = EDGE_LOOP ( 'NONE', ( #366, #90, #177, #30 ) ) ;
#183 = CARTESIAN_POINT ( 'NONE',  ( -3.999999999999987121, 11.99999999999999645, 0.000000000000000000 ) ) ;
#184 = DIRECTION ( 'NONE',  ( -0.000000000000000000, -1.000000000000000000, -0.000000000000000000 ) ) ;
#185 = STYLED_ITEM ( 'NONE', ( #220 ), #94 ) ;
#186 = CARTESIAN_POINT ( 'NONE',  ( 6.288372600415924928E-15, 11.99999999999999645, 0.000000000000000000 ) ) ;
#187 = AXIS2_PLACEMENT_3D ( 'NONE', #354, #169, #126 ) ;
#188 = APPLICATION_PROTOCOL_DEFINITION ( 'draft international standard', 'automotive_design', 1998, #106 ) ;
#189 = DIRECTION ( 'NONE',  ( -0.000000000000000000, -1.000000000000000000, -0.000000000000000000 ) ) ;
#190 = CARTESIAN_POINT ( 'NONE',  ( 6.288372600415925717E-15, 12.00000000000000000, 0.000000000000000000 ) ) ;
#191 = MECHANICAL_DESIGN_GEOMETRIC_PRESENTATION_REPRESENTATION (  '', ( #21 ), #336 ) ;
#192 = MANIFOLD_SOLID_BREP ( 'Revolve - Tool Body (Straight Shanked)', #203 ) ;
#193 = DIRECTION ( 'NONE',  ( 9.448620473410002383E-17, -1.000000000000000000, 0.000000000000000000 ) ) ;
#194 = EDGE_CURVE ( 'NONE', #86, #136, #210, .T. ) ;
#195 = CARTESIAN_POINT ( 'NONE',  ( 3.673940397442059868E-16, 1.000000000000000000, 3.000000000000000000 ) ) ;
#196 = MECHANICAL_DESIGN_GEOMETRIC_PRESENTATION_REPRESENTATION (  '', ( #303 ), #357 ) ;
#197 = ADVANCED_FACE ( 'NONE', ( #81 ), #105, .T. ) ;
#198 = FILL_AREA_STYLE ('',( #50 ) ) ;
#199 = EDGE_CURVE ( 'NONE', #68, #8, #13, .T. ) ;
#200 = SURFACE_SIDE_STYLE ('',( #174 ) ) ;
#201 = DIRECTION ( 'NONE',  ( 0.000000000000000000, 1.000000000000000000, 0.000000000000000000 ) ) ;
#202 = ORIENTED_EDGE ( 'NONE', *, *, #72, .T. ) ;
#203 = CLOSED_SHELL ( 'NONE', ( #100, #181, #197, #338 ) ) ;
#204 = EDGE_CURVE ( 'NONE', #27, #33, #365, .T. ) ;
#205 = PRESENTATION_STYLE_ASSIGNMENT (( #234 ) ) ;
#206 = ORIENTED_EDGE ( 'NONE', *, *, #194, .T. ) ;
#207 = CARTESIAN_POINT ( 'NONE',  ( 0.000000000000000000, 1.000000000000000000, -3.000000000000000000 ) ) ;
#208 = AXIS2_PLACEMENT_3D ( 'NONE', #207, #320, #345 ) ;
#209 = ADVANCED_FACE ( 'NONE', ( #282 ), #48, .T. ) ;
#210 = CIRCLE ( 'NONE', #259, 4.000000000000000000 ) ;
#211 = ADVANCED_FACE ( 'NONE', ( #287 ), #135, .T. ) ;
#212 = ORIENTED_EDGE ( 'NONE', *, *, #63, .T. ) ;
#213 = VERTEX_POINT ( 'NONE', #257 ) ;
#214 = ADVANCED_FACE ( 'NONE', ( #362 ), #5, .T. ) ;
#215 = AXIS2_PLACEMENT_3D ( 'NONE', #186, #342, #241 ) ;
#216 = CARTESIAN_POINT ( 'NONE',  ( 0.000000000000000000, 12.00000000000000000, 0.000000000000000000 ) ) ;
#217 = STYLED_ITEM ( 'NONE', ( #58 ), #307 ) ;
#218 = PRESENTATION_STYLE_ASSIGNMENT (( #14 ) ) ;
#219 = UNCERTAINTY_MEASURE_WITH_UNIT (LENGTH_MEASURE( 1.000000000000000082E-05 ), #243, 'distance_accuracy_value', 'NONE');
#220 = PRESENTATION_STYLE_ASSIGNMENT (( #44 ) ) ;
#221 = SHAPE_DEFINITION_REPRESENTATION ( #331, #69 ) ;
#222 = CARTESIAN_POINT ( 'NONE',  ( 0.000000000000000000, 0.000000000000000000, -3.000000000000000000 ) ) ;
#223 = DIRECTION ( 'NONE',  ( -9.448620473410002383E-17, 1.000000000000000000, 0.000000000000000000 ) ) ;
#224 = AXIS2_PLACEMENT_3D ( 'NONE', #151, #124, #180 ) ;
#225 = CARTESIAN_POINT ( 'NONE',  ( 0.000000000000000000, 0.000000000000000000, 0.000000000000000000 ) ) ;
#226 = DIRECTION ( 'NONE',  ( 1.000000000000000000, 0.000000000000000000, -1.224646799147353207E-16 ) ) ;
#227 = AXIS2_PLACEMENT_3D ( 'NONE', #125, #349, #35 ) ;
#228 = PRESENTATION_STYLE_ASSIGNMENT (( #78 ) ) ;
#229 = CARTESIAN_POINT ( 'NONE',  ( 1.469576158976823750E-15, 63.00000000000000000, 0.000000000000000000 ) ) ;
#230 = EDGE_LOOP ( 'NONE', ( #327, #206, #179, #237 ) ) ;
#231 = EDGE_LOOP ( 'NONE', ( #293, #37 ) ) ;
#232 = UNCERTAINTY_MEASURE_WITH_UNIT (LENGTH_MEASURE( 1.000000000000000082E-05 ), #84, 'distance_accuracy_value', 'NONE');
#233 = STYLED_ITEM ( 'NONE', ( #111 ), #209 ) ;
#234 = SURFACE_STYLE_USAGE ( .BOTH. , #141 ) ;
#235 = CARTESIAN_POINT ( 'NONE',  ( 0.000000000000000000, 0.000000000000000000, -4.000000000000000000 ) ) ;
#236 = PRESENTATION_STYLE_ASSIGNMENT (( #3 ) ) ;
#237 = ORIENTED_EDGE ( 'NONE', *, *, #271, .F. ) ;
#238 = DIRECTION ( 'NONE',  ( -0.000000000000000000, -1.000000000000000000, -0.000000000000000000 ) ) ;
#239 = ORIENTED_EDGE ( 'NONE', *, *, #204, .F. ) ;
#240 = CIRCLE ( 'NONE', #146, 3.000000000000000000 ) ;
#241 = DIRECTION ( 'NONE',  ( -1.000000000000000000, 0.000000000000000000, 0.000000000000000000 ) ) ;
#242 = ORIENTED_EDGE ( 'NONE', *, *, #155, .F. ) ;
#243 =( LENGTH_UNIT ( ) NAMED_UNIT ( * ) SI_UNIT ( .MILLI., .METRE. ) );
#244 = FILL_AREA_STYLE ('',( #352 ) ) ;
#245 = PRESENTATION_STYLE_ASSIGNMENT (( #161 ) ) ;
#246 = CIRCLE ( 'NONE', #265, 4.000000000000000000 ) ;
#247 = CARTESIAN_POINT ( 'NONE',  ( 4.000000000000000000, 63.00000000000000000, 0.000000000000000000 ) ) ;
#248 = UNCERTAINTY_MEASURE_WITH_UNIT (LENGTH_MEASURE( 1.000000000000000082E-05 ), #269, 'distance_accuracy_value', 'NONE');
#249 = DIRECTION ( 'NONE',  ( -1.000000000000000000, 0.000000000000000000, 0.000000000000000000 ) ) ;
#250 = CARTESIAN_POINT ( 'NONE',  ( 0.000000000000000000, 0.000000000000000000, 0.000000000000000000 ) ) ;
#251 = SURFACE_STYLE_FILL_AREA ( #304 ) ;
#252 = CIRCLE ( 'NONE', #215, 3.999999999999993339 ) ;
#253 = AXIS2_PLACEMENT_3D ( 'NONE', #225, #129, #279 ) ;
#254 = CIRCLE ( 'NONE', #187, 3.999999999999998224 ) ;
#255 = DIRECTION ( 'NONE',  ( -9.448620473410002383E-17, 1.000000000000000000, -0.000000000000000000 ) ) ;
#256 = EDGE_LOOP ( 'NONE', ( #150, #152 ) ) ;
#257 = CARTESIAN_POINT ( 'NONE',  ( 4.000000000000000000, 63.00000000000000000, 4.898587196589409870E-16 ) ) ;
#258 = CIRCLE ( 'NONE', #312, 4.000000000000000000 ) ;
#259 = AXIS2_PLACEMENT_3D ( 'NONE', #216, #189, #301 ) ;
#260 = CARTESIAN_POINT ( 'NONE',  ( 0.000000000000000000, 12.00000000000000000, 0.000000000000000000 ) ) ;
#261 = DIRECTION ( 'NONE',  ( -1.000000000000000000, 0.000000000000000000, 0.000000000000000000 ) ) ;
#262 = ORIENTED_EDGE ( 'NONE', *, *, #199, .T. ) ;
#263 = DIRECTION ( 'NONE',  ( 0.000000000000000000, 0.000000000000000000, -1.000000000000000000 ) ) ;
#264 = PRESENTATION_LAYER_ASSIGNMENT (  '', '', ( #303 ) ) ;
#265 = AXIS2_PLACEMENT_3D ( 'NONE', #289, #344, #315 ) ;
#266 = EDGE_CURVE ( 'NONE', #213, #33, #53, .T. ) ;
#267 = EDGE_LOOP ( 'NONE', ( #121, #295, #4, #88 ) ) ;
#268 = ORIENTED_EDGE ( 'NONE', *, *, #266, .T. ) ;
#269 =( LENGTH_UNIT ( ) NAMED_UNIT ( * ) SI_UNIT ( .MILLI., .METRE. ) );
#270 = ORIENTED_EDGE ( 'NONE', *, *, #204, .T. ) ;
#271 = EDGE_CURVE ( 'NONE', #68, #83, #246, .T. ) ;
#272 = PRESENTATION_LAYER_ASSIGNMENT (  '', '', ( #185 ) ) ;
#273 = FILL_AREA_STYLE ('',( #36 ) ) ;
#274 = COLOUR_RGB ( '',1.000000000000000000, 0.000000000000000000, 0.000000000000000000 ) ;
#275 = ORIENTED_EDGE ( 'NONE', *, *, #72, .F. ) ;
#276 = DIRECTION ( 'NONE',  ( 0.000000000000000000, 0.000000000000000000, -1.000000000000000000 ) ) ;
#277 = DIRECTION ( 'NONE',  ( 1.000000000000000000, 9.448620473410002383E-17, 0.000000000000000000 ) ) ;
#278 =( GEOMETRIC_REPRESENTATION_CONTEXT ( 3 ) GLOBAL_UNCERTAINTY_ASSIGNED_CONTEXT ( ( #49 ) ) GLOBAL_UNIT_ASSIGNED_CONTEXT ( ( #159, #162, #101 ) ) REPRESENTATION_CONTEXT ( 'NONE', 'WORKASPACE' ) );
#279 = DIRECTION ( 'NONE',  ( 0.000000000000000000, 0.000000000000000000, -1.000000000000000000 ) ) ;
#280 = FACE_OUTER_BOUND ( 'NONE', #230, .T. ) ;
#281 = EDGE_CURVE ( 'NONE', #86, #68, #87, .T. ) ;
#282 = FACE_OUTER_BOUND ( 'NONE', #142, .T. ) ;
#283 = CIRCLE ( 'NONE', #329, 4.000000000000000000 ) ;
#284 = CARTESIAN_POINT ( 'NONE',  ( 0.000000000000000000, 0.000000000000000000, 0.000000000000000000 ) ) ;
#285 = CARTESIAN_POINT ( 'NONE',  ( 1.469576158976823750E-15, 63.00000000000000000, 0.000000000000000000 ) ) ;
#286 = PRESENTATION_LAYER_ASSIGNMENT (  '', '', ( #122 ) ) ;
#287 = FACE_OUTER_BOUND ( 'NONE', #256, .T. ) ;
#288 = PLANE ( 'NONE',  #38 ) ;
#289 = CARTESIAN_POINT ( 'NONE',  ( 0.000000000000000000, 1.000000000000000000, 0.000000000000000000 ) ) ;
#290 = CARTESIAN_POINT ( 'NONE',  ( -3.999999999999996447, 63.00000000000000000, 0.000000000000000000 ) ) ;
#291 = MECHANICAL_DESIGN_GEOMETRIC_PRESENTATION_REPRESENTATION (  '', ( #185 ), #128 ) ;
#292 = SURFACE_STYLE_FILL_AREA ( #62 ) ;
#293 = ORIENTED_EDGE ( 'NONE', *, *, #63, .F. ) ;
#294 = EDGE_LOOP ( 'NONE', ( #324, #262, #275, #317 ) ) ;
#295 = ORIENTED_EDGE ( 'NONE', *, *, #281, .T. ) ;
#296 = CIRCLE ( 'NONE', #178, 3.000000000000000000 ) ;
#297 = STYLED_ITEM ( 'NONE', ( #236 ), #321 ) ;
#298 = SURFACE_SIDE_STYLE ('',( #251 ) ) ;
#299 = FILL_AREA_STYLE_COLOUR ( '', #79 ) ;
#300 = UNCERTAINTY_MEASURE_WITH_UNIT (LENGTH_MEASURE( 1.000000000000000082E-05 ), #308, 'distance_accuracy_value', 'NONE');
#301 = DIRECTION ( 'NONE',  ( 0.000000000000000000, 0.000000000000000000, -1.000000000000000000 ) ) ;
#302 =( NAMED_UNIT ( * ) PLANE_ANGLE_UNIT ( ) SI_UNIT ( $, .RADIAN. ) );
#303 = STYLED_ITEM ( 'NONE', ( #228 ), #211 ) ;
#304 = FILL_AREA_STYLE ('',( #356 ) ) ;
#305 = MECHANICAL_DESIGN_GEOMETRIC_PRESENTATION_REPRESENTATION (  '', ( #297 ), #134 ) ;
#306 = DIRECTION ( 'NONE',  ( -0.000000000000000000, -1.000000000000000000, -0.000000000000000000 ) ) ;
#307 = ADVANCED_FACE ( 'NONE', ( #120 ), #140, .T. ) ;
#308 =( LENGTH_UNIT ( ) NAMED_UNIT ( * ) SI_UNIT ( .MILLI., .METRE. ) );
#309 = COLOUR_RGB ( '',0.7921568627450980005, 0.8196078431372548767, 0.9333333333333333481 ) ;
#310 = DIRECTION ( 'NONE',  ( -1.224646799147352961E-16, 0.000000000000000000, -1.000000000000000000 ) ) ;
#311 = SURFACE_STYLE_USAGE ( .BOTH. , #82 ) ;
#312 = AXIS2_PLACEMENT_3D ( 'NONE', #346, #95, #144 ) ;
#313 = AXIS2_PLACEMENT_3D ( 'NONE', #285, #368, #118 ) ;
#314 = VECTOR ( 'NONE', #238, 1000.000000000000000 ) ;
#315 = DIRECTION ( 'NONE',  ( 0.000000000000000000, 0.000000000000000000, -1.000000000000000000 ) ) ;
#316 = CARTESIAN_POINT ( 'NONE',  ( 0.000000000000000000, 1.000000000000000000, 0.000000000000000000 ) ) ;
#317 = ORIENTED_EDGE ( 'NONE', *, *, #6, .F. ) ;
#318 = EDGE_CURVE ( 'NONE', #83, #68, #283, .T. ) ;
#319 =( NAMED_UNIT ( * ) SI_UNIT ( $, .STERADIAN. ) SOLID_ANGLE_UNIT ( ) );
#320 = DIRECTION ( 'NONE',  ( -1.000000000000000000, 0.000000000000000000, 0.000000000000000000 ) ) ;
#321 = MANIFOLD_SOLID_BREP ( 'Revolve - Cutting Edge', #108 ) ;
#322 = CIRCLE ( 'NONE', #208, 1.000000000000000000 ) ;
#323 = COLOUR_RGB ( '',1.000000000000000000, 0.000000000000000000, 0.000000000000000000 ) ;
#324 = ORIENTED_EDGE ( 'NONE', *, *, #318, .T. ) ;
#325 = VERTEX_POINT ( 'NONE', #74 ) ;
#326 = CYLINDRICAL_SURFACE ( 'NONE', #61, 4.000000000000000000 ) ;
#327 = ORIENTED_EDGE ( 'NONE', *, *, #281, .F. ) ;
#328 = DIRECTION ( 'NONE',  ( 0.000000000000000000, 0.000000000000000000, 1.000000000000000000 ) ) ;
#329 = AXIS2_PLACEMENT_3D ( 'NONE', #316, #55, #29 ) ;
#330 = SURFACE_STYLE_FILL_AREA ( #39 ) ;
#331 = PRODUCT_DEFINITION_SHAPE ( 'NONE', 'NONE',  #147 ) ;
#332 = PRODUCT_CONTEXT ( 'NONE', #106, 'mechanical' ) ;
#333 = DIRECTION ( 'NONE',  ( 0.000000000000000000, 0.000000000000000000, -1.000000000000000000 ) ) ;
#334 = DIRECTION ( 'NONE',  ( 0.000000000000000000, 0.000000000000000000, -1.000000000000000000 ) ) ;
#335 =( GEOMETRIC_REPRESENTATION_CONTEXT ( 3 ) GLOBAL_UNCERTAINTY_ASSIGNED_CONTEXT ( ( #300 ) ) GLOBAL_UNIT_ASSIGNED_CONTEXT ( ( #308, #364, #22 ) ) REPRESENTATION_CONTEXT ( 'NONE', 'WORKASPACE' ) );
#336 =( GEOMETRIC_REPRESENTATION_CONTEXT ( 3 ) GLOBAL_UNCERTAINTY_ASSIGNED_CONTEXT ( ( #337 ) ) GLOBAL_UNIT_ASSIGNED_CONTEXT ( ( #160, #302, #71 ) ) REPRESENTATION_CONTEXT ( 'NONE', 'WORKASPACE' ) );
#337 = UNCERTAINTY_MEASURE_WITH_UNIT (LENGTH_MEASURE( 1.000000000000000082E-05 ), #160, 'distance_accuracy_value', 'NONE');
#338 = ADVANCED_FACE ( 'NONE', ( #40 ), #288, .F. ) ;
#339 = FILL_AREA_STYLE ('',( #110 ) ) ;
#340 =( GEOMETRIC_REPRESENTATION_CONTEXT ( 3 ) GLOBAL_UNCERTAINTY_ASSIGNED_CONTEXT ( ( #232 ) ) GLOBAL_UNIT_ASSIGNED_CONTEXT ( ( #84, #85, #65 ) ) REPRESENTATION_CONTEXT ( 'NONE', 'WORKASPACE' ) );
#341 = SURFACE_SIDE_STYLE ('',( #370 ) ) ;
#342 = DIRECTION ( 'NONE',  ( -9.448620473410002383E-17, 1.000000000000000000, -0.000000000000000000 ) ) ;
#343 = EDGE_CURVE ( 'NONE', #33, #213, #254, .T. ) ;
#344 = DIRECTION ( 'NONE',  ( -0.000000000000000000, -1.000000000000000000, -0.000000000000000000 ) ) ;
#345 = DIRECTION ( 'NONE',  ( 0.000000000000000000, 0.000000000000000000, 1.000000000000000000 ) ) ;
#346 = CARTESIAN_POINT ( 'NONE',  ( 0.000000000000000000, 12.00000000000000000, 0.000000000000000000 ) ) ;
#347 = VECTOR ( 'NONE', #41, 1000.000000000000000 ) ;
#348 = CARTESIAN_POINT ( 'NONE',  ( 4.898587196589412829E-16, 1.000000000000000000, 4.000000000000000000 ) ) ;
#349 = DIRECTION ( 'NONE',  ( -9.448620473410002383E-17, 1.000000000000000000, -0.000000000000000000 ) ) ;
#350 = SURFACE_STYLE_FILL_AREA ( #244 ) ;
#351 = COLOUR_RGB ( '',1.000000000000000000, 0.000000000000000000, 0.000000000000000000 ) ;
#352 = FILL_AREA_STYLE_COLOUR ( '', #115 ) ;
#353 = FACE_OUTER_BOUND ( 'NONE', #231, .T. ) ;
#354 = CARTESIAN_POINT ( 'NONE',  ( 1.469576158976823750E-15, 63.00000000000000000, 0.000000000000000000 ) ) ;
#355 = CARTESIAN_POINT ( 'NONE',  ( 0.000000000000000000, 12.00000000000000000, -4.000000000000000000 ) ) ;
#356 = FILL_AREA_STYLE_COLOUR ( '', #309 ) ;
#357 =( GEOMETRIC_REPRESENTATION_CONTEXT ( 3 ) GLOBAL_UNCERTAINTY_ASSIGNED_CONTEXT ( ( #163 ) ) GLOBAL_UNIT_ASSIGNED_CONTEXT ( ( #173, #171, #361 ) ) REPRESENTATION_CONTEXT ( 'NONE', 'WORKASPACE' ) );
#358 = ADVANCED_FACE ( 'NONE', ( #280 ), #326, .T. ) ;
#359 = CARTESIAN_POINT ( 'NONE',  ( 4.898587196589412829E-16, 12.00000000000000000, 4.000000000000000000 ) ) ;
#360 = ORIENTED_EDGE ( 'NONE', *, *, #2, .T. ) ;
#361 =( NAMED_UNIT ( * ) SI_UNIT ( $, .STERADIAN. ) SOLID_ANGLE_UNIT ( ) );
#362 = FACE_OUTER_BOUND ( 'NONE', #294, .T. ) ;
#363 = AXIS2_PLACEMENT_3D ( 'NONE', #11, #96, #249 ) ;
#364 =( NAMED_UNIT ( * ) PLANE_ANGLE_UNIT ( ) SI_UNIT ( $, .RADIAN. ) );
#365 = LINE ( 'NONE', #24, #172 ) ;
#366 = ORIENTED_EDGE ( 'NONE', *, *, #199, .F. ) ;
#367 = COLOUR_RGB ( '',1.000000000000000000, 0.000000000000000000, 0.000000000000000000 ) ;
#368 = DIRECTION ( 'NONE',  ( -9.448620473410002383E-17, 1.000000000000000000, -0.000000000000000000 ) ) ;
#369 = EDGE_LOOP ( 'NONE', ( #117, #268 ) ) ;
#370 = SURFACE_STYLE_FILL_AREA ( #273 ) ;
ENDSEC;
END-ISO-10303-21;
