ISO-10303-21;
HEADER;
FILE_DESCRIPTION (( 'STEP AP214' ),
    '1' );
FILE_NAME ('Micro_BEM-078-03X.STEP',
    '2021-09-03T12:59:40',
    ( '' ),
    ( '' ),
    'SwSTEP 2.0',
    'SolidWorks 2020',
    '' );
FILE_SCHEMA (( 'AUTOMOTIVE_DESIGN' ));
ENDSEC;

DATA;
#1 = LENGTH_MEASURE_WITH_UNIT ( LENGTH_MEASURE( 0.02539999999999999897 ), #94 );
#2 = DIRECTION ( 'NONE',  ( -1.224646799147353700E-16, -0.0000000000000000000, -1.000000000000000000 ) ) ;
#3 = ORIENTED_EDGE ( 'NONE', *, *, #103, .F. ) ;
#4 = SHAPE_DEFINITION_REPRESENTATION ( #119, #45 ) ;
#5 = CONICAL_SURFACE ( 'NONE', #64, 0.04750000000000064587, 0.7853981633974466137 ) ;
#6 = FACE_OUTER_BOUND ( 'NONE', #276, .T. ) ;
#7 = EDGE_CURVE ( 'NONE', #149, #298, #239, .T. ) ;
#8 = CIRCLE ( 'NONE', #24, 0.03901095000000000257 ) ;
#9 = VERTEX_POINT ( 'NONE', #268 ) ;
#10 = FACE_OUTER_BOUND ( 'NONE', #264, .T. ) ;
#11 = DIRECTION ( 'NONE',  ( 0.0000000000000000000, 0.0000000000000000000, 1.000000000000000000 ) ) ;
#12 = DIRECTION ( 'NONE',  ( -1.000000000000000000, 0.0000000000000000000, 0.0000000000000000000 ) ) ;
#13 = CARTESIAN_POINT ( 'NONE',  ( 2.302335982397025094E-17, 0.0000000000000000000, 0.1880000000000000282 ) ) ;
#14 = EDGE_CURVE ( 'NONE', #22, #275, #29, .T. ) ;
#15 = ORIENTED_EDGE ( 'NONE', *, *, #241, .F. ) ;
#16 = DIRECTION ( 'NONE',  ( 1.224646799147353700E-16, 0.0000000000000000000, 1.000000000000000000 ) ) ;
#17 = CARTESIAN_POINT ( 'NONE',  ( -0.03901094999999998175, 4.777463504919744426E-18, 0.1880000000000000282 ) ) ;
#18 = DIRECTION ( 'NONE',  ( 1.000000000000000000, 0.0000000000000000000, 0.0000000000000000000 ) ) ;
#19 = SURFACE_SIDE_STYLE ('',( #76 ) ) ;
#20 = CIRCLE ( 'NONE', #57, 0.03901095000000000257 ) ;
#21 = DIRECTION ( 'NONE',  ( -0.0000000000000000000, -0.0000000000000000000, -1.000000000000000000 ) ) ;
#22 = VERTEX_POINT ( 'NONE', #219 ) ;
#23 = EDGE_CURVE ( 'NONE', #120, #298, #192, .T. ) ;
#24 = AXIS2_PLACEMENT_3D ( 'NONE', #47, #254, #181 ) ;
#25 = EDGE_CURVE ( 'NONE', #120, #9, #278, .T. ) ;
#26 = CONICAL_SURFACE ( 'NONE', #163, 0.04750000000000064587, 0.7853981633974466137 ) ;
#27 = CARTESIAN_POINT ( 'NONE',  ( 0.03901095000000003032, 0.0000000000000000000, 0.1880000000000000282 ) ) ;
#28 = EDGE_CURVE ( 'NONE', #149, #168, #258, .T. ) ;
#29 = CIRCLE ( 'NONE', #169, 0.04750000000000064587 ) ;
#30 = STYLED_ITEM ( 'NONE', ( #34 ), #80 ) ;
#31 = CARTESIAN_POINT ( 'NONE',  ( 4.777463504919746737E-18, 0.0000000000000000000, 0.03901095000000000257 ) ) ;
#32 = CARTESIAN_POINT ( 'NONE',  ( 0.03901095000000003032, 0.0000000000000000000, 0.1880000000000000282 ) ) ;
#33 = DIRECTION ( 'NONE',  ( 1.000000000000000000, 0.0000000000000000000, 0.0000000000000000000 ) ) ;
#34 = PRESENTATION_STYLE_ASSIGNMENT (( #117 ) ) ;
#35 = MECHANICAL_DESIGN_GEOMETRIC_PRESENTATION_REPRESENTATION (  '', ( #30 ), #226 ) ;
#36 = ORIENTED_EDGE ( 'NONE', *, *, #241, .T. ) ;
#37 = CARTESIAN_POINT ( 'NONE',  ( 0.0000000000000000000, 0.0000000000000000000, 1.500000000000000222 ) ) ;
#38 = DIRECTION ( 'NONE',  ( -0.0000000000000000000, -0.0000000000000000000, -1.000000000000000000 ) ) ;
#39 = FACE_OUTER_BOUND ( 'NONE', #215, .T. ) ;
#40 = PRODUCT_RELATED_PRODUCT_CATEGORY ( 'part', '', ( #125 ) ) ;
#41 = ORIENTED_EDGE ( 'NONE', *, *, #294, .T. ) ;
#42 = ORIENTED_EDGE ( 'NONE', *, *, #7, .T. ) ;
#43 =( LENGTH_UNIT ( ) NAMED_UNIT ( * ) SI_UNIT ( $, .METRE. ) );
#44 = FILL_AREA_STYLE ('',( #171 ) ) ;
#45 = ADVANCED_BREP_SHAPE_REPRESENTATION ( 'Micro_BEM-078-03X', ( #80, #81 ), #61 ) ;
#46 = ORIENTED_EDGE ( 'NONE', *, *, #300, .F. ) ;
#47 = CARTESIAN_POINT ( 'NONE',  ( 4.777463504919746737E-18, 0.0000000000000000000, 0.03901095000000000257 ) ) ;
#48 = DIRECTION ( 'NONE',  ( 1.000000000000000000, 0.0000000000000000000, 0.0000000000000000000 ) ) ;
#49 = MECHANICAL_DESIGN_GEOMETRIC_PRESENTATION_REPRESENTATION (  '', ( #186 ), #52 ) ;
#50 = CARTESIAN_POINT ( 'NONE',  ( -0.04750000000000064587, 0.0000000000000000000, 1.500000000000000222 ) ) ;
#51 = ADVANCED_FACE ( 'NONE', ( #88 ), #139, .T. ) ;
#52 =( GEOMETRIC_REPRESENTATION_CONTEXT ( 3 ) GLOBAL_UNCERTAINTY_ASSIGNED_CONTEXT ( ( #310 ) ) GLOBAL_UNIT_ASSIGNED_CONTEXT ( ( #303, #177, #150 ) ) REPRESENTATION_CONTEXT ( 'NONE', 'WORKASPACE' ) );
#53 = VECTOR ( 'NONE', #267, 39.37007874015748854 ) ;
#54 = ADVANCED_FACE ( 'NONE', ( #151 ), #319, .T. ) ;
#55 = APPLICATION_CONTEXT ( 'automotive_design' ) ;
#56 = DIRECTION ( 'NONE',  ( 0.0000000000000000000, 0.0000000000000000000, -1.000000000000000000 ) ) ;
#57 = AXIS2_PLACEMENT_3D ( 'NONE', #170, #190, #56 ) ;
#58 = EDGE_CURVE ( 'NONE', #22, #9, #95, .T. ) ;
#59 = CARTESIAN_POINT ( 'NONE',  ( 2.302335982397025094E-17, 0.0000000000000000000, 0.1880000000000000282 ) ) ;
#60 = CARTESIAN_POINT ( 'NONE',  ( -0.03901094999999999563, 0.0000000000000000000, 0.03901095000000000951 ) ) ;
#61 =( GEOMETRIC_REPRESENTATION_CONTEXT ( 3 ) GLOBAL_UNCERTAINTY_ASSIGNED_CONTEXT ( ( #280 ) ) GLOBAL_UNIT_ASSIGNED_CONTEXT ( ( #73, #252, #97 ) ) REPRESENTATION_CONTEXT ( 'NONE', 'WORKASPACE' ) );
#62 = DIRECTION ( 'NONE',  ( -1.000000000000000000, 0.0000000000000000000, 0.0000000000000000000 ) ) ;
#63 = CYLINDRICAL_SURFACE ( 'NONE', #184, 0.06250000000000002776 ) ;
#64 = AXIS2_PLACEMENT_3D ( 'NONE', #187, #234, #62 ) ;
#65 = DIRECTION ( 'NONE',  ( 1.000000000000000000, 0.0000000000000000000, -0.0000000000000000000 ) ) ;
#66 = DIRECTION ( 'NONE',  ( 0.0000000000000000000, 1.000000000000000000, 0.0000000000000000000 ) ) ;
#67 = ORIENTED_EDGE ( 'NONE', *, *, #294, .F. ) ;
#68 = ORIENTED_EDGE ( 'NONE', *, *, #208, .T. ) ;
#69 = FILL_AREA_STYLE ('',( #79 ) ) ;
#70 = DIRECTION ( 'NONE',  ( -1.000000000000000000, 0.0000000000000000000, 1.224646799147353947E-16 ) ) ;
#71 = CIRCLE ( 'NONE', #105, 0.03901095000000000257 ) ;
#72 = ADVANCED_FACE ( 'NONE', ( #39 ), #175, .T. ) ;
#73 =( CONVERSION_BASED_UNIT ( 'INCH', #1 ) LENGTH_UNIT ( ) NAMED_UNIT ( #255 ) );
#74 = CARTESIAN_POINT ( 'NONE',  ( 2.302335982397025094E-17, 0.0000000000000000000, 0.1880000000000000282 ) ) ;
#75 = DIRECTION ( 'NONE',  ( 0.1736481776669313859, 0.0000000000000000000, 0.9848077530122077983 ) ) ;
#76 = SURFACE_STYLE_FILL_AREA ( #44 ) ;
#77 = DIRECTION ( 'NONE',  ( -1.000000000000000000, 0.0000000000000000000, 1.224646799147353947E-16 ) ) ;
#78 = EDGE_CURVE ( 'NONE', #149, #237, #144, .T. ) ;
#79 = FILL_AREA_STYLE_COLOUR ( '', #161 ) ;
#80 = MANIFOLD_SOLID_BREP ( 'Fillet1', #309 ) ;
#81 = AXIS2_PLACEMENT_3D ( 'NONE', #126, #321, #160 ) ;
#82 = FACE_OUTER_BOUND ( 'NONE', #292, .T. ) ;
#83 = CYLINDRICAL_SURFACE ( 'NONE', #302, 0.03901095000000000257 ) ;
#84 = AXIS2_PLACEMENT_3D ( 'NONE', #110, #66, #266 ) ;
#85 = CARTESIAN_POINT ( 'NONE',  ( 4.777463504919746737E-18, 0.0000000000000000000, 0.03901095000000000257 ) ) ;
#86 = ORIENTED_EDGE ( 'NONE', *, *, #78, .F. ) ;
#87 = DIRECTION ( 'NONE',  ( -1.224646799147353700E-16, -0.0000000000000000000, -1.000000000000000000 ) ) ;
#88 = FACE_OUTER_BOUND ( 'NONE', #92, .T. ) ;
#89 = EDGE_LOOP ( 'NONE', ( #223, #68, #96, #67 ) ) ;
#90 = DIRECTION ( 'NONE',  ( -0.0000000000000000000, -0.0000000000000000000, -1.000000000000000000 ) ) ;
#91 = ORIENTED_EDGE ( 'NONE', *, *, #209, .F. ) ;
#92 = EDGE_LOOP ( 'NONE', ( #289, #323, #93, #86 ) ) ;
#93 = ORIENTED_EDGE ( 'NONE', *, *, #304, .T. ) ;
#94 =( LENGTH_UNIT ( ) NAMED_UNIT ( * ) SI_UNIT ( $, .METRE. ) );
#95 = LINE ( 'NONE', #180, #183 ) ;
#96 = ORIENTED_EDGE ( 'NONE', *, *, #23, .T. ) ;
#97 =( NAMED_UNIT ( * ) SI_UNIT ( $, .STERADIAN. ) SOLID_ANGLE_UNIT ( ) );
#98 = CARTESIAN_POINT ( 'NONE',  ( 0.0000000000000000000, 0.0000000000000000000, 1.485000000000000764 ) ) ;
#99 = CARTESIAN_POINT ( 'NONE',  ( -0.06249999999999997918, 0.0000000000000000000, 0.3212130222250907940 ) ) ;
#100 =( NAMED_UNIT ( * ) SI_UNIT ( $, .STERADIAN. ) SOLID_ANGLE_UNIT ( ) );
#101 = VECTOR ( 'NONE', #21, 39.37007874015748143 ) ;
#102 = APPLICATION_PROTOCOL_DEFINITION ( 'draft international standard', 'automotive_design', 1998, #308 ) ;
#103 = EDGE_CURVE ( 'NONE', #275, #22, #205, .T. ) ;
#104 = ADVANCED_FACE ( 'NONE', ( #152 ), #63, .T. ) ;
#105 = AXIS2_PLACEMENT_3D ( 'NONE', #31, #230, #106 ) ;
#106 = DIRECTION ( 'NONE',  ( -1.000000000000000000, 1.224646799147353207E-16, 0.0000000000000000000 ) ) ;
#107 = ORIENTED_EDGE ( 'NONE', *, *, #257, .T. ) ;
#108 = PLANE ( 'NONE',  #166 ) ;
#109 = ORIENTED_EDGE ( 'NONE', *, *, #7, .F. ) ;
#110 = CARTESIAN_POINT ( 'NONE',  ( 4.777463504919746737E-18, 0.0000000000000000000, 0.03901095000000000257 ) ) ;
#111 = DIRECTION ( 'NONE',  ( 1.000000000000000000, 0.0000000000000000000, 0.0000000000000000000 ) ) ;
#112 = ORIENTED_EDGE ( 'NONE', *, *, #58, .F. ) ;
#113 = CARTESIAN_POINT ( 'NONE',  ( 2.302335982397025094E-17, 0.0000000000000000000, 0.1880000000000000282 ) ) ;
#114 = VECTOR ( 'NONE', #311, 39.37007874015748143 ) ;
#115 = ORIENTED_EDGE ( 'NONE', *, *, #208, .F. ) ;
#116 = DIRECTION ( 'NONE',  ( 1.000000000000000000, 0.0000000000000000000, 0.0000000000000000000 ) ) ;
#117 = SURFACE_STYLE_USAGE ( .BOTH. , #19 ) ;
#118 = CARTESIAN_POINT ( 'NONE',  ( 0.0000000000000000000, 0.0000000000000000000, 1.500000000000000222 ) ) ;
#119 = PRODUCT_DEFINITION_SHAPE ( 'NONE', 'NONE',  #211 ) ;
#120 = VERTEX_POINT ( 'NONE', #242 ) ;
#121 = LENGTH_MEASURE_WITH_UNIT ( LENGTH_MEASURE( 0.02539999999999999897 ), #43 );
#122 =( CONVERSION_BASED_UNIT ( 'INCH', #224 ) LENGTH_UNIT ( ) NAMED_UNIT ( #128 ) );
#123 = AXIS2_PLACEMENT_3D ( 'NONE', #74, #293, #202 ) ;
#124 = CARTESIAN_POINT ( 'NONE',  ( 0.03901095000000000257, 4.777463504919744426E-18, -4.777463504919746737E-18 ) ) ;
#125 = PRODUCT ( 'Micro_BEM-078-03X', 'Micro_BEM-078-03X', '', ( #127 ) ) ;
#126 = CARTESIAN_POINT ( 'NONE',  ( 0.0000000000000000000, 0.0000000000000000000, 0.0000000000000000000 ) ) ;
#127 = PRODUCT_CONTEXT ( 'NONE', #308, 'mechanical' ) ;
#128 = DIMENSIONAL_EXPONENTS ( 1.000000000000000000, 0.0000000000000000000, 0.0000000000000000000, 0.0000000000000000000, 0.0000000000000000000, 0.0000000000000000000, 0.0000000000000000000 ) ;
#129 = ADVANCED_FACE ( 'NONE', ( #314 ), #281, .T. ) ;
#130 = PRODUCT_DEFINITION_FORMATION_WITH_SPECIFIED_SOURCE ( 'ANY', '', #125, .NOT_KNOWN. ) ;
#131 = AXIS2_PLACEMENT_3D ( 'NONE', #98, #315, #48 ) ;
#132 = ADVANCED_FACE ( 'NONE', ( #6 ), #26, .T. ) ;
#133 = DIRECTION ( 'NONE',  ( 0.0000000000000000000, 0.0000000000000000000, -1.000000000000000000 ) ) ;
#134 = EDGE_LOOP ( 'NONE', ( #204, #296, #91 ) ) ;
#135 = DIRECTION ( 'NONE',  ( -1.000000000000000000, 0.0000000000000000000, 0.0000000000000000000 ) ) ;
#136 = ORIENTED_EDGE ( 'NONE', *, *, #304, .F. ) ;
#137 = PRESENTATION_LAYER_ASSIGNMENT (  '', '', ( #30 ) ) ;
#138 = FACE_OUTER_BOUND ( 'NONE', #297, .T. ) ;
#139 = CYLINDRICAL_SURFACE ( 'NONE', #227, 0.03901095000000000257 ) ;
#140 = ADVANCED_FACE ( 'NONE', ( #82 ), #5, .T. ) ;
#141 = ORIENTED_EDGE ( 'NONE', *, *, #209, .T. ) ;
#142 = CARTESIAN_POINT ( 'NONE',  ( 7.166195257379618950E-18, 0.0000000000000000000, 0.0000000000000000000 ) ) ;
#143 = FACE_OUTER_BOUND ( 'NONE', #134, .T. ) ;
#144 = LINE ( 'NONE', #179, #307 ) ;
#145 = EDGE_LOOP ( 'NONE', ( #272, #42, #193, #244 ) ) ;
#146 = ORIENTED_EDGE ( 'NONE', *, *, #103, .T. ) ;
#147 = CARTESIAN_POINT ( 'NONE',  ( 3.933724995124051744E-17, 0.0000000000000000000, 0.3212130222250907940 ) ) ;
#148 = AXIS2_PLACEMENT_3D ( 'NONE', #13, #247, #291 ) ;
#149 = VERTEX_POINT ( 'NONE', #210 ) ;
#150 =( NAMED_UNIT ( * ) SI_UNIT ( $, .STERADIAN. ) SOLID_ANGLE_UNIT ( ) );
#151 = FACE_OUTER_BOUND ( 'NONE', #176, .T. ) ;
#152 = FACE_OUTER_BOUND ( 'NONE', #89, .T. ) ;
#153 = AXIS2_PLACEMENT_3D ( 'NONE', #147, #325, #197 ) ;
#154 = ORIENTED_EDGE ( 'NONE', *, *, #199, .T. ) ;
#155 = SURFACE_STYLE_USAGE ( .BOTH. , #182 ) ;
#156 = CARTESIAN_POINT ( 'NONE',  ( 0.0000000000000000000, 0.0000000000000000000, 1.500000000000000222 ) ) ;
#157 = AXIS2_PLACEMENT_3D ( 'NONE', #165, #87, #265 ) ;
#158 = EDGE_CURVE ( 'NONE', #173, #248, #20, .T. ) ;
#159 = ADVANCED_FACE ( 'NONE', ( #218 ), #194, .T. ) ;
#160 = DIRECTION ( 'NONE',  ( 1.000000000000000000, 0.0000000000000000000, 0.0000000000000000000 ) ) ;
#161 = COLOUR_RGB ( '',0.7921568627450980005, 0.8196078431372548767, 0.9333333333333333481 ) ;
#162 = PRODUCT_DEFINITION_CONTEXT ( 'detailed design', #55, 'design' ) ;
#163 = AXIS2_PLACEMENT_3D ( 'NONE', #37, #216, #283 ) ;
#164 = CARTESIAN_POINT ( 'NONE',  ( 0.0000000000000000000, 0.0000000000000000000, 1.500000000000000222 ) ) ;
#165 = CARTESIAN_POINT ( 'NONE',  ( 3.933724995124051744E-17, 0.0000000000000000000, 0.3212130222250907940 ) ) ;
#166 = AXIS2_PLACEMENT_3D ( 'NONE', #164, #285, #65 ) ;
#167 = LINE ( 'NONE', #262, #114 ) ;
#168 = VERTEX_POINT ( 'NONE', #32 ) ;
#169 = AXIS2_PLACEMENT_3D ( 'NONE', #118, #271, #235 ) ;
#170 = CARTESIAN_POINT ( 'NONE',  ( 4.777463504919746737E-18, 0.0000000000000000000, 0.03901095000000000257 ) ) ;
#171 = FILL_AREA_STYLE_COLOUR ( '', #274 ) ;
#172 = EDGE_CURVE ( 'NONE', #298, #220, #282, .T. ) ;
#173 = VERTEX_POINT ( 'NONE', #142 ) ;
#174 = LINE ( 'NONE', #214, #53 ) ;
#175 = SPHERICAL_SURFACE ( 'NONE', #84, 0.03901095000000000257 ) ;
#176 = EDGE_LOOP ( 'NONE', ( #109, #318, #284, #41 ) ) ;
#177 =( NAMED_UNIT ( * ) PLANE_ANGLE_UNIT ( ) SI_UNIT ( $, .RADIAN. ) );
#178 = CIRCLE ( 'NONE', #240, 0.03901095000000000257 ) ;
#179 = CARTESIAN_POINT ( 'NONE',  ( -0.03901095000000000257, 0.0000000000000000000, 4.777463504919746737E-18 ) ) ;
#180 = CARTESIAN_POINT ( 'NONE',  ( 0.04750000000000064587, 5.817072295950006528E-18, 1.500000000000000222 ) ) ;
#181 = DIRECTION ( 'NONE',  ( -1.000000000000000000, 0.0000000000000000000, 2.188366338220633428E-16 ) ) ;
#182 = SURFACE_SIDE_STYLE ('',( #324 ) ) ;
#183 = VECTOR ( 'NONE', #250, 39.37007874015748854 ) ;
#184 = AXIS2_PLACEMENT_3D ( 'NONE', #191, #90, #287 ) ;
#185 = ADVANCED_FACE ( 'NONE', ( #143 ), #260, .T. ) ;
#186 = STYLED_ITEM ( 'NONE', ( #249 ), #45 ) ;
#187 = CARTESIAN_POINT ( 'NONE',  ( 0.0000000000000000000, 0.0000000000000000000, 1.500000000000000222 ) ) ;
#188 = CARTESIAN_POINT ( 'NONE',  ( 0.0000000000000000000, 0.0000000000000000000, 1.500000000000000222 ) ) ;
#189 = ORIENTED_EDGE ( 'NONE', *, *, #172, .F. ) ;
#190 = DIRECTION ( 'NONE',  ( 0.0000000000000000000, -1.000000000000000000, 0.0000000000000000000 ) ) ;
#191 = CARTESIAN_POINT ( 'NONE',  ( 0.0000000000000000000, 0.0000000000000000000, 1.500000000000000222 ) ) ;
#192 = LINE ( 'NONE', #322, #101 ) ;
#193 = ORIENTED_EDGE ( 'NONE', *, *, #172, .T. ) ;
#194 = CONICAL_SURFACE ( 'NONE', #229, 0.03901095000000000257, 0.1745329251994338915 ) ;
#195 = CARTESIAN_POINT ( 'NONE',  ( 0.0000000000000000000, 0.0000000000000000000, 1.485000000000000764 ) ) ;
#196 = DIRECTION ( 'NONE',  ( -1.224646799147353700E-16, -0.0000000000000000000, -1.000000000000000000 ) ) ;
#197 = DIRECTION ( 'NONE',  ( 1.000000000000000000, 0.0000000000000000000, 0.0000000000000000000 ) ) ;
#198 =( LENGTH_UNIT ( ) NAMED_UNIT ( * ) SI_UNIT ( $, .METRE. ) );
#199 = EDGE_CURVE ( 'NONE', #168, #149, #178, .T. ) ;
#200 = AXIS2_PLACEMENT_3D ( 'NONE', #195, #133, #116 ) ;
#201 = EDGE_LOOP ( 'NONE', ( #320, #107, #189, #261 ) ) ;
#202 = DIRECTION ( 'NONE',  ( -1.000000000000000000, 0.0000000000000000000, 0.0000000000000000000 ) ) ;
#203 = DIRECTION ( 'NONE',  ( -1.224646799147353700E-16, -0.0000000000000000000, -1.000000000000000000 ) ) ;
#204 = ORIENTED_EDGE ( 'NONE', *, *, #245, .F. ) ;
#205 = CIRCLE ( 'NONE', #253, 0.04750000000000064587 ) ;
#206 = PRESENTATION_LAYER_ASSIGNMENT (  '', '', ( #186 ) ) ;
#207 = VECTOR ( 'NONE', #217, 39.37007874015747433 ) ;
#208 = EDGE_CURVE ( 'NONE', #9, #120, #256, .T. ) ;
#209 = EDGE_CURVE ( 'NONE', #237, #248, #306, .T. ) ;
#210 = CARTESIAN_POINT ( 'NONE',  ( -0.03901094999999998175, 6.215752999795353296E-18, 0.1880000000000000282 ) ) ;
#211 = PRODUCT_DEFINITION ( 'UNKNOWN', '', #130, #162 ) ;
#212 = ORIENTED_EDGE ( 'NONE', *, *, #78, .T. ) ;
#213 = UNCERTAINTY_MEASURE_WITH_UNIT (LENGTH_MEASURE( 1.000000000000000082E-05 ), #122, 'distance_accuracy_value', 'NONE');
#214 = CARTESIAN_POINT ( 'NONE',  ( -0.04750000000000064587, 0.0000000000000000000, 1.500000000000000222 ) ) ;
#215 = EDGE_LOOP ( 'NONE', ( #231, #233, #136 ) ) ;
#216 = DIRECTION ( 'NONE',  ( 0.0000000000000000000, 0.0000000000000000000, -1.000000000000000000 ) ) ;
#217 = DIRECTION ( 'NONE',  ( -0.1736481776669311916, 2.126576849575783316E-17, 0.9848077530122080203 ) ) ;
#218 = FACE_OUTER_BOUND ( 'NONE', #145, .T. ) ;
#219 = CARTESIAN_POINT ( 'NONE',  ( 0.04750000000000064587, 6.735557395310483192E-18, 1.500000000000000222 ) ) ;
#220 = VERTEX_POINT ( 'NONE', #259 ) ;
#221 = AXIS2_PLACEMENT_3D ( 'NONE', #188, #38, #12 ) ;
#222 = DIRECTION ( 'NONE',  ( -1.000000000000000000, 0.0000000000000000000, 2.188366338220633428E-16 ) ) ;
#223 = ORIENTED_EDGE ( 'NONE', *, *, #257, .F. ) ;
#224 = LENGTH_MEASURE_WITH_UNIT ( LENGTH_MEASURE( 0.02539999999999999897 ), #198 );
#225 = AXIS2_PLACEMENT_3D ( 'NONE', #85, #238, #18 ) ;
#226 =( GEOMETRIC_REPRESENTATION_CONTEXT ( 3 ) GLOBAL_UNCERTAINTY_ASSIGNED_CONTEXT ( ( #213 ) ) GLOBAL_UNIT_ASSIGNED_CONTEXT ( ( #122, #263, #100 ) ) REPRESENTATION_CONTEXT ( 'NONE', 'WORKASPACE' ) );
#227 = AXIS2_PLACEMENT_3D ( 'NONE', #288, #196, #70 ) ;
#228 = DIMENSIONAL_EXPONENTS ( 1.000000000000000000, 0.0000000000000000000, 0.0000000000000000000, 0.0000000000000000000, 0.0000000000000000000, 0.0000000000000000000, 0.0000000000000000000 ) ;
#229 = AXIS2_PLACEMENT_3D ( 'NONE', #59, #16, #33 ) ;
#230 = DIRECTION ( 'NONE',  ( 1.224646799147353207E-16, 1.000000000000000000, -0.0000000000000000000 ) ) ;
#231 = ORIENTED_EDGE ( 'NONE', *, *, #158, .F. ) ;
#232 = DIRECTION ( 'NONE',  ( 1.224646799147353700E-16, 0.0000000000000000000, 1.000000000000000000 ) ) ;
#233 = ORIENTED_EDGE ( 'NONE', *, *, #245, .T. ) ;
#234 = DIRECTION ( 'NONE',  ( 0.0000000000000000000, 0.0000000000000000000, -1.000000000000000000 ) ) ;
#235 = DIRECTION ( 'NONE',  ( 1.000000000000000000, 0.0000000000000000000, 0.0000000000000000000 ) ) ;
#236 = ADVANCED_FACE ( 'NONE', ( #10 ), #108, .T. ) ;
#237 = VERTEX_POINT ( 'NONE', #60 ) ;
#238 = DIRECTION ( 'NONE',  ( 0.0000000000000000000, 1.000000000000000000, 0.0000000000000000000 ) ) ;
#239 = LINE ( 'NONE', #17, #207 ) ;
#240 = AXIS2_PLACEMENT_3D ( 'NONE', #113, #317, #135 ) ;
#241 = EDGE_CURVE ( 'NONE', #275, #120, #174, .T. ) ;
#242 = CARTESIAN_POINT ( 'NONE',  ( -0.06250000000000002776, 0.0000000000000000000, 1.485000000000000764 ) ) ;
#243 = DIRECTION ( 'NONE',  ( -1.224646799147353700E-16, -0.0000000000000000000, -1.000000000000000000 ) ) ;
#244 = ORIENTED_EDGE ( 'NONE', *, *, #277, .F. ) ;
#245 = EDGE_CURVE ( 'NONE', #173, #237, #71, .T. ) ;
#246 = CARTESIAN_POINT ( 'NONE',  ( 0.0000000000000000000, 0.0000000000000000000, 0.0000000000000000000 ) ) ;
#247 = DIRECTION ( 'NONE',  ( 1.224646799147353700E-16, 0.0000000000000000000, 1.000000000000000000 ) ) ;
#248 = VERTEX_POINT ( 'NONE', #313 ) ;
#249 = PRESENTATION_STYLE_ASSIGNMENT (( #155 ) ) ;
#250 = DIRECTION ( 'NONE',  ( 0.7071067811865462405, 8.659560562354916834E-17, -0.7071067811865486830 ) ) ;
#251 = VECTOR ( 'NONE', #2, 39.37007874015748143 ) ;
#252 =( NAMED_UNIT ( * ) PLANE_ANGLE_UNIT ( ) SI_UNIT ( $, .RADIAN. ) );
#253 = AXIS2_PLACEMENT_3D ( 'NONE', #156, #11, #111 ) ;
#254 = DIRECTION ( 'NONE',  ( 1.224646799147353700E-16, 0.0000000000000000000, 1.000000000000000000 ) ) ;
#255 = DIMENSIONAL_EXPONENTS ( 1.000000000000000000, 0.0000000000000000000, 0.0000000000000000000, 0.0000000000000000000, 0.0000000000000000000, 0.0000000000000000000, 0.0000000000000000000 ) ;
#256 = CIRCLE ( 'NONE', #200, 0.06250000000000002776 ) ;
#257 = EDGE_CURVE ( 'NONE', #9, #220, #167, .T. ) ;
#258 = CIRCLE ( 'NONE', #123, 0.03901095000000000257 ) ;
#259 = CARTESIAN_POINT ( 'NONE',  ( 0.06250000000000006939, 7.654042494670963708E-18, 0.3212130222250907940 ) ) ;
#260 = SPHERICAL_SURFACE ( 'NONE', #225, 0.03901095000000000257 ) ;
#261 = ORIENTED_EDGE ( 'NONE', *, *, #23, .F. ) ;
#262 = CARTESIAN_POINT ( 'NONE',  ( 0.06250000000000002776, 7.654042494670959086E-18, 1.500000000000000222 ) ) ;
#263 =( NAMED_UNIT ( * ) PLANE_ANGLE_UNIT ( ) SI_UNIT ( $, .RADIAN. ) );
#264 = EDGE_LOOP ( 'NONE', ( #146, #270 ) ) ;
#265 = DIRECTION ( 'NONE',  ( 1.000000000000000000, 0.0000000000000000000, 0.0000000000000000000 ) ) ;
#266 = DIRECTION ( 'NONE',  ( 1.000000000000000000, 0.0000000000000000000, 0.0000000000000000000 ) ) ;
#267 = DIRECTION ( 'NONE',  ( -0.7071067811865462405, 0.0000000000000000000, -0.7071067811865486830 ) ) ;
#268 = CARTESIAN_POINT ( 'NONE',  ( 0.06250000000000002776, 7.654042494670959086E-18, 1.485000000000000764 ) ) ;
#269 = ORIENTED_EDGE ( 'NONE', *, *, #14, .F. ) ;
#270 = ORIENTED_EDGE ( 'NONE', *, *, #14, .T. ) ;
#271 = DIRECTION ( 'NONE',  ( 0.0000000000000000000, 0.0000000000000000000, 1.000000000000000000 ) ) ;
#272 = ORIENTED_EDGE ( 'NONE', *, *, #28, .F. ) ;
#273 = ADVANCED_FACE ( 'NONE', ( #138 ), #83, .T. ) ;
#274 = COLOUR_RGB ( '',0.7921568627450980005, 0.8196078431372548767, 0.9333333333333333481 ) ;
#275 = VERTEX_POINT ( 'NONE', #50 ) ;
#276 = EDGE_LOOP ( 'NONE', ( #112, #3, #36, #115 ) ) ;
#277 = EDGE_CURVE ( 'NONE', #168, #220, #301, .T. ) ;
#278 = CIRCLE ( 'NONE', #131, 0.06250000000000002776 ) ;
#279 = AXIS2_PLACEMENT_3D ( 'NONE', #290, #232, #222 ) ;
#280 = UNCERTAINTY_MEASURE_WITH_UNIT (LENGTH_MEASURE( 1.000000000000000082E-05 ), #73, 'distance_accuracy_value', 'NONE');
#281 = CYLINDRICAL_SURFACE ( 'NONE', #221, 0.06250000000000002776 ) ;
#282 = CIRCLE ( 'NONE', #157, 0.06250000000000002776 ) ;
#283 = DIRECTION ( 'NONE',  ( -1.000000000000000000, 0.0000000000000000000, 0.0000000000000000000 ) ) ;
#284 = ORIENTED_EDGE ( 'NONE', *, *, #277, .T. ) ;
#285 = DIRECTION ( 'NONE',  ( 0.0000000000000000000, 0.0000000000000000000, 1.000000000000000000 ) ) ;
#286 = ORIENTED_EDGE ( 'NONE', *, *, #25, .F. ) ;
#287 = DIRECTION ( 'NONE',  ( -1.000000000000000000, 0.0000000000000000000, 0.0000000000000000000 ) ) ;
#288 = CARTESIAN_POINT ( 'NONE',  ( 0.0000000000000000000, 0.0000000000000000000, 0.0000000000000000000 ) ) ;
#289 = ORIENTED_EDGE ( 'NONE', *, *, #28, .T. ) ;
#290 = CARTESIAN_POINT ( 'NONE',  ( 4.777463504919746737E-18, 0.0000000000000000000, 0.03901095000000000257 ) ) ;
#291 = DIRECTION ( 'NONE',  ( 1.000000000000000000, 0.0000000000000000000, 0.0000000000000000000 ) ) ;
#292 = EDGE_LOOP ( 'NONE', ( #269, #312, #286, #15 ) ) ;
#293 = DIRECTION ( 'NONE',  ( -1.224646799147353700E-16, -0.0000000000000000000, -1.000000000000000000 ) ) ;
#294 = EDGE_CURVE ( 'NONE', #220, #298, #316, .T. ) ;
#295 = VECTOR ( 'NONE', #75, 39.37007874015748143 ) ;
#296 = ORIENTED_EDGE ( 'NONE', *, *, #158, .T. ) ;
#297 = EDGE_LOOP ( 'NONE', ( #46, #154, #212, #141 ) ) ;
#298 = VERTEX_POINT ( 'NONE', #99 ) ;
#299 = LINE ( 'NONE', #124, #251 ) ;
#300 = EDGE_CURVE ( 'NONE', #168, #248, #299, .T. ) ;
#301 = LINE ( 'NONE', #27, #295 ) ;
#302 = AXIS2_PLACEMENT_3D ( 'NONE', #246, #203, #77 ) ;
#303 =( CONVERSION_BASED_UNIT ( 'INCH', #121 ) LENGTH_UNIT ( ) NAMED_UNIT ( #228 ) );
#304 = EDGE_CURVE ( 'NONE', #248, #237, #8, .T. ) ;
#305 = APPLICATION_PROTOCOL_DEFINITION ( 'draft international standard', 'automotive_design', 1998, #55 ) ;
#306 = CIRCLE ( 'NONE', #279, 0.03901095000000000257 ) ;
#307 = VECTOR ( 'NONE', #243, 39.37007874015748143 ) ;
#308 = APPLICATION_CONTEXT ( 'automotive_design' ) ;
#309 = CLOSED_SHELL ( 'NONE', ( #72, #51, #159, #140, #129, #104, #236, #132, #54, #273, #185 ) ) ;
#310 = UNCERTAINTY_MEASURE_WITH_UNIT (LENGTH_MEASURE( 1.000000000000000082E-05 ), #303, 'distance_accuracy_value', 'NONE');
#311 = DIRECTION ( 'NONE',  ( -0.0000000000000000000, -0.0000000000000000000, -1.000000000000000000 ) ) ;
#312 = ORIENTED_EDGE ( 'NONE', *, *, #58, .T. ) ;
#313 = CARTESIAN_POINT ( 'NONE',  ( 0.03901095000000000951, 4.777463504919744426E-18, 0.03901094999999999563 ) ) ;
#314 = FACE_OUTER_BOUND ( 'NONE', #201, .T. ) ;
#315 = DIRECTION ( 'NONE',  ( 0.0000000000000000000, 0.0000000000000000000, -1.000000000000000000 ) ) ;
#316 = CIRCLE ( 'NONE', #153, 0.06250000000000002776 ) ;
#317 = DIRECTION ( 'NONE',  ( -1.224646799147353700E-16, -0.0000000000000000000, -1.000000000000000000 ) ) ;
#318 = ORIENTED_EDGE ( 'NONE', *, *, #199, .F. ) ;
#319 = CONICAL_SURFACE ( 'NONE', #148, 0.03901095000000000257, 0.1745329251994338915 ) ;
#320 = ORIENTED_EDGE ( 'NONE', *, *, #25, .T. ) ;
#321 = DIRECTION ( 'NONE',  ( 0.0000000000000000000, 0.0000000000000000000, 1.000000000000000000 ) ) ;
#322 = CARTESIAN_POINT ( 'NONE',  ( -0.06250000000000002776, 0.0000000000000000000, 1.500000000000000222 ) ) ;
#323 = ORIENTED_EDGE ( 'NONE', *, *, #300, .T. ) ;
#324 = SURFACE_STYLE_FILL_AREA ( #69 ) ;
#325 = DIRECTION ( 'NONE',  ( -1.224646799147353700E-16, -0.0000000000000000000, -1.000000000000000000 ) ) ;
ENDSEC;
END-ISO-10303-21;
