ISO-10303-21;
HEADER;
FILE_DESCRIPTION (( 'STEP AP214' ),
    '1' );
FILE_NAME ('03302.STEP',
    '2023-06-22T15:09:32',
    ( '' ),
    ( '' ),
    'SwSTEP 2.0',
    'SolidWorks 2023',
    '' );
FILE_SCHEMA (( 'AUTOMOTIVE_DESIGN' ));
ENDSEC;

DATA;
#1 = DIRECTION ( 'NONE',  ( -6.531449595452546658E-17, 1.000000000000000000, -0.000000000000000000 ) ) ;
#2 = SURFACE_SIDE_STYLE ('',( #98 ) ) ;
#3 = LENGTH_MEASURE_WITH_UNIT ( LENGTH_MEASURE( 0.02539999999999999897 ), #222 );
#4 = FILL_AREA_STYLE_COLOUR ( '', #165 ) ;
#5 = EDGE_CURVE ( 'NONE', #305, #202, #171, .T. ) ;
#6 = CYLINDRICAL_SURFACE ( 'NONE', #205, 0.1562500000000000000 ) ;
#7 = CIRCLE ( 'NONE', #114, 0.1562500000000000000 ) ;
#8 = LENGTH_MEASURE_WITH_UNIT ( LENGTH_MEASURE( 0.02539999999999999897 ), #46 );
#9 = ORIENTED_EDGE ( 'NONE', *, *, #203, .F. ) ;
#10 = CIRCLE ( 'NONE', #270, 0.1562500000000000000 ) ;
#11 = STYLED_ITEM ( 'NONE', ( #221 ), #285 ) ;
#12 = ORIENTED_EDGE ( 'NONE', *, *, #5, .F. ) ;
#13 = ORIENTED_EDGE ( 'NONE', *, *, #227, .T. ) ;
#14 = UNCERTAINTY_MEASURE_WITH_UNIT (LENGTH_MEASURE( 1.000000000000000082E-05 ), #148, 'distance_accuracy_value', 'NONE');
#15 = FACE_OUTER_BOUND ( 'NONE', #183, .T. ) ;
#16 = PRODUCT_DEFINITION ( 'UNKNOWN', '', #229, #150 ) ;
#17 = PRESENTATION_LAYER_ASSIGNMENT (  '', '', ( #248 ) ) ;
#18 =( NAMED_UNIT ( * ) SI_UNIT ( $, .STERADIAN. ) SOLID_ANGLE_UNIT ( ) );
#19 = COLOUR_RGB ( '',1.000000000000000000, 0.000000000000000000, 0.000000000000000000 ) ;
#20 = DIRECTION ( 'NONE',  ( -6.531449595452546658E-17, 1.000000000000000000, -0.000000000000000000 ) ) ;
#21 = CARTESIAN_POINT ( 'NONE',  ( 0.000000000000000000, 0.000000000000000000, 0.000000000000000000 ) ) ;
#22 = DIRECTION ( 'NONE',  ( 0.000000000000000000, 0.000000000000000000, -1.000000000000000000 ) ) ;
#23 = DIRECTION ( 'NONE',  ( -6.531449595452546658E-17, 1.000000000000000000, -0.000000000000000000 ) ) ;
#24 = SHAPE_DEFINITION_REPRESENTATION ( #32, #302 ) ;
#25 = PRESENTATION_LAYER_ASSIGNMENT (  '', '', ( #261 ) ) ;
#26 = AXIS2_PLACEMENT_3D ( 'NONE', #309, #88, #290 ) ;
#27 = EDGE_CURVE ( 'NONE', #296, #104, #68, .T. ) ;
#28 =( CONVERSION_BASED_UNIT ( 'INCH', #8 ) LENGTH_UNIT ( ) NAMED_UNIT ( #257 ) );
#29 = COLOUR_RGB ( '',1.000000000000000000, 0.000000000000000000, 0.000000000000000000 ) ;
#30 = ADVANCED_FACE ( 'NONE', ( #15 ), #89, .T. ) ;
#31 = DIMENSIONAL_EXPONENTS ( 1.000000000000000000, 0.000000000000000000, 0.000000000000000000, 0.000000000000000000, 0.000000000000000000, 0.000000000000000000, 0.000000000000000000 ) ;
#32 = PRODUCT_DEFINITION_SHAPE ( 'NONE', 'NONE',  #16 ) ;
#33 = MECHANICAL_DESIGN_GEOMETRIC_PRESENTATION_REPRESENTATION (  '', ( #199 ), #293 ) ;
#34 =( CONVERSION_BASED_UNIT ( 'INCH', #159 ) LENGTH_UNIT ( ) NAMED_UNIT ( #31 ) );
#35 = LENGTH_MEASURE_WITH_UNIT ( LENGTH_MEASURE( 0.02539999999999999897 ), #304 );
#36 = APPLICATION_CONTEXT ( 'automotive_design' ) ;
#37 = ORIENTED_EDGE ( 'NONE', *, *, #173, .F. ) ;
#38 =( NAMED_UNIT ( * ) PLANE_ANGLE_UNIT ( ) SI_UNIT ( $, .RADIAN. ) );
#39 =( LENGTH_UNIT ( ) NAMED_UNIT ( * ) SI_UNIT ( $, .METRE. ) );
#40 = AXIS2_PLACEMENT_3D ( 'NONE', #245, #44, #269 ) ;
#41 = DIRECTION ( 'NONE',  ( -1.000000000000000000, 0.000000000000000000, 0.000000000000000000 ) ) ;
#42 = SURFACE_STYLE_USAGE ( .BOTH. , #272 ) ;
#43 = CARTESIAN_POINT ( 'NONE',  ( 0.000000000000000000, 2.125000000000000000, 0.000000000000000000 ) ) ;
#44 = DIRECTION ( 'NONE',  ( -6.531449595452546658E-17, 1.000000000000000000, -0.000000000000000000 ) ) ;
#45 = MECHANICAL_DESIGN_GEOMETRIC_PRESENTATION_REPRESENTATION (  '', ( #11 ), #69 ) ;
#46 =( LENGTH_UNIT ( ) NAMED_UNIT ( * ) SI_UNIT ( $, .METRE. ) );
#47 = DIRECTION ( 'NONE',  ( -1.000000000000000000, 0.000000000000000000, 0.000000000000000000 ) ) ;
#48 = ORIENTED_EDGE ( 'NONE', *, *, #173, .T. ) ;
#49 = ORIENTED_EDGE ( 'NONE', *, *, #308, .F. ) ;
#50 = APPLICATION_CONTEXT ( 'automotive_design' ) ;
#51 = VERTEX_POINT ( 'NONE', #134 ) ;
#52 = PLANE ( 'NONE',  #277 ) ;
#53 = EDGE_LOOP ( 'NONE', ( #13, #78, #12, #128 ) ) ;
#54 = SURFACE_STYLE_FILL_AREA ( #133 ) ;
#55 = CIRCLE ( 'NONE', #126, 0.1562500000000001388 ) ;
#56 = PLANE ( 'NONE',  #225 ) ;
#57 =( CONVERSION_BASED_UNIT ( 'INCH', #35 ) LENGTH_UNIT ( ) NAMED_UNIT ( #279 ) );
#58 = ORIENTED_EDGE ( 'NONE', *, *, #112, .F. ) ;
#59 = DIRECTION ( 'NONE',  ( -0.000000000000000000, -1.000000000000000000, -0.000000000000000000 ) ) ;
#60 = PRESENTATION_STYLE_ASSIGNMENT (( #123 ) ) ;
#61 = CARTESIAN_POINT ( 'NONE',  ( 1.913510623667739463E-17, 0.000000000000000000, 0.1562500000000000000 ) ) ;
#62 = DIRECTION ( 'NONE',  ( 0.000000000000000000, 0.000000000000000000, -1.000000000000000000 ) ) ;
#63 = FILL_AREA_STYLE_COLOUR ( '', #164 ) ;
#64 = LENGTH_MEASURE_WITH_UNIT ( LENGTH_MEASURE( 0.02539999999999999897 ), #243 );
#65 =( LENGTH_UNIT ( ) NAMED_UNIT ( * ) SI_UNIT ( $, .METRE. ) );
#66 =( CONVERSION_BASED_UNIT ( 'INCH', #64 ) LENGTH_UNIT ( ) NAMED_UNIT ( #97 ) );
#67 = SURFACE_STYLE_FILL_AREA ( #144 ) ;
#68 = CIRCLE ( 'NONE', #186, 0.1562500000000000000 ) ;
#69 =( GEOMETRIC_REPRESENTATION_CONTEXT ( 3 ) GLOBAL_UNCERTAINTY_ASSIGNED_CONTEXT ( ( #216 ) ) GLOBAL_UNIT_ASSIGNED_CONTEXT ( ( #141, #193, #197 ) ) REPRESENTATION_CONTEXT ( 'NONE', 'WORKASPACE' ) );
#70 = PRODUCT ( '03302', '03302', '', ( #175 ) ) ;
#71 = ADVANCED_FACE ( 'NONE', ( #160 ), #187, .T. ) ;
#72 = DIRECTION ( 'NONE',  ( 0.000000000000000000, 0.000000000000000000, -1.000000000000000000 ) ) ;
#73 = ORIENTED_EDGE ( 'NONE', *, *, #203, .T. ) ;
#74 = CARTESIAN_POINT ( 'NONE',  ( -1.224646799147352714E-16, 4.000000000000000000, 0.000000000000000000 ) ) ;
#75 =( LENGTH_UNIT ( ) NAMED_UNIT ( * ) SI_UNIT ( $, .METRE. ) );
#76 = ORIENTED_EDGE ( 'NONE', *, *, #191, .F. ) ;
#77 = PLANE ( 'NONE',  #181 ) ;
#78 = ORIENTED_EDGE ( 'NONE', *, *, #191, .T. ) ;
#79 = CARTESIAN_POINT ( 'NONE',  ( -1.224646799147352714E-16, 4.000000000000000000, 0.000000000000000000 ) ) ;
#80 = MECHANICAL_DESIGN_GEOMETRIC_PRESENTATION_REPRESENTATION (  '', ( #262 ), #218 ) ;
#81 = PRESENTATION_LAYER_ASSIGNMENT (  '', '', ( #11 ) ) ;
#82 = ORIENTED_EDGE ( 'NONE', *, *, #176, .F. ) ;
#83 = ORIENTED_EDGE ( 'NONE', *, *, #112, .T. ) ;
#84 = ADVANCED_FACE ( 'NONE', ( #85 ), #190, .T. ) ;
#85 = FACE_OUTER_BOUND ( 'NONE', #280, .T. ) ;
#86 = FACE_OUTER_BOUND ( 'NONE', #233, .T. ) ;
#87 = UNCERTAINTY_MEASURE_WITH_UNIT (LENGTH_MEASURE( 1.000000000000000082E-05 ), #289, 'distance_accuracy_value', 'NONE');
#88 = DIRECTION ( 'NONE',  ( 0.000000000000000000, 0.000000000000000000, 1.000000000000000000 ) ) ;
#89 = PLANE ( 'NONE',  #180 ) ;
#90 = DIRECTION ( 'NONE',  ( -0.000000000000000000, -1.000000000000000000, -0.000000000000000000 ) ) ;
#91 = DIRECTION ( 'NONE',  ( 0.000000000000000000, -0.000000000000000000, 1.000000000000000000 ) ) ;
#92 = FILL_AREA_STYLE_COLOUR ( '', #113 ) ;
#93 = CLOSED_SHELL ( 'NONE', ( #135, #284, #71, #267 ) ) ;
#94 = COLOUR_RGB ( '',0.7921568627450980005, 0.8196078431372548767, 0.9333333333333333481 ) ;
#95 =( NAMED_UNIT ( * ) SI_UNIT ( $, .STERADIAN. ) SOLID_ANGLE_UNIT ( ) );
#96 = PRESENTATION_STYLE_ASSIGNMENT (( #247 ) ) ;
#97 = DIMENSIONAL_EXPONENTS ( 1.000000000000000000, 0.000000000000000000, 0.000000000000000000, 0.000000000000000000, 0.000000000000000000, 0.000000000000000000, 0.000000000000000000 ) ;
#98 = SURFACE_STYLE_FILL_AREA ( #237 ) ;
#99 = CARTESIAN_POINT ( 'NONE',  ( 0.000000000000000000, 0.000000000000000000, -0.1562500000000000000 ) ) ;
#100 = DIRECTION ( 'NONE',  ( -6.531449595452546658E-17, 1.000000000000000000, -0.000000000000000000 ) ) ;
#101 = CARTESIAN_POINT ( 'NONE',  ( 0.000000000000000000, 0.000000000000000000, 0.000000000000000000 ) ) ;
#102 = CIRCLE ( 'NONE', #157, 0.1562500000000000000 ) ;
#103 = MECHANICAL_DESIGN_GEOMETRIC_PRESENTATION_REPRESENTATION (  '', ( #248 ), #172 ) ;
#104 = VERTEX_POINT ( 'NONE', #99 ) ;
#105 = EDGE_LOOP ( 'NONE', ( #76, #206, #266, #9 ) ) ;
#106 = SURFACE_STYLE_USAGE ( .BOTH. , #238 ) ;
#107 = DIRECTION ( 'NONE',  ( -1.000000000000000000, 0.000000000000000000, 0.000000000000000000 ) ) ;
#108 = ORIENTED_EDGE ( 'NONE', *, *, #27, .F. ) ;
#109 =( NAMED_UNIT ( * ) PLANE_ANGLE_UNIT ( ) SI_UNIT ( $, .RADIAN. ) );
#110 = DIRECTION ( 'NONE',  ( 0.000000000000000000, -1.000000000000000000, -0.000000000000000000 ) ) ;
#111 = FILL_AREA_STYLE_COLOUR ( '', #94 ) ;
#112 = EDGE_CURVE ( 'NONE', #211, #204, #102, .T. ) ;
#113 = COLOUR_RGB ( '',1.000000000000000000, 0.000000000000000000, 0.000000000000000000 ) ;
#114 = AXIS2_PLACEMENT_3D ( 'NONE', #152, #235, #258 ) ;
#115 = DIRECTION ( 'NONE',  ( -6.531449595452546658E-17, 1.000000000000000000, -0.000000000000000000 ) ) ;
#116 = SURFACE_SIDE_STYLE ('',( #177 ) ) ;
#117 = CARTESIAN_POINT ( 'NONE',  ( 0.000000000000000000, 2.125000000000000000, 0.000000000000000000 ) ) ;
#118 = CARTESIAN_POINT ( 'NONE',  ( 0.1562500000000000000, 4.000000000000000000, 1.913510623667740388E-17 ) ) ;
#119 = LENGTH_MEASURE_WITH_UNIT ( LENGTH_MEASURE( 0.02539999999999999897 ), #65 );
#120 = CYLINDRICAL_SURFACE ( 'NONE', #282, 0.1562500000000000833 ) ;
#121 = MECHANICAL_DESIGN_GEOMETRIC_PRESENTATION_REPRESENTATION (  '', ( #261 ), #153 ) ;
#122 = PRESENTATION_STYLE_ASSIGNMENT (( #251 ) ) ;
#123 = SURFACE_STYLE_USAGE ( .BOTH. , #116 ) ;
#124 = SURFACE_SIDE_STYLE ('',( #67 ) ) ;
#125 = CARTESIAN_POINT ( 'NONE',  ( 1.913510623667739463E-17, 2.125000000000000000, 0.1562500000000000000 ) ) ;
#126 = AXIS2_PLACEMENT_3D ( 'NONE', #74, #100, #47 ) ;
#127 = LINE ( 'NONE', #234, #299 ) ;
#128 = ORIENTED_EDGE ( 'NONE', *, *, #155, .F. ) ;
#129 = DIMENSIONAL_EXPONENTS ( 1.000000000000000000, 0.000000000000000000, 0.000000000000000000, 0.000000000000000000, 0.000000000000000000, 0.000000000000000000, 0.000000000000000000 ) ;
#130 = AXIS2_PLACEMENT_3D ( 'NONE', #246, #274, #168 ) ;
#131 = VECTOR ( 'NONE', #115, 39.37007874015748143 ) ;
#132 = DIRECTION ( 'NONE',  ( -6.531449595452546658E-17, 1.000000000000000000, 0.000000000000000000 ) ) ;
#133 = FILL_AREA_STYLE ('',( #232 ) ) ;
#134 = CARTESIAN_POINT ( 'NONE',  ( -0.1562500000000000000, 2.125000000000000000, 0.000000000000000000 ) ) ;
#135 = ADVANCED_FACE ( 'NONE', ( #146 ), #120, .T. ) ;
#136 = CARTESIAN_POINT ( 'NONE',  ( -1.224646799147352714E-16, 4.000000000000000000, 0.000000000000000000 ) ) ;
#137 = PRESENTATION_LAYER_ASSIGNMENT (  '', '', ( #185 ) ) ;
#138 = AXIS2_PLACEMENT_3D ( 'NONE', #117, #167, #143 ) ;
#139 = UNCERTAINTY_MEASURE_WITH_UNIT (LENGTH_MEASURE( 1.000000000000000082E-05 ), #28, 'distance_accuracy_value', 'NONE');
#140 = PRODUCT_RELATED_PRODUCT_CATEGORY ( 'part', '', ( #70 ) ) ;
#141 =( CONVERSION_BASED_UNIT ( 'INCH', #119 ) LENGTH_UNIT ( ) NAMED_UNIT ( #298 ) );
#142 =( NAMED_UNIT ( * ) SI_UNIT ( $, .STERADIAN. ) SOLID_ANGLE_UNIT ( ) );
#143 = DIRECTION ( 'NONE',  ( 0.000000000000000000, 0.000000000000000000, -1.000000000000000000 ) ) ;
#144 = FILL_AREA_STYLE ('',( #92 ) ) ;
#145 = DIRECTION ( 'NONE',  ( 0.000000000000000000, 1.000000000000000000, 0.000000000000000000 ) ) ;
#146 = FACE_OUTER_BOUND ( 'NONE', #53, .T. ) ;
#147 = EDGE_CURVE ( 'NONE', #104, #296, #10, .T. ) ;
#148 =( CONVERSION_BASED_UNIT ( 'INCH', #3 ) LENGTH_UNIT ( ) NAMED_UNIT ( #174 ) );
#149 =( NAMED_UNIT ( * ) SI_UNIT ( $, .STERADIAN. ) SOLID_ANGLE_UNIT ( ) );
#150 = PRODUCT_DEFINITION_CONTEXT ( 'detailed design', #50, 'design' ) ;
#151 = ADVANCED_FACE ( 'NONE', ( #219 ), #6, .T. ) ;
#152 = CARTESIAN_POINT ( 'NONE',  ( 0.000000000000000000, 2.125000000000000000, 0.000000000000000000 ) ) ;
#153 =( GEOMETRIC_REPRESENTATION_CONTEXT ( 3 ) GLOBAL_UNCERTAINTY_ASSIGNED_CONTEXT ( ( #14 ) ) GLOBAL_UNIT_ASSIGNED_CONTEXT ( ( #148, #198, #149 ) ) REPRESENTATION_CONTEXT ( 'NONE', 'WORKASPACE' ) );
#154 = ORIENTED_EDGE ( 'NONE', *, *, #5, .T. ) ;
#155 = EDGE_CURVE ( 'NONE', #51, #305, #127, .T. ) ;
#156 = ORIENTED_EDGE ( 'NONE', *, *, #27, .T. ) ;
#157 = AXIS2_PLACEMENT_3D ( 'NONE', #43, #249, #62 ) ;
#158 = VECTOR ( 'NONE', #59, 39.37007874015748143 ) ;
#159 = LENGTH_MEASURE_WITH_UNIT ( LENGTH_MEASURE( 0.02539999999999999897 ), #75 );
#160 = FACE_OUTER_BOUND ( 'NONE', #105, .T. ) ;
#161 = MANIFOLD_SOLID_BREP ( 'Revolve - Tool Body (Straight Shanked)', #93 ) ;
#162 = EDGE_LOOP ( 'NONE', ( #226, #83, #48, #108 ) ) ;
#163 = CARTESIAN_POINT ( 'NONE',  ( 0.000000000000000000, 0.000000000000000000, 0.000000000000000000 ) ) ;
#164 = COLOUR_RGB ( '',0.7921568627450980005, 0.8196078431372548767, 0.9333333333333333481 ) ;
#165 = COLOUR_RGB ( '',1.000000000000000000, 0.000000000000000000, 0.000000000000000000 ) ;
#166 =( NAMED_UNIT ( * ) PLANE_ANGLE_UNIT ( ) SI_UNIT ( $, .RADIAN. ) );
#167 = DIRECTION ( 'NONE',  ( -0.000000000000000000, -1.000000000000000000, -0.000000000000000000 ) ) ;
#168 = DIRECTION ( 'NONE',  ( 0.000000000000000000, 0.000000000000000000, -1.000000000000000000 ) ) ;
#169 = CARTESIAN_POINT ( 'NONE',  ( -0.1562500000000002776, 4.000000000000000000, 0.000000000000000000 ) ) ;
#170 = DIRECTION ( 'NONE',  ( -0.000000000000000000, -1.000000000000000000, -0.000000000000000000 ) ) ;
#171 = CIRCLE ( 'NONE', #278, 0.1562500000000001388 ) ;
#172 =( GEOMETRIC_REPRESENTATION_CONTEXT ( 3 ) GLOBAL_UNCERTAINTY_ASSIGNED_CONTEXT ( ( #139 ) ) GLOBAL_UNIT_ASSIGNED_CONTEXT ( ( #28, #292, #95 ) ) REPRESENTATION_CONTEXT ( 'NONE', 'WORKASPACE' ) );
#173 = EDGE_CURVE ( 'NONE', #204, #104, #276, .T. ) ;
#174 = DIMENSIONAL_EXPONENTS ( 1.000000000000000000, 0.000000000000000000, 0.000000000000000000, 0.000000000000000000, 0.000000000000000000, 0.000000000000000000, 0.000000000000000000 ) ;
#175 = PRODUCT_CONTEXT ( 'NONE', #36, 'mechanical' ) ;
#176 = EDGE_CURVE ( 'NONE', #204, #211, #294, .T. ) ;
#177 = SURFACE_STYLE_FILL_AREA ( #196 ) ;
#178 = EDGE_LOOP ( 'NONE', ( #82, #58 ) ) ;
#179 = ORIENTED_EDGE ( 'NONE', *, *, #176, .T. ) ;
#180 = AXIS2_PLACEMENT_3D ( 'NONE', #209, #110, #260 ) ;
#181 = AXIS2_PLACEMENT_3D ( 'NONE', #182, #132, #208 ) ;
#182 = CARTESIAN_POINT ( 'NONE',  ( 3.332799517026346248E-34, 2.125000000000000000, 0.000000000000000000 ) ) ;
#183 = EDGE_LOOP ( 'NONE', ( #223, #156 ) ) ;
#184 = CLOSED_SHELL ( 'NONE', ( #84, #285, #151, #30 ) ) ;
#185 = STYLED_ITEM ( 'NONE', ( #210 ), #30 ) ;
#186 = AXIS2_PLACEMENT_3D ( 'NONE', #163, #256, #263 ) ;
#187 = CYLINDRICAL_SURFACE ( 'NONE', #220, 0.1562500000000000833 ) ;
#188 = ORIENTED_EDGE ( 'NONE', *, *, #227, .F. ) ;
#189 = FILL_AREA_STYLE ('',( #111 ) ) ;
#190 = CYLINDRICAL_SURFACE ( 'NONE', #130, 0.1562500000000000000 ) ;
#191 = EDGE_CURVE ( 'NONE', #303, #202, #268, .T. ) ;
#192 = FILL_AREA_STYLE ('',( #63 ) ) ;
#193 =( NAMED_UNIT ( * ) PLANE_ANGLE_UNIT ( ) SI_UNIT ( $, .RADIAN. ) );
#194 =( NAMED_UNIT ( * ) SI_UNIT ( $, .STERADIAN. ) SOLID_ANGLE_UNIT ( ) );
#195 = LENGTH_MEASURE_WITH_UNIT ( LENGTH_MEASURE( 0.02539999999999999897 ), #39 );
#196 = FILL_AREA_STYLE ('',( #271 ) ) ;
#197 =( NAMED_UNIT ( * ) SI_UNIT ( $, .STERADIAN. ) SOLID_ANGLE_UNIT ( ) );
#198 =( NAMED_UNIT ( * ) PLANE_ANGLE_UNIT ( ) SI_UNIT ( $, .RADIAN. ) );
#199 = STYLED_ITEM ( 'NONE', ( #96 ), #84 ) ;
#200 = PRESENTATION_LAYER_ASSIGNMENT (  '', '', ( #262 ) ) ;
#201 = CARTESIAN_POINT ( 'NONE',  ( 0.000000000000000000, 2.125000000000000000, -0.1562500000000000000 ) ) ;
#202 = VERTEX_POINT ( 'NONE', #118 ) ;
#203 = EDGE_CURVE ( 'NONE', #202, #305, #55, .T. ) ;
#204 = VERTEX_POINT ( 'NONE', #201 ) ;
#205 = AXIS2_PLACEMENT_3D ( 'NONE', #101, #90, #72 ) ;
#206 = ORIENTED_EDGE ( 'NONE', *, *, #308, .T. ) ;
#207 = DIRECTION ( 'NONE',  ( -0.000000000000000000, -1.000000000000000000, -0.000000000000000000 ) ) ;
#208 = DIRECTION ( 'NONE',  ( -1.000000000000000000, -6.531449595452546658E-17, 0.000000000000000000 ) ) ;
#209 = CARTESIAN_POINT ( 'NONE',  ( 0.000000000000000000, 0.000000000000000000, 0.000000000000000000 ) ) ;
#210 = PRESENTATION_STYLE_ASSIGNMENT (( #106 ) ) ;
#211 = VERTEX_POINT ( 'NONE', #125 ) ;
#212 = SURFACE_STYLE_FILL_AREA ( #189 ) ;
#213 = DIRECTION ( 'NONE',  ( 6.531449595452546658E-17, -1.000000000000000000, 0.000000000000000000 ) ) ;
#214 = DIRECTION ( 'NONE',  ( -6.531449595452546658E-17, 1.000000000000000000, -0.000000000000000000 ) ) ;
#215 = SURFACE_SIDE_STYLE ('',( #212 ) ) ;
#216 = UNCERTAINTY_MEASURE_WITH_UNIT (LENGTH_MEASURE( 1.000000000000000082E-05 ), #141, 'distance_accuracy_value', 'NONE');
#217 = APPLICATION_PROTOCOL_DEFINITION ( 'draft international standard', 'automotive_design', 1998, #36 ) ;
#218 =( GEOMETRIC_REPRESENTATION_CONTEXT ( 3 ) GLOBAL_UNCERTAINTY_ASSIGNED_CONTEXT ( ( #281 ) ) GLOBAL_UNIT_ASSIGNED_CONTEXT ( ( #34, #109, #307 ) ) REPRESENTATION_CONTEXT ( 'NONE', 'WORKASPACE' ) );
#219 = FACE_OUTER_BOUND ( 'NONE', #162, .T. ) ;
#220 = AXIS2_PLACEMENT_3D ( 'NONE', #136, #214, #306 ) ;
#221 = PRESENTATION_STYLE_ASSIGNMENT (( #288 ) ) ;
#222 =( LENGTH_UNIT ( ) NAMED_UNIT ( * ) SI_UNIT ( $, .METRE. ) );
#223 = ORIENTED_EDGE ( 'NONE', *, *, #147, .T. ) ;
#224 = PRESENTATION_LAYER_ASSIGNMENT (  '', '', ( #199 ) ) ;
#225 = AXIS2_PLACEMENT_3D ( 'NONE', #242, #145, #91 ) ;
#226 = ORIENTED_EDGE ( 'NONE', *, *, #265, .F. ) ;
#227 = EDGE_CURVE ( 'NONE', #51, #303, #7, .T. ) ;
#228 = MECHANICAL_DESIGN_GEOMETRIC_PRESENTATION_REPRESENTATION (  '', ( #185 ), #254 ) ;
#229 = PRODUCT_DEFINITION_FORMATION_WITH_SPECIFIED_SOURCE ( 'ANY', '', #70, .NOT_KNOWN. ) ;
#230 = FACE_OUTER_BOUND ( 'NONE', #178, .T. ) ;
#231 = CARTESIAN_POINT ( 'NONE',  ( 0.1562500000000000000, 4.000000000000000000, 0.000000000000000000 ) ) ;
#232 = FILL_AREA_STYLE_COLOUR ( '', #29 ) ;
#233 = EDGE_LOOP ( 'NONE', ( #188, #49 ) ) ;
#234 = CARTESIAN_POINT ( 'NONE',  ( -0.1562500000000002220, 4.000000000000000000, 0.000000000000000000 ) ) ;
#235 = DIRECTION ( 'NONE',  ( -6.531449595452546658E-17, 1.000000000000000000, -0.000000000000000000 ) ) ;
#236 = DIRECTION ( 'NONE',  ( 1.000000000000000000, 6.531449595452546658E-17, 0.000000000000000000 ) ) ;
#237 = FILL_AREA_STYLE ('',( #4 ) ) ;
#238 = SURFACE_SIDE_STYLE ('',( #54 ) ) ;
#239 = CARTESIAN_POINT ( 'NONE',  ( 0.1562499999999999445, 4.000000000000000000, 1.913510623667740080E-17 ) ) ;
#240 =( NAMED_UNIT ( * ) PLANE_ANGLE_UNIT ( ) SI_UNIT ( $, .RADIAN. ) );
#241 = CIRCLE ( 'NONE', #40, 0.1562500000000000000 ) ;
#242 = CARTESIAN_POINT ( 'NONE',  ( 0.000000000000000000, 2.125000000000000000, 0.000000000000000000 ) ) ;
#243 =( LENGTH_UNIT ( ) NAMED_UNIT ( * ) SI_UNIT ( $, .METRE. ) );
#244 = PRESENTATION_STYLE_ASSIGNMENT (( #42 ) ) ;
#245 = CARTESIAN_POINT ( 'NONE',  ( 0.000000000000000000, 2.125000000000000000, 0.000000000000000000 ) ) ;
#246 = CARTESIAN_POINT ( 'NONE',  ( 0.000000000000000000, 0.000000000000000000, 0.000000000000000000 ) ) ;
#247 = SURFACE_STYLE_USAGE ( .BOTH. , #124 ) ;
#248 = STYLED_ITEM ( 'NONE', ( #244 ), #161 ) ;
#249 = DIRECTION ( 'NONE',  ( -0.000000000000000000, -1.000000000000000000, -0.000000000000000000 ) ) ;
#250 = EDGE_LOOP ( 'NONE', ( #154, #73 ) ) ;
#251 = SURFACE_STYLE_USAGE ( .BOTH. , #215 ) ;
#252 = LINE ( 'NONE', #259, #300 ) ;
#253 = UNCERTAINTY_MEASURE_WITH_UNIT (LENGTH_MEASURE( 1.000000000000000082E-05 ), #66, 'distance_accuracy_value', 'NONE');
#254 =( GEOMETRIC_REPRESENTATION_CONTEXT ( 3 ) GLOBAL_UNCERTAINTY_ASSIGNED_CONTEXT ( ( #301 ) ) GLOBAL_UNIT_ASSIGNED_CONTEXT ( ( #57, #38, #18 ) ) REPRESENTATION_CONTEXT ( 'NONE', 'WORKASPACE' ) );
#255 = FACE_OUTER_BOUND ( 'NONE', #250, .T. ) ;
#256 = DIRECTION ( 'NONE',  ( -0.000000000000000000, -1.000000000000000000, -0.000000000000000000 ) ) ;
#257 = DIMENSIONAL_EXPONENTS ( 1.000000000000000000, 0.000000000000000000, 0.000000000000000000, 0.000000000000000000, 0.000000000000000000, 0.000000000000000000, 0.000000000000000000 ) ;
#258 = DIRECTION ( 'NONE',  ( -1.000000000000000000, 0.000000000000000000, 0.000000000000000000 ) ) ;
#259 = CARTESIAN_POINT ( 'NONE',  ( 1.913510623667739463E-17, 0.000000000000000000, 0.1562500000000000000 ) ) ;
#260 = DIRECTION ( 'NONE',  ( 0.000000000000000000, 0.000000000000000000, -1.000000000000000000 ) ) ;
#261 = STYLED_ITEM ( 'NONE', ( #60 ), #151 ) ;
#262 = STYLED_ITEM ( 'NONE', ( #122 ), #264 ) ;
#263 = DIRECTION ( 'NONE',  ( 0.000000000000000000, 0.000000000000000000, -1.000000000000000000 ) ) ;
#264 = MANIFOLD_SOLID_BREP ( 'Revolve - Cutting Edge', #184 ) ;
#265 = EDGE_CURVE ( 'NONE', #211, #296, #252, .T. ) ;
#266 = ORIENTED_EDGE ( 'NONE', *, *, #155, .T. ) ;
#267 = ADVANCED_FACE ( 'NONE', ( #255 ), #52, .F. ) ;
#268 = LINE ( 'NONE', #239, #131 ) ;
#269 = DIRECTION ( 'NONE',  ( -1.000000000000000000, 0.000000000000000000, 0.000000000000000000 ) ) ;
#270 = AXIS2_PLACEMENT_3D ( 'NONE', #21, #170, #22 ) ;
#271 = FILL_AREA_STYLE_COLOUR ( '', #19 ) ;
#272 = SURFACE_SIDE_STYLE ('',( #286 ) ) ;
#273 = CARTESIAN_POINT ( 'NONE',  ( 0.1562500000000000000, 2.125000000000000000, 1.913510623667740388E-17 ) ) ;
#274 = DIRECTION ( 'NONE',  ( -0.000000000000000000, -1.000000000000000000, -0.000000000000000000 ) ) ;
#275 = APPLICATION_PROTOCOL_DEFINITION ( 'draft international standard', 'automotive_design', 1998, #50 ) ;
#276 = LINE ( 'NONE', #287, #158 ) ;
#277 = AXIS2_PLACEMENT_3D ( 'NONE', #231, #213, #236 ) ;
#278 = AXIS2_PLACEMENT_3D ( 'NONE', #79, #1, #107 ) ;
#279 = DIMENSIONAL_EXPONENTS ( 1.000000000000000000, 0.000000000000000000, 0.000000000000000000, 0.000000000000000000, 0.000000000000000000, 0.000000000000000000, 0.000000000000000000 ) ;
#280 = EDGE_LOOP ( 'NONE', ( #179, #297, #295, #37 ) ) ;
#281 = UNCERTAINTY_MEASURE_WITH_UNIT (LENGTH_MEASURE( 1.000000000000000082E-05 ), #34, 'distance_accuracy_value', 'NONE');
#282 = AXIS2_PLACEMENT_3D ( 'NONE', #291, #20, #41 ) ;
#283 =( GEOMETRIC_REPRESENTATION_CONTEXT ( 3 ) GLOBAL_UNCERTAINTY_ASSIGNED_CONTEXT ( ( #87 ) ) GLOBAL_UNIT_ASSIGNED_CONTEXT ( ( #289, #166, #142 ) ) REPRESENTATION_CONTEXT ( 'NONE', 'WORKASPACE' ) );
#284 = ADVANCED_FACE ( 'NONE', ( #86 ), #77, .F. ) ;
#285 = ADVANCED_FACE ( 'NONE', ( #230 ), #56, .T. ) ;
#286 = SURFACE_STYLE_FILL_AREA ( #192 ) ;
#287 = CARTESIAN_POINT ( 'NONE',  ( 0.000000000000000000, 0.000000000000000000, -0.1562500000000000000 ) ) ;
#288 = SURFACE_STYLE_USAGE ( .BOTH. , #2 ) ;
#289 =( CONVERSION_BASED_UNIT ( 'INCH', #195 ) LENGTH_UNIT ( ) NAMED_UNIT ( #129 ) );
#290 = DIRECTION ( 'NONE',  ( 1.000000000000000000, 0.000000000000000000, 0.000000000000000000 ) ) ;
#291 = CARTESIAN_POINT ( 'NONE',  ( -1.224646799147352714E-16, 4.000000000000000000, 0.000000000000000000 ) ) ;
#292 =( NAMED_UNIT ( * ) PLANE_ANGLE_UNIT ( ) SI_UNIT ( $, .RADIAN. ) );
#293 =( GEOMETRIC_REPRESENTATION_CONTEXT ( 3 ) GLOBAL_UNCERTAINTY_ASSIGNED_CONTEXT ( ( #253 ) ) GLOBAL_UNIT_ASSIGNED_CONTEXT ( ( #66, #240, #194 ) ) REPRESENTATION_CONTEXT ( 'NONE', 'WORKASPACE' ) );
#294 = CIRCLE ( 'NONE', #138, 0.1562500000000000000 ) ;
#295 = ORIENTED_EDGE ( 'NONE', *, *, #147, .F. ) ;
#296 = VERTEX_POINT ( 'NONE', #61 ) ;
#297 = ORIENTED_EDGE ( 'NONE', *, *, #265, .T. ) ;
#298 = DIMENSIONAL_EXPONENTS ( 1.000000000000000000, 0.000000000000000000, 0.000000000000000000, 0.000000000000000000, 0.000000000000000000, 0.000000000000000000, 0.000000000000000000 ) ;
#299 = VECTOR ( 'NONE', #23, 39.37007874015748143 ) ;
#300 = VECTOR ( 'NONE', #207, 39.37007874015748143 ) ;
#301 = UNCERTAINTY_MEASURE_WITH_UNIT (LENGTH_MEASURE( 1.000000000000000082E-05 ), #57, 'distance_accuracy_value', 'NONE');
#302 = ADVANCED_BREP_SHAPE_REPRESENTATION ( '03302', ( #264, #161, #26 ), #283 ) ;
#303 = VERTEX_POINT ( 'NONE', #273 ) ;
#304 =( LENGTH_UNIT ( ) NAMED_UNIT ( * ) SI_UNIT ( $, .METRE. ) );
#305 = VERTEX_POINT ( 'NONE', #169 ) ;
#306 = DIRECTION ( 'NONE',  ( -1.000000000000000000, 0.000000000000000000, 0.000000000000000000 ) ) ;
#307 =( NAMED_UNIT ( * ) SI_UNIT ( $, .STERADIAN. ) SOLID_ANGLE_UNIT ( ) );
#308 = EDGE_CURVE ( 'NONE', #303, #51, #241, .T. ) ;
#309 = CARTESIAN_POINT ( 'NONE',  ( 0.000000000000000000, 0.000000000000000000, 0.000000000000000000 ) ) ;
ENDSEC;
END-ISO-10303-21;
