ISO-10303-21;
HEADER;
FILE_DESCRIPTION (( 'STEP AP214' ),
    '1' );
FILE_NAME ('Micro_SHL-750-4.STEP',
    '2021-09-02T08:07:43',
    ( '' ),
    ( '' ),
    'SwSTEP 2.0',
    'SolidWorks 2020',
    '' );
FILE_SCHEMA (( 'AUTOMOTIVE_DESIGN' ));
ENDSEC;

DATA;
#1 = VERTEX_POINT ( 'NONE', #299 ) ;
#2 = ORIENTED_EDGE ( 'NONE', *, *, #76, .T. ) ;
#3 = DIRECTION ( 'NONE',  ( -1.224646799147353207E-16, -0.0000000000000000000, -1.000000000000000000 ) ) ;
#4 =( LENGTH_UNIT ( ) NAMED_UNIT ( * ) SI_UNIT ( $, .METRE. ) );
#5 = DIRECTION ( 'NONE',  ( -1.000000000000000000, 0.0000000000000000000, 1.224646799147352961E-16 ) ) ;
#6 = CYLINDRICAL_SURFACE ( 'NONE', #68, 0.3750000000000000555 ) ;
#7 = CIRCLE ( 'NONE', #264, 0.3750000000000000555 ) ;
#8 = LENGTH_MEASURE_WITH_UNIT ( LENGTH_MEASURE( 0.02539999999999999897 ), #4 );
#9 = ADVANCED_FACE ( 'NONE', ( #185 ), #232, .T. ) ;
#10 = FACE_OUTER_BOUND ( 'NONE', #235, .T. ) ;
#11 = CARTESIAN_POINT ( 'NONE',  ( 0.3746250000000002633, 0.0000000000000000000, 2.500000000000000000 ) ) ;
#12 = CARTESIAN_POINT ( 'NONE',  ( -0.3746249999999997082, 4.587833071305771192E-17, 2.500000000000000000 ) ) ;
#13 = CARTESIAN_POINT ( 'NONE',  ( 3.064221491791179634E-16, 0.0000000000000000000, 2.502126730682356914 ) ) ;
#14 = CIRCLE ( 'NONE', #161, 0.3750000000000000555 ) ;
#15 = ORIENTED_EDGE ( 'NONE', *, *, #136, .T. ) ;
#16 = DIRECTION ( 'NONE',  ( 0.0000000000000000000, 0.0000000000000000000, 1.000000000000000000 ) ) ;
#17 = ORIENTED_EDGE ( 'NONE', *, *, #272, .F. ) ;
#18 = ORIENTED_EDGE ( 'NONE', *, *, #96, .F. ) ;
#19 = VECTOR ( 'NONE', #250, 39.37007874015748143 ) ;
#20 = VERTEX_POINT ( 'NONE', #134 ) ;
#21 = PRODUCT_DEFINITION ( 'UNKNOWN', '', #190, #178 ) ;
#22 = EDGE_LOOP ( 'NONE', ( #177, #62, #157, #89 ) ) ;
#23 = DIRECTION ( 'NONE',  ( -1.224646799147353207E-16, -0.0000000000000000000, -1.000000000000000000 ) ) ;
#24 = ADVANCED_FACE ( 'NONE', ( #39 ), #42, .T. ) ;
#25 = DIRECTION ( 'NONE',  ( -1.000000000000000000, 0.0000000000000000000, 0.0000000000000000000 ) ) ;
#26 = DIRECTION ( 'NONE',  ( -1.000000000000000000, 0.0000000000000000000, 0.0000000000000000000 ) ) ;
#27 = LENGTH_MEASURE_WITH_UNIT ( LENGTH_MEASURE( 0.02539999999999999897 ), #146 );
#28 = VECTOR ( 'NONE', #104, 39.37007874015747433 ) ;
#29 = DIRECTION ( 'NONE',  ( -0.7071067811865169306, 0.0000000000000000000, -0.7071067811865781039 ) ) ;
#30 = DIMENSIONAL_EXPONENTS ( 1.000000000000000000, 0.0000000000000000000, 0.0000000000000000000, 0.0000000000000000000, 0.0000000000000000000, 0.0000000000000000000, 0.0000000000000000000 ) ;
#31 = CARTESIAN_POINT ( 'NONE',  ( 0.0000000000000000000, 0.0000000000000000000, 5.000000000000000000 ) ) ;
#32 = LINE ( 'NONE', #148, #128 ) ;
#33 = EDGE_CURVE ( 'NONE', #183, #212, #160, .T. ) ;
#34 = FACE_OUTER_BOUND ( 'NONE', #107, .T. ) ;
#35 = PLANE ( 'NONE',  #184 ) ;
#36 = COLOUR_RGB ( '',0.7921568627450980005, 0.8196078431372548767, 0.9333333333333333481 ) ;
#37 = ORIENTED_EDGE ( 'NONE', *, *, #153, .F. ) ;
#38 =( GEOMETRIC_REPRESENTATION_CONTEXT ( 3 ) GLOBAL_UNCERTAINTY_ASSIGNED_CONTEXT ( ( #233 ) ) GLOBAL_UNIT_ASSIGNED_CONTEXT ( ( #120, #218, #240 ) ) REPRESENTATION_CONTEXT ( 'NONE', 'WORKASPACE' ) );
#39 = FACE_OUTER_BOUND ( 'NONE', #180, .T. ) ;
#40 = ORIENTED_EDGE ( 'NONE', *, *, #237, .F. ) ;
#41 = ORIENTED_EDGE ( 'NONE', *, *, #71, .F. ) ;
#42 = CONICAL_SURFACE ( 'NONE', #223, 0.3600000000000005418, 0.7853981633974050913 ) ;
#43 = EDGE_LOOP ( 'NONE', ( #181, #211 ) ) ;
#44 = APPLICATION_CONTEXT ( 'automotive_design' ) ;
#45 = CARTESIAN_POINT ( 'NONE',  ( 3.064221491791179634E-16, 0.0000000000000000000, 2.502126730682356914 ) ) ;
#46 = EDGE_CURVE ( 'NONE', #274, #1, #251, .T. ) ;
#47 = LINE ( 'NONE', #260, #126 ) ;
#48 = STYLED_ITEM ( 'NONE', ( #247 ), #290 ) ;
#49 = DIRECTION ( 'NONE',  ( -1.224646799147353207E-16, -0.0000000000000000000, -1.000000000000000000 ) ) ;
#50 = CARTESIAN_POINT ( 'NONE',  ( -0.3600000000000005418, 0.0000000000000000000, 5.000000000000000000 ) ) ;
#51 = AXIS2_PLACEMENT_3D ( 'NONE', #138, #3, #26 ) ;
#52 = DIRECTION ( 'NONE',  ( -0.0000000000000000000, -0.0000000000000000000, -1.000000000000000000 ) ) ;
#53 = APPLICATION_PROTOCOL_DEFINITION ( 'draft international standard', 'automotive_design', 1998, #200 ) ;
#54 = CARTESIAN_POINT ( 'NONE',  ( 5.618475085796983064E-33, 0.0000000000000000000, 4.587833071305771192E-17 ) ) ;
#55 = CYLINDRICAL_SURFACE ( 'NONE', #282, 0.3750000000000000555 ) ;
#56 = DIRECTION ( 'NONE',  ( 0.0000000000000000000, 0.0000000000000000000, -1.000000000000000000 ) ) ;
#57 = FACE_OUTER_BOUND ( 'NONE', #43, .T. ) ;
#58 = AXIS2_PLACEMENT_3D ( 'NONE', #45, #49, #167 ) ;
#59 = ORIENTED_EDGE ( 'NONE', *, *, #33, .T. ) ;
#60 = PRODUCT ( 'Micro_SHL-750-4', 'Micro_SHL-750-4', '', ( #244 ) ) ;
#61 = ORIENTED_EDGE ( 'NONE', *, *, #281, .F. ) ;
#62 = ORIENTED_EDGE ( 'NONE', *, *, #96, .T. ) ;
#63 = ORIENTED_EDGE ( 'NONE', *, *, #294, .T. ) ;
#64 = CIRCLE ( 'NONE', #105, 0.3746249999999999858 ) ;
#65 = ADVANCED_FACE ( 'NONE', ( #286 ), #245, .T. ) ;
#66 = ORIENTED_EDGE ( 'NONE', *, *, #294, .F. ) ;
#67 =( GEOMETRIC_REPRESENTATION_CONTEXT ( 3 ) GLOBAL_UNCERTAINTY_ASSIGNED_CONTEXT ( ( #208 ) ) GLOBAL_UNIT_ASSIGNED_CONTEXT ( ( #213, #214, #187 ) ) REPRESENTATION_CONTEXT ( 'NONE', 'WORKASPACE' ) );
#68 = AXIS2_PLACEMENT_3D ( 'NONE', #279, #241, #137 ) ;
#69 = FACE_OUTER_BOUND ( 'NONE', #91, .T. ) ;
#70 =( NAMED_UNIT ( * ) SI_UNIT ( $, .STERADIAN. ) SOLID_ANGLE_UNIT ( ) );
#71 = EDGE_CURVE ( 'NONE', #255, #112, #216, .T. ) ;
#72 = DIRECTION ( 'NONE',  ( 1.000000000000000000, 0.0000000000000000000, 0.0000000000000000000 ) ) ;
#73 = DIRECTION ( 'NONE',  ( 1.000000000000000000, 0.0000000000000000000, 0.0000000000000000000 ) ) ;
#74 = AXIS2_PLACEMENT_3D ( 'NONE', #175, #269, #159 ) ;
#75 = DIRECTION ( 'NONE',  ( -0.0000000000000000000, -0.0000000000000000000, -1.000000000000000000 ) ) ;
#76 = EDGE_CURVE ( 'NONE', #112, #1, #47, .T. ) ;
#77 = DIRECTION ( 'NONE',  ( 0.0000000000000000000, 0.0000000000000000000, -1.000000000000000000 ) ) ;
#78 = DIRECTION ( 'NONE',  ( 1.000000000000000000, 0.0000000000000000000, 0.0000000000000000000 ) ) ;
#79 = DIMENSIONAL_EXPONENTS ( 1.000000000000000000, 0.0000000000000000000, 0.0000000000000000000, 0.0000000000000000000, 0.0000000000000000000, 0.0000000000000000000, 0.0000000000000000000 ) ;
#80 = CONICAL_SURFACE ( 'NONE', #154, 0.3600000000000005418, 0.7853981633974050913 ) ;
#81 = DIRECTION ( 'NONE',  ( 0.0000000000000000000, 0.0000000000000000000, 1.000000000000000000 ) ) ;
#82 = ADVANCED_FACE ( 'NONE', ( #69 ), #6, .T. ) ;
#83 = EDGE_LOOP ( 'NONE', ( #130, #18, #256, #15 ) ) ;
#84 = PRESENTATION_LAYER_ASSIGNMENT (  '', '', ( #48 ) ) ;
#85 = EDGE_LOOP ( 'NONE', ( #231, #207, #297, #162 ) ) ;
#86 = EDGE_CURVE ( 'NONE', #129, #20, #64, .T. ) ;
#87 = DIRECTION ( 'NONE',  ( 1.224646799147353207E-16, 0.0000000000000000000, 1.000000000000000000 ) ) ;
#88 = DIRECTION ( 'NONE',  ( 1.000000000000000000, 0.0000000000000000000, 0.0000000000000000000 ) ) ;
#89 = ORIENTED_EDGE ( 'NONE', *, *, #86, .F. ) ;
#90 = EDGE_CURVE ( 'NONE', #212, #129, #238, .T. ) ;
#91 = EDGE_LOOP ( 'NONE', ( #295, #2, #276, #37 ) ) ;
#92 = DIRECTION ( 'NONE',  ( 1.000000000000000000, 0.0000000000000000000, 0.0000000000000000000 ) ) ;
#93 =( CONVERSION_BASED_UNIT ( 'INCH', #8 ) LENGTH_UNIT ( ) NAMED_UNIT ( #30 ) );
#94 = DIRECTION ( 'NONE',  ( 0.0000000000000000000, 0.0000000000000000000, -1.000000000000000000 ) ) ;
#95 = SURFACE_SIDE_STYLE ('',( #280 ) ) ;
#96 = EDGE_CURVE ( 'NONE', #212, #183, #133, .T. ) ;
#97 = AXIS2_PLACEMENT_3D ( 'NONE', #122, #220, #73 ) ;
#98 = DIRECTION ( 'NONE',  ( -1.224646799147353207E-16, -0.0000000000000000000, -1.000000000000000000 ) ) ;
#99 = CYLINDRICAL_SURFACE ( 'NONE', #198, 0.3746249999999999858 ) ;
#100 = MANIFOLD_SOLID_BREP ( 'Cut-Revolve1', #132 ) ;
#101 = PLANE ( 'NONE',  #139 ) ;
#102 =( GEOMETRIC_REPRESENTATION_CONTEXT ( 3 ) GLOBAL_UNCERTAINTY_ASSIGNED_CONTEXT ( ( #158 ) ) GLOBAL_UNIT_ASSIGNED_CONTEXT ( ( #93, #118, #70 ) ) REPRESENTATION_CONTEXT ( 'NONE', 'WORKASPACE' ) );
#103 = CARTESIAN_POINT ( 'NONE',  ( -0.3746249999999999858, 0.0000000000000000000, 4.587833071305771192E-17 ) ) ;
#104 = DIRECTION ( 'NONE',  ( -0.1736481776669311916, 2.126576849575783316E-17, 0.9848077530122080203 ) ) ;
#105 = AXIS2_PLACEMENT_3D ( 'NONE', #143, #189, #5 ) ;
#106 = CARTESIAN_POINT ( 'NONE',  ( 0.0000000000000000000, 0.0000000000000000000, 0.0000000000000000000 ) ) ;
#107 = EDGE_LOOP ( 'NONE', ( #135, #236 ) ) ;
#108 = VERTEX_POINT ( 'NONE', #262 ) ;
#109 = ORIENTED_EDGE ( 'NONE', *, *, #194, .T. ) ;
#110 = DIRECTION ( 'NONE',  ( 0.0000000000000000000, 0.0000000000000000000, 1.000000000000000000 ) ) ;
#111 = EDGE_LOOP ( 'NONE', ( #61, #63, #41, #229 ) ) ;
#112 = VERTEX_POINT ( 'NONE', #263 ) ;
#113 = CIRCLE ( 'NONE', #287, 0.3600000000000005418 ) ;
#114 = SURFACE_SIDE_STYLE ('',( #169 ) ) ;
#115 = APPLICATION_PROTOCOL_DEFINITION ( 'draft international standard', 'automotive_design', 1998, #44 ) ;
#116 = EDGE_CURVE ( 'NONE', #108, #255, #284, .T. ) ;
#117 = FILL_AREA_STYLE ('',( #217 ) ) ;
#118 =( NAMED_UNIT ( * ) PLANE_ANGLE_UNIT ( ) SI_UNIT ( $, .RADIAN. ) );
#119 = PRESENTATION_STYLE_ASSIGNMENT (( #165 ) ) ;
#120 =( CONVERSION_BASED_UNIT ( 'INCH', #27 ) LENGTH_UNIT ( ) NAMED_UNIT ( #79 ) );
#121 = DIRECTION ( 'NONE',  ( -0.0000000000000000000, -0.0000000000000000000, -1.000000000000000000 ) ) ;
#122 = CARTESIAN_POINT ( 'NONE',  ( 0.0000000000000000000, 0.0000000000000000000, 0.0000000000000000000 ) ) ;
#123 = ADVANCED_FACE ( 'NONE', ( #10 ), #99, .T. ) ;
#124 = DIRECTION ( 'NONE',  ( 0.0000000000000000000, 0.0000000000000000000, 1.000000000000000000 ) ) ;
#125 = DIRECTION ( 'NONE',  ( 0.1736481776669313859, 0.0000000000000000000, 0.9848077530122077983 ) ) ;
#126 = VECTOR ( 'NONE', #121, 39.37007874015748143 ) ;
#127 = CARTESIAN_POINT ( 'NONE',  ( -0.3750000000000000555, 0.0000000000000000000, 4.984999999999999432 ) ) ;
#128 = VECTOR ( 'NONE', #125, 39.37007874015748143 ) ;
#129 = VERTEX_POINT ( 'NONE', #172 ) ;
#130 = ORIENTED_EDGE ( 'NONE', *, *, #258, .F. ) ;
#131 = ORIENTED_EDGE ( 'NONE', *, *, #76, .F. ) ;
#132 = CLOSED_SHELL ( 'NONE', ( #123, #65, #140, #82, #201, #150, #24, #9, #265, #182 ) ) ;
#133 = CIRCLE ( 'NONE', #51, 0.3746249999999999858 ) ;
#134 = CARTESIAN_POINT ( 'NONE',  ( -0.3746249999999999858, 0.0000000000000000000, 9.175666142611542384E-17 ) ) ;
#135 = ORIENTED_EDGE ( 'NONE', *, *, #221, .T. ) ;
#136 = EDGE_CURVE ( 'NONE', #1, #274, #14, .T. ) ;
#137 = DIRECTION ( 'NONE',  ( -1.000000000000000000, 0.0000000000000000000, 0.0000000000000000000 ) ) ;
#138 = CARTESIAN_POINT ( 'NONE',  ( 3.061616997868383141E-16, 0.0000000000000000000, 2.500000000000000000 ) ) ;
#139 = AXIS2_PLACEMENT_3D ( 'NONE', #106, #81, #152 ) ;
#140 = ADVANCED_FACE ( 'NONE', ( #145 ), #80, .T. ) ;
#141 = DIRECTION ( 'NONE',  ( 0.0000000000000000000, 0.0000000000000000000, -1.000000000000000000 ) ) ;
#142 = DIRECTION ( 'NONE',  ( 1.000000000000000000, 0.0000000000000000000, 0.0000000000000000000 ) ) ;
#143 = CARTESIAN_POINT ( 'NONE',  ( 5.618475085796983064E-33, 0.0000000000000000000, 4.587833071305771192E-17 ) ) ;
#144 = AXIS2_PLACEMENT_3D ( 'NONE', #215, #141, #142 ) ;
#145 = FACE_OUTER_BOUND ( 'NONE', #111, .T. ) ;
#146 =( LENGTH_UNIT ( ) NAMED_UNIT ( * ) SI_UNIT ( $, .METRE. ) );
#147 = DIRECTION ( 'NONE',  ( -1.224646799147353207E-16, -0.0000000000000000000, -1.000000000000000000 ) ) ;
#148 = CARTESIAN_POINT ( 'NONE',  ( 0.3746250000000002633, 0.0000000000000000000, 2.500000000000000000 ) ) ;
#149 = VECTOR ( 'NONE', #29, 39.37007874015748143 ) ;
#150 = ADVANCED_FACE ( 'NONE', ( #57 ), #35, .T. ) ;
#151 = LINE ( 'NONE', #252, #257 ) ;
#152 = DIRECTION ( 'NONE',  ( 1.000000000000000000, 0.0000000000000000000, -0.0000000000000000000 ) ) ;
#153 = EDGE_CURVE ( 'NONE', #255, #274, #151, .T. ) ;
#154 = AXIS2_PLACEMENT_3D ( 'NONE', #203, #56, #289 ) ;
#155 = CARTESIAN_POINT ( 'NONE',  ( 0.0000000000000000000, 0.0000000000000000000, 5.000000000000000000 ) ) ;
#156 = VERTEX_POINT ( 'NONE', #292 ) ;
#157 = ORIENTED_EDGE ( 'NONE', *, *, #237, .T. ) ;
#158 = UNCERTAINTY_MEASURE_WITH_UNIT (LENGTH_MEASURE( 1.000000000000000082E-05 ), #93, 'distance_accuracy_value', 'NONE');
#159 = DIRECTION ( 'NONE',  ( -1.000000000000000000, 0.0000000000000000000, 1.224646799147352961E-16 ) ) ;
#160 = CIRCLE ( 'NONE', #226, 0.3746249999999999858 ) ;
#161 = AXIS2_PLACEMENT_3D ( 'NONE', #13, #225, #72 ) ;
#162 = ORIENTED_EDGE ( 'NONE', *, *, #230, .F. ) ;
#163 = PRODUCT_DEFINITION_SHAPE ( 'NONE', 'NONE',  #21 ) ;
#164 = CARTESIAN_POINT ( 'NONE',  ( 3.061616997868383141E-16, 0.0000000000000000000, 2.500000000000000000 ) ) ;
#165 = SURFACE_STYLE_USAGE ( .BOTH. , #114 ) ;
#166 = FILL_AREA_STYLE_COLOUR ( '', #179 ) ;
#167 = DIRECTION ( 'NONE',  ( 1.000000000000000000, 0.0000000000000000000, 0.0000000000000000000 ) ) ;
#168 = DIRECTION ( 'NONE',  ( 0.7071067811865169306, 8.659560562354558149E-17, -0.7071067811865781039 ) ) ;
#169 = SURFACE_STYLE_FILL_AREA ( #117 ) ;
#170 = CARTESIAN_POINT ( 'NONE',  ( 0.0000000000000000000, 0.0000000000000000000, 5.000000000000000000 ) ) ;
#171 = PRESENTATION_LAYER_ASSIGNMENT (  '', '', ( #209 ) ) ;
#172 = CARTESIAN_POINT ( 'NONE',  ( 0.3746249999999999858, 4.587833071305771192E-17, 0.0000000000000000000 ) ) ;
#173 = DIRECTION ( 'NONE',  ( 1.000000000000000000, 0.0000000000000000000, -0.0000000000000000000 ) ) ;
#174 = PRODUCT_RELATED_PRODUCT_CATEGORY ( 'part', '', ( #60 ) ) ;
#175 = CARTESIAN_POINT ( 'NONE',  ( 0.0000000000000000000, 0.0000000000000000000, 0.0000000000000000000 ) ) ;
#176 = DIRECTION ( 'NONE',  ( -1.000000000000000000, 0.0000000000000000000, 1.224646799147352961E-16 ) ) ;
#177 = ORIENTED_EDGE ( 'NONE', *, *, #90, .F. ) ;
#178 = PRODUCT_DEFINITION_CONTEXT ( 'detailed design', #200, 'design' ) ;
#179 = COLOUR_RGB ( '',0.7921568627450980005, 0.8196078431372548767, 0.9333333333333333481 ) ;
#180 = EDGE_LOOP ( 'NONE', ( #66, #17, #253, #259 ) ) ;
#181 = ORIENTED_EDGE ( 'NONE', *, *, #272, .T. ) ;
#182 = ADVANCED_FACE ( 'NONE', ( #34 ), #101, .F. ) ;
#183 = VERTEX_POINT ( 'NONE', #196 ) ;
#184 = AXIS2_PLACEMENT_3D ( 'NONE', #31, #124, #173 ) ;
#185 = FACE_OUTER_BOUND ( 'NONE', #83, .T. ) ;
#186 = DIRECTION ( 'NONE',  ( 1.224646799147353207E-16, 0.0000000000000000000, 1.000000000000000000 ) ) ;
#187 =( NAMED_UNIT ( * ) SI_UNIT ( $, .STERADIAN. ) SOLID_ANGLE_UNIT ( ) );
#188 = VECTOR ( 'NONE', #168, 39.37007874015748143 ) ;
#189 = DIRECTION ( 'NONE',  ( -1.224646799147353207E-16, -0.0000000000000000000, -1.000000000000000000 ) ) ;
#190 = PRODUCT_DEFINITION_FORMATION_WITH_SPECIFIED_SOURCE ( 'ANY', '', #60, .NOT_KNOWN. ) ;
#191 = SURFACE_STYLE_USAGE ( .BOTH. , #95 ) ;
#192 =( LENGTH_UNIT ( ) NAMED_UNIT ( * ) SI_UNIT ( $, .METRE. ) );
#193 = CARTESIAN_POINT ( 'NONE',  ( 0.3600000000000005418, 4.408728476930478424E-17, 5.000000000000000000 ) ) ;
#194 = EDGE_CURVE ( 'NONE', #112, #255, #7, .T. ) ;
#195 = CARTESIAN_POINT ( 'NONE',  ( 0.0000000000000000000, 0.0000000000000000000, 0.0000000000000000000 ) ) ;
#196 = CARTESIAN_POINT ( 'NONE',  ( -0.3746249999999997082, 4.590129284054173014E-17, 2.500000000000000000 ) ) ;
#197 = DIMENSIONAL_EXPONENTS ( 1.000000000000000000, 0.0000000000000000000, 0.0000000000000000000, 0.0000000000000000000, 0.0000000000000000000, 0.0000000000000000000, 0.0000000000000000000 ) ;
#198 = AXIS2_PLACEMENT_3D ( 'NONE', #195, #23, #176 ) ;
#199 = FACE_OUTER_BOUND ( 'NONE', #210, .T. ) ;
#200 = APPLICATION_CONTEXT ( 'automotive_design' ) ;
#201 = ADVANCED_FACE ( 'NONE', ( #199 ), #55, .T. ) ;
#202 = FACE_OUTER_BOUND ( 'NONE', #22, .T. ) ;
#203 = CARTESIAN_POINT ( 'NONE',  ( 0.0000000000000000000, 0.0000000000000000000, 5.000000000000000000 ) ) ;
#204 = AXIS2_PLACEMENT_3D ( 'NONE', #296, #110, #88 ) ;
#205 = ORIENTED_EDGE ( 'NONE', *, *, #153, .T. ) ;
#206 = CARTESIAN_POINT ( 'NONE',  ( -0.3749999999999997780, 0.0000000000000000000, 2.502126730682356914 ) ) ;
#207 = ORIENTED_EDGE ( 'NONE', *, *, #258, .T. ) ;
#208 = UNCERTAINTY_MEASURE_WITH_UNIT (LENGTH_MEASURE( 1.000000000000000082E-05 ), #213, 'distance_accuracy_value', 'NONE');
#209 = STYLED_ITEM ( 'NONE', ( #119 ), #100 ) ;
#210 = EDGE_LOOP ( 'NONE', ( #131, #109, #205, #228 ) ) ;
#211 = ORIENTED_EDGE ( 'NONE', *, *, #281, .T. ) ;
#212 = VERTEX_POINT ( 'NONE', #11 ) ;
#213 =( CONVERSION_BASED_UNIT ( 'INCH', #239 ) LENGTH_UNIT ( ) NAMED_UNIT ( #197 ) );
#214 =( NAMED_UNIT ( * ) PLANE_ANGLE_UNIT ( ) SI_UNIT ( $, .RADIAN. ) );
#215 = CARTESIAN_POINT ( 'NONE',  ( 0.0000000000000000000, 0.0000000000000000000, 4.984999999999999432 ) ) ;
#216 = CIRCLE ( 'NONE', #144, 0.3750000000000000555 ) ;
#217 = FILL_AREA_STYLE_COLOUR ( '', #36 ) ;
#218 =( NAMED_UNIT ( * ) PLANE_ANGLE_UNIT ( ) SI_UNIT ( $, .RADIAN. ) );
#219 = CARTESIAN_POINT ( 'NONE',  ( 0.3746249999999999858, 4.587833071305771192E-17, -4.587833071305771192E-17 ) ) ;
#220 = DIRECTION ( 'NONE',  ( 0.0000000000000000000, 0.0000000000000000000, 1.000000000000000000 ) ) ;
#221 = EDGE_CURVE ( 'NONE', #20, #129, #270, .T. ) ;
#222 = LINE ( 'NONE', #103, #19 ) ;
#223 = AXIS2_PLACEMENT_3D ( 'NONE', #170, #94, #246 ) ;
#224 = LINE ( 'NONE', #12, #28 ) ;
#225 = DIRECTION ( 'NONE',  ( -1.224646799147353207E-16, -0.0000000000000000000, -1.000000000000000000 ) ) ;
#226 = AXIS2_PLACEMENT_3D ( 'NONE', #243, #98, #25 ) ;
#227 = DIRECTION ( 'NONE',  ( 1.000000000000000000, 0.0000000000000000000, 0.0000000000000000000 ) ) ;
#228 = ORIENTED_EDGE ( 'NONE', *, *, #136, .F. ) ;
#229 = ORIENTED_EDGE ( 'NONE', *, *, #116, .F. ) ;
#230 = EDGE_CURVE ( 'NONE', #212, #1, #32, .T. ) ;
#231 = ORIENTED_EDGE ( 'NONE', *, *, #33, .F. ) ;
#232 = CONICAL_SURFACE ( 'NONE', #268, 0.3746249999999999858, 0.1745329251994338915 ) ;
#233 = UNCERTAINTY_MEASURE_WITH_UNIT (LENGTH_MEASURE( 1.000000000000000082E-05 ), #120, 'distance_accuracy_value', 'NONE');
#234 = MECHANICAL_DESIGN_GEOMETRIC_PRESENTATION_REPRESENTATION (  '', ( #209 ), #67 ) ;
#235 = EDGE_LOOP ( 'NONE', ( #59, #278, #275, #40 ) ) ;
#236 = ORIENTED_EDGE ( 'NONE', *, *, #86, .T. ) ;
#237 = EDGE_CURVE ( 'NONE', #183, #20, #222, .T. ) ;
#238 = LINE ( 'NONE', #219, #277 ) ;
#239 = LENGTH_MEASURE_WITH_UNIT ( LENGTH_MEASURE( 0.02539999999999999897 ), #192 );
#240 =( NAMED_UNIT ( * ) SI_UNIT ( $, .STERADIAN. ) SOLID_ANGLE_UNIT ( ) );
#241 = DIRECTION ( 'NONE',  ( -0.0000000000000000000, -0.0000000000000000000, -1.000000000000000000 ) ) ;
#242 = LINE ( 'NONE', #193, #188 ) ;
#243 = CARTESIAN_POINT ( 'NONE',  ( 3.061616997868383141E-16, 0.0000000000000000000, 2.500000000000000000 ) ) ;
#244 = PRODUCT_CONTEXT ( 'NONE', #44, 'mechanical' ) ;
#245 = CONICAL_SURFACE ( 'NONE', #273, 0.3746249999999999858, 0.1745329251994338915 ) ;
#246 = DIRECTION ( 'NONE',  ( -1.000000000000000000, 0.0000000000000000000, 0.0000000000000000000 ) ) ;
#247 = PRESENTATION_STYLE_ASSIGNMENT (( #191 ) ) ;
#248 = SHAPE_DEFINITION_REPRESENTATION ( #163, #290 ) ;
#249 = DIRECTION ( 'NONE',  ( -1.000000000000000000, 0.0000000000000000000, 1.224646799147352961E-16 ) ) ;
#250 = DIRECTION ( 'NONE',  ( -1.224646799147353207E-16, -0.0000000000000000000, -1.000000000000000000 ) ) ;
#251 = CIRCLE ( 'NONE', #58, 0.3750000000000000555 ) ;
#252 = CARTESIAN_POINT ( 'NONE',  ( -0.3750000000000000555, 0.0000000000000000000, 5.000000000000000000 ) ) ;
#253 = ORIENTED_EDGE ( 'NONE', *, *, #116, .T. ) ;
#254 = DIRECTION ( 'NONE',  ( 1.000000000000000000, 0.0000000000000000000, 0.0000000000000000000 ) ) ;
#255 = VERTEX_POINT ( 'NONE', #127 ) ;
#256 = ORIENTED_EDGE ( 'NONE', *, *, #230, .T. ) ;
#257 = VECTOR ( 'NONE', #52, 39.37007874015748143 ) ;
#258 = EDGE_CURVE ( 'NONE', #183, #274, #224, .T. ) ;
#259 = ORIENTED_EDGE ( 'NONE', *, *, #194, .F. ) ;
#260 = CARTESIAN_POINT ( 'NONE',  ( 0.3750000000000000555, 4.592425496802575451E-17, 5.000000000000000000 ) ) ;
#261 = CIRCLE ( 'NONE', #204, 0.3600000000000005418 ) ;
#262 = CARTESIAN_POINT ( 'NONE',  ( -0.3600000000000005418, 0.0000000000000000000, 5.000000000000000000 ) ) ;
#263 = CARTESIAN_POINT ( 'NONE',  ( 0.3750000000000000555, 4.592425496802575451E-17, 4.984999999999999432 ) ) ;
#264 = AXIS2_PLACEMENT_3D ( 'NONE', #267, #77, #78 ) ;
#265 = ADVANCED_FACE ( 'NONE', ( #202 ), #291, .T. ) ;
#266 = DIRECTION ( 'NONE',  ( -1.000000000000000000, 0.0000000000000000000, 0.0000000000000000000 ) ) ;
#267 = CARTESIAN_POINT ( 'NONE',  ( 0.0000000000000000000, 0.0000000000000000000, 4.984999999999999432 ) ) ;
#268 = AXIS2_PLACEMENT_3D ( 'NONE', #271, #87, #254 ) ;
#269 = DIRECTION ( 'NONE',  ( -1.224646799147353207E-16, -0.0000000000000000000, -1.000000000000000000 ) ) ;
#270 = CIRCLE ( 'NONE', #293, 0.3746249999999999858 ) ;
#271 = CARTESIAN_POINT ( 'NONE',  ( 3.061616997868383141E-16, 0.0000000000000000000, 2.500000000000000000 ) ) ;
#272 = EDGE_CURVE ( 'NONE', #108, #156, #113, .T. ) ;
#273 = AXIS2_PLACEMENT_3D ( 'NONE', #164, #186, #92 ) ;
#274 = VERTEX_POINT ( 'NONE', #206 ) ;
#275 = ORIENTED_EDGE ( 'NONE', *, *, #221, .F. ) ;
#276 = ORIENTED_EDGE ( 'NONE', *, *, #46, .F. ) ;
#277 = VECTOR ( 'NONE', #283, 39.37007874015748143 ) ;
#278 = ORIENTED_EDGE ( 'NONE', *, *, #90, .T. ) ;
#279 = CARTESIAN_POINT ( 'NONE',  ( 0.0000000000000000000, 0.0000000000000000000, 5.000000000000000000 ) ) ;
#280 = SURFACE_STYLE_FILL_AREA ( #285 ) ;
#281 = EDGE_CURVE ( 'NONE', #156, #108, #261, .T. ) ;
#282 = AXIS2_PLACEMENT_3D ( 'NONE', #288, #75, #266 ) ;
#283 = DIRECTION ( 'NONE',  ( -1.224646799147353207E-16, -0.0000000000000000000, -1.000000000000000000 ) ) ;
#284 = LINE ( 'NONE', #50, #149 ) ;
#285 = FILL_AREA_STYLE ('',( #166 ) ) ;
#286 = FACE_OUTER_BOUND ( 'NONE', #85, .T. ) ;
#287 = AXIS2_PLACEMENT_3D ( 'NONE', #155, #16, #227 ) ;
#288 = CARTESIAN_POINT ( 'NONE',  ( 0.0000000000000000000, 0.0000000000000000000, 5.000000000000000000 ) ) ;
#289 = DIRECTION ( 'NONE',  ( -1.000000000000000000, 0.0000000000000000000, 0.0000000000000000000 ) ) ;
#290 = ADVANCED_BREP_SHAPE_REPRESENTATION ( 'Micro_SHL-750-4', ( #100, #97 ), #102 ) ;
#291 = CYLINDRICAL_SURFACE ( 'NONE', #74, 0.3746249999999999858 ) ;
#292 = CARTESIAN_POINT ( 'NONE',  ( 0.3600000000000005418, 4.500576986866526629E-17, 5.000000000000000000 ) ) ;
#293 = AXIS2_PLACEMENT_3D ( 'NONE', #54, #147, #249 ) ;
#294 = EDGE_CURVE ( 'NONE', #156, #112, #242, .T. ) ;
#295 = ORIENTED_EDGE ( 'NONE', *, *, #71, .T. ) ;
#296 = CARTESIAN_POINT ( 'NONE',  ( 0.0000000000000000000, 0.0000000000000000000, 5.000000000000000000 ) ) ;
#297 = ORIENTED_EDGE ( 'NONE', *, *, #46, .T. ) ;
#298 = MECHANICAL_DESIGN_GEOMETRIC_PRESENTATION_REPRESENTATION (  '', ( #48 ), #38 ) ;
#299 = CARTESIAN_POINT ( 'NONE',  ( 0.3750000000000002776, 4.592425496802578533E-17, 2.502126730682356914 ) ) ;
ENDSEC;
END-ISO-10303-21;
