ISO-10303-21;
HEADER;
FILE_DESCRIPTION (( 'STEP AP214' ),
    '1' );
FILE_NAME ('30137W.STEP',
    '2023-06-22T18:00:11',
    ( '' ),
    ( '' ),
    'SwSTEP 2.0',
    'SolidWorks 2023',
    '' );
FILE_SCHEMA (( 'AUTOMOTIVE_DESIGN' ));
ENDSEC;

DATA;
#1 = ORIENTED_EDGE ( 'NONE', *, *, #132, .F. ) ;
#2 = CARTESIAN_POINT ( 'NONE',  ( 0.000000000000000000, 0.000000000000000000, 0.000000000000000000 ) ) ;
#3 = LENGTH_MEASURE_WITH_UNIT ( LENGTH_MEASURE( 0.02539999999999999897 ), #170 );
#4 = CARTESIAN_POINT ( 'NONE',  ( 6.123233995736766036E-17, 2.000000000000000000, 0.000000000000000000 ) ) ;
#5 =( CONVERSION_BASED_UNIT ( 'INCH', #3 ) LENGTH_UNIT ( ) NAMED_UNIT ( #243 ) );
#6 =( NAMED_UNIT ( * ) PLANE_ANGLE_UNIT ( ) SI_UNIT ( $, .RADIAN. ) );
#7 = COLOUR_RGB ( '',1.000000000000000000, 0.000000000000000000, 0.000000000000000000 ) ;
#8 = CIRCLE ( 'NONE', #154, 0.1250000000000000000 ) ;
#9 = CARTESIAN_POINT ( 'NONE',  ( 6.123233995736766036E-17, 2.000000000000000000, 0.000000000000000000 ) ) ;
#10 =( GEOMETRIC_REPRESENTATION_CONTEXT ( 3 ) GLOBAL_UNCERTAINTY_ASSIGNED_CONTEXT ( ( #140 ) ) GLOBAL_UNIT_ASSIGNED_CONTEXT ( ( #258, #282, #256 ) ) REPRESENTATION_CONTEXT ( 'NONE', 'WORKASPACE' ) );
#11 = DIRECTION ( 'NONE',  ( -3.768143997376471359E-17, -1.000000000000000000, 0.000000000000000000 ) ) ;
#12 = FILL_AREA_STYLE ('',( #281 ) ) ;
#13 = PRODUCT ( '30137W', '30137W', '', ( #146 ) ) ;
#14 = CARTESIAN_POINT ( 'NONE',  ( 0.000000000000000000, 0.000000000000000000, 0.000000000000000000 ) ) ;
#15 = UNCERTAINTY_MEASURE_WITH_UNIT (LENGTH_MEASURE( 1.000000000000000082E-05 ), #128, 'distance_accuracy_value', 'NONE');
#16 = SURFACE_STYLE_USAGE ( .BOTH. , #41 ) ;
#17 = COLOUR_RGB ( '',1.000000000000000000, 0.000000000000000000, 0.000000000000000000 ) ;
#18 = CARTESIAN_POINT ( 'NONE',  ( 1.530808498934191817E-17, 0.3750000000000000555, 0.1250000000000000278 ) ) ;
#19 = CARTESIAN_POINT ( 'NONE',  ( 0.000000000000000000, 0.3749999999999999445, 0.000000000000000000 ) ) ;
#20 = UNCERTAINTY_MEASURE_WITH_UNIT (LENGTH_MEASURE( 1.000000000000000082E-05 ), #110, 'distance_accuracy_value', 'NONE');
#21 = ORIENTED_EDGE ( 'NONE', *, *, #225, .T. ) ;
#22 = CARTESIAN_POINT ( 'NONE',  ( 6.123233995736766036E-17, 2.000000000000000000, 0.000000000000000000 ) ) ;
#23 = DIMENSIONAL_EXPONENTS ( 1.000000000000000000, 0.000000000000000000, 0.000000000000000000, 0.000000000000000000, 0.000000000000000000, 0.000000000000000000, 0.000000000000000000 ) ;
#24 = CARTESIAN_POINT ( 'NONE',  ( -0.1249999999999998751, 2.000000000000000000, 0.000000000000000000 ) ) ;
#25 = ORIENTED_EDGE ( 'NONE', *, *, #264, .F. ) ;
#26 =( NAMED_UNIT ( * ) PLANE_ANGLE_UNIT ( ) SI_UNIT ( $, .RADIAN. ) );
#27 = SURFACE_STYLE_USAGE ( .BOTH. , #305 ) ;
#28 = ADVANCED_FACE ( 'NONE', ( #30 ), #87, .T. ) ;
#29 = SHAPE_DEFINITION_REPRESENTATION ( #63, #226 ) ;
#30 = FACE_OUTER_BOUND ( 'NONE', #189, .T. ) ;
#31 = ORIENTED_EDGE ( 'NONE', *, *, #49, .T. ) ;
#32 = DIRECTION ( 'NONE',  ( 3.768143997376471359E-17, 1.000000000000000000, -0.000000000000000000 ) ) ;
#33 = PRESENTATION_LAYER_ASSIGNMENT (  '', '', ( #205 ) ) ;
#34 = CARTESIAN_POINT ( 'NONE',  ( 0.000000000000000000, 0.000000000000000000, 0.000000000000000000 ) ) ;
#35 = CARTESIAN_POINT ( 'NONE',  ( 0.1250000000000000278, 2.000000000000000000, 0.000000000000000000 ) ) ;
#36 = PLANE ( 'NONE',  #107 ) ;
#37 = AXIS2_PLACEMENT_3D ( 'NONE', #233, #42, #96 ) ;
#38 =( CONVERSION_BASED_UNIT ( 'INCH', #246 ) LENGTH_UNIT ( ) NAMED_UNIT ( #54 ) );
#39 = EDGE_CURVE ( 'NONE', #165, #210, #59, .T. ) ;
#40 = CARTESIAN_POINT ( 'NONE',  ( 0.000000000000000000, 0.3749999999999999445, 0.000000000000000000 ) ) ;
#41 = SURFACE_SIDE_STYLE ('',( #93 ) ) ;
#42 = DIRECTION ( 'NONE',  ( 3.768143997376471359E-17, 1.000000000000000000, -0.000000000000000000 ) ) ;
#43 = SURFACE_STYLE_FILL_AREA ( #301 ) ;
#44 =( GEOMETRIC_REPRESENTATION_CONTEXT ( 3 ) GLOBAL_UNCERTAINTY_ASSIGNED_CONTEXT ( ( #68 ) ) GLOBAL_UNIT_ASSIGNED_CONTEXT ( ( #5, #219, #98 ) ) REPRESENTATION_CONTEXT ( 'NONE', 'WORKASPACE' ) );
#45 = PRESENTATION_STYLE_ASSIGNMENT (( #286 ) ) ;
#46 = CYLINDRICAL_SURFACE ( 'NONE', #218, 0.1250000000000000000 ) ;
#47 =( CONVERSION_BASED_UNIT ( 'INCH', #90 ) LENGTH_UNIT ( ) NAMED_UNIT ( #292 ) );
#48 = PLANE ( 'NONE',  #180 ) ;
#49 = EDGE_CURVE ( 'NONE', #77, #122, #200, .T. ) ;
#50 = ORIENTED_EDGE ( 'NONE', *, *, #49, .F. ) ;
#51 = DIRECTION ( 'NONE',  ( 0.000000000000000000, 0.000000000000000000, -1.000000000000000000 ) ) ;
#52 = CIRCLE ( 'NONE', #242, 0.1249999999999999445 ) ;
#53 = SURFACE_STYLE_USAGE ( .BOTH. , #265 ) ;
#54 = DIMENSIONAL_EXPONENTS ( 1.000000000000000000, 0.000000000000000000, 0.000000000000000000, 0.000000000000000000, 0.000000000000000000, 0.000000000000000000, 0.000000000000000000 ) ;
#55 = EDGE_LOOP ( 'NONE', ( #74, #287, #257, #235 ) ) ;
#56 = DIRECTION ( 'NONE',  ( 0.000000000000000000, 0.000000000000000000, -1.000000000000000000 ) ) ;
#57 = FILL_AREA_STYLE_COLOUR ( '', #7 ) ;
#58 =( NAMED_UNIT ( * ) SI_UNIT ( $, .STERADIAN. ) SOLID_ANGLE_UNIT ( ) );
#59 = CIRCLE ( 'NONE', #231, 0.1250000000000000278 ) ;
#60 = CIRCLE ( 'NONE', #123, 0.1250000000000000278 ) ;
#61 = PRODUCT_DEFINITION_FORMATION_WITH_SPECIFIED_SOURCE ( 'ANY', '', #13, .NOT_KNOWN. ) ;
#62 = CARTESIAN_POINT ( 'NONE',  ( 0.000000000000000000, 0.3750000000000000555, 0.000000000000000000 ) ) ;
#63 = PRODUCT_DEFINITION_SHAPE ( 'NONE', 'NONE',  #234 ) ;
#64 = PRODUCT_RELATED_PRODUCT_CATEGORY ( 'part', '', ( #13 ) ) ;
#65 = DIRECTION ( 'NONE',  ( 3.768143997376471359E-17, 1.000000000000000000, -0.000000000000000000 ) ) ;
#66 =( NAMED_UNIT ( * ) SI_UNIT ( $, .STERADIAN. ) SOLID_ANGLE_UNIT ( ) );
#67 = LENGTH_MEASURE_WITH_UNIT ( LENGTH_MEASURE( 0.02539999999999999897 ), #152 );
#68 = UNCERTAINTY_MEASURE_WITH_UNIT (LENGTH_MEASURE( 1.000000000000000082E-05 ), #5, 'distance_accuracy_value', 'NONE');
#69 = CARTESIAN_POINT ( 'NONE',  ( 0.000000000000000000, 0.000000000000000000, 0.000000000000000000 ) ) ;
#70 = LENGTH_MEASURE_WITH_UNIT ( LENGTH_MEASURE( 0.02539999999999999897 ), #285 );
#71 = UNCERTAINTY_MEASURE_WITH_UNIT (LENGTH_MEASURE( 1.000000000000000082E-05 ), #38, 'distance_accuracy_value', 'NONE');
#72 = CIRCLE ( 'NONE', #144, 0.1250000000000000000 ) ;
#73 = FACE_OUTER_BOUND ( 'NONE', #266, .T. ) ;
#74 = ORIENTED_EDGE ( 'NONE', *, *, #39, .T. ) ;
#75 = PLANE ( 'NONE',  #158 ) ;
#76 = STYLED_ITEM ( 'NONE', ( #95 ), #212 ) ;
#77 = VERTEX_POINT ( 'NONE', #199 ) ;
#78 =( NAMED_UNIT ( * ) SI_UNIT ( $, .STERADIAN. ) SOLID_ANGLE_UNIT ( ) );
#79 =( LENGTH_UNIT ( ) NAMED_UNIT ( * ) SI_UNIT ( $, .METRE. ) );
#80 = DIRECTION ( 'NONE',  ( -1.000000000000000000, 0.000000000000000000, 0.000000000000000000 ) ) ;
#81 = DIRECTION ( 'NONE',  ( -0.000000000000000000, -1.000000000000000000, -0.000000000000000000 ) ) ;
#82 = STYLED_ITEM ( 'NONE', ( #133 ), #294 ) ;
#83 = EDGE_CURVE ( 'NONE', #165, #119, #300, .T. ) ;
#84 = UNCERTAINTY_MEASURE_WITH_UNIT (LENGTH_MEASURE( 1.000000000000000082E-05 ), #224, 'distance_accuracy_value', 'NONE');
#85 = AXIS2_PLACEMENT_3D ( 'NONE', #245, #173, #56 ) ;
#86 = STYLED_ITEM ( 'NONE', ( #125 ), #109 ) ;
#87 = CYLINDRICAL_SURFACE ( 'NONE', #262, 0.1250000000000000000 ) ;
#88 = PRODUCT_DEFINITION_CONTEXT ( 'detailed design', #296, 'design' ) ;
#89 = FILL_AREA_STYLE ('',( #113 ) ) ;
#90 = LENGTH_MEASURE_WITH_UNIT ( LENGTH_MEASURE( 0.02539999999999999897 ), #275 );
#91 = DIRECTION ( 'NONE',  ( -1.000000000000000000, 0.000000000000000000, 0.000000000000000000 ) ) ;
#92 = ORIENTED_EDGE ( 'NONE', *, *, #215, .T. ) ;
#93 = SURFACE_STYLE_FILL_AREA ( #12 ) ;
#94 = AXIS2_PLACEMENT_3D ( 'NONE', #9, #65, #136 ) ;
#95 = PRESENTATION_STYLE_ASSIGNMENT (( #27 ) ) ;
#96 = DIRECTION ( 'NONE',  ( -1.000000000000000000, 0.000000000000000000, 0.000000000000000000 ) ) ;
#97 = ORIENTED_EDGE ( 'NONE', *, *, #172, .T. ) ;
#98 =( NAMED_UNIT ( * ) SI_UNIT ( $, .STERADIAN. ) SOLID_ANGLE_UNIT ( ) );
#99 = VECTOR ( 'NONE', #32, 39.37007874015748143 ) ;
#100 = ADVANCED_FACE ( 'NONE', ( #269 ), #36, .F. ) ;
#101 = DIRECTION ( 'NONE',  ( -0.000000000000000000, -1.000000000000000000, -0.000000000000000000 ) ) ;
#102 = SURFACE_STYLE_FILL_AREA ( #251 ) ;
#103 = DIRECTION ( 'NONE',  ( 3.768143997376471359E-17, 1.000000000000000000, -0.000000000000000000 ) ) ;
#104 = EDGE_CURVE ( 'NONE', #114, #77, #135, .T. ) ;
#105 = SURFACE_SIDE_STYLE ('',( #102 ) ) ;
#106 = PRESENTATION_LAYER_ASSIGNMENT (  '', '', ( #86 ) ) ;
#107 = AXIS2_PLACEMENT_3D ( 'NONE', #35, #11, #155 ) ;
#108 = COLOUR_RGB ( '',1.000000000000000000, 0.000000000000000000, 0.000000000000000000 ) ;
#109 = MANIFOLD_SOLID_BREP ( 'Revolve - Tool Body (Straight Shanked)', #276 ) ;
#110 =( CONVERSION_BASED_UNIT ( 'INCH', #70 ) LENGTH_UNIT ( ) NAMED_UNIT ( #149 ) );
#111 = MECHANICAL_DESIGN_GEOMETRIC_PRESENTATION_REPRESENTATION (  '', ( #86 ), #290 ) ;
#112 = DIRECTION ( 'NONE',  ( 3.768143997376471359E-17, 1.000000000000000000, -0.000000000000000000 ) ) ;
#113 = FILL_AREA_STYLE_COLOUR ( '', #255 ) ;
#114 = VERTEX_POINT ( 'NONE', #18 ) ;
#115 = DIRECTION ( 'NONE',  ( -1.000000000000000000, 3.768143997376471359E-17, 0.000000000000000000 ) ) ;
#116 = ORIENTED_EDGE ( 'NONE', *, *, #172, .F. ) ;
#117 = MECHANICAL_DESIGN_GEOMETRIC_PRESENTATION_REPRESENTATION (  '', ( #157 ), #248 ) ;
#118 = DIRECTION ( 'NONE',  ( 0.000000000000000000, 0.000000000000000000, -1.000000000000000000 ) ) ;
#119 = VERTEX_POINT ( 'NONE', #24 ) ;
#120 = FILL_AREA_STYLE_COLOUR ( '', #108 ) ;
#121 = ADVANCED_FACE ( 'NONE', ( #229 ), #298, .F. ) ;
#122 = VERTEX_POINT ( 'NONE', #138 ) ;
#123 = AXIS2_PLACEMENT_3D ( 'NONE', #197, #101, #51 ) ;
#124 = DIMENSIONAL_EXPONENTS ( 1.000000000000000000, 0.000000000000000000, 0.000000000000000000, 0.000000000000000000, 0.000000000000000000, 0.000000000000000000, 0.000000000000000000 ) ;
#125 = PRESENTATION_STYLE_ASSIGNMENT (( #179 ) ) ;
#126 =( NAMED_UNIT ( * ) PLANE_ANGLE_UNIT ( ) SI_UNIT ( $, .RADIAN. ) );
#127 = EDGE_CURVE ( 'NONE', #259, #119, #277, .T. ) ;
#128 =( CONVERSION_BASED_UNIT ( 'INCH', #175 ) LENGTH_UNIT ( ) NAMED_UNIT ( #139 ) );
#129 = PRESENTATION_STYLE_ASSIGNMENT (( #196 ) ) ;
#130 = DIRECTION ( 'NONE',  ( 0.000000000000000000, 1.000000000000000000, 0.000000000000000000 ) ) ;
#131 = STYLED_ITEM ( 'NONE', ( #147 ), #280 ) ;
#132 = EDGE_CURVE ( 'NONE', #114, #168, #159, .T. ) ;
#133 = PRESENTATION_STYLE_ASSIGNMENT (( #16 ) ) ;
#134 = CARTESIAN_POINT ( 'NONE',  ( 0.1250000000000000555, 2.000000000000000000, 1.530808498934191201E-17 ) ) ;
#135 = CIRCLE ( 'NONE', #85, 0.1250000000000000278 ) ;
#136 = DIRECTION ( 'NONE',  ( -1.000000000000000000, 0.000000000000000000, 0.000000000000000000 ) ) ;
#137 = AXIS2_PLACEMENT_3D ( 'NONE', #2, #190, #217 ) ;
#138 = CARTESIAN_POINT ( 'NONE',  ( 0.000000000000000000, 0.000000000000000000, -0.1250000000000000000 ) ) ;
#139 = DIMENSIONAL_EXPONENTS ( 1.000000000000000000, 0.000000000000000000, 0.000000000000000000, 0.000000000000000000, 0.000000000000000000, 0.000000000000000000, 0.000000000000000000 ) ;
#140 = UNCERTAINTY_MEASURE_WITH_UNIT (LENGTH_MEASURE( 1.000000000000000082E-05 ), #258, 'distance_accuracy_value', 'NONE');
#141 = ORIENTED_EDGE ( 'NONE', *, *, #104, .F. ) ;
#142 = DIRECTION ( 'NONE',  ( 3.768143997376471359E-17, 1.000000000000000000, -0.000000000000000000 ) ) ;
#143 = ORIENTED_EDGE ( 'NONE', *, *, #132, .T. ) ;
#144 = AXIS2_PLACEMENT_3D ( 'NONE', #14, #209, #307 ) ;
#145 = ORIENTED_EDGE ( 'NONE', *, *, #83, .T. ) ;
#146 = PRODUCT_CONTEXT ( 'NONE', #253, 'mechanical' ) ;
#147 = PRESENTATION_STYLE_ASSIGNMENT (( #53 ) ) ;
#148 = ORIENTED_EDGE ( 'NONE', *, *, #215, .F. ) ;
#149 = DIMENSIONAL_EXPONENTS ( 1.000000000000000000, 0.000000000000000000, 0.000000000000000000, 0.000000000000000000, 0.000000000000000000, 0.000000000000000000, 0.000000000000000000 ) ;
#150 = DIRECTION ( 'NONE',  ( 3.768143997376471359E-17, 1.000000000000000000, -0.000000000000000000 ) ) ;
#151 = FILL_AREA_STYLE ('',( #57 ) ) ;
#152 =( LENGTH_UNIT ( ) NAMED_UNIT ( * ) SI_UNIT ( $, .METRE. ) );
#153 = DIRECTION ( 'NONE',  ( -0.000000000000000000, -1.000000000000000000, -0.000000000000000000 ) ) ;
#154 = AXIS2_PLACEMENT_3D ( 'NONE', #69, #303, #118 ) ;
#155 = DIRECTION ( 'NONE',  ( 1.000000000000000000, -3.768143997376471359E-17, 0.000000000000000000 ) ) ;
#156 = EDGE_CURVE ( 'NONE', #210, #259, #182, .T. ) ;
#157 = STYLED_ITEM ( 'NONE', ( #129 ), #28 ) ;
#158 = AXIS2_PLACEMENT_3D ( 'NONE', #62, #130, #274 ) ;
#159 = LINE ( 'NONE', #278, #291 ) ;
#160 = CARTESIAN_POINT ( 'NONE',  ( 1.530808498934191509E-17, 0.000000000000000000, 0.1250000000000000000 ) ) ;
#161 = DIRECTION ( 'NONE',  ( 0.000000000000000000, 0.000000000000000000, -1.000000000000000000 ) ) ;
#162 = CARTESIAN_POINT ( 'NONE',  ( -0.1250000000000000278, 0.3749999999999999445, 0.000000000000000000 ) ) ;
#163 = AXIS2_PLACEMENT_3D ( 'NONE', #252, #112, #115 ) ;
#164 =( NAMED_UNIT ( * ) SI_UNIT ( $, .STERADIAN. ) SOLID_ANGLE_UNIT ( ) );
#165 = VERTEX_POINT ( 'NONE', #162 ) ;
#166 = FACE_OUTER_BOUND ( 'NONE', #167, .T. ) ;
#167 = EDGE_LOOP ( 'NONE', ( #92, #261 ) ) ;
#168 = VERTEX_POINT ( 'NONE', #160 ) ;
#169 = PRESENTATION_LAYER_ASSIGNMENT (  '', '', ( #76 ) ) ;
#170 =( LENGTH_UNIT ( ) NAMED_UNIT ( * ) SI_UNIT ( $, .METRE. ) );
#171 = SURFACE_STYLE_FILL_AREA ( #244 ) ;
#172 = EDGE_CURVE ( 'NONE', #210, #165, #201, .T. ) ;
#173 = DIRECTION ( 'NONE',  ( -0.000000000000000000, -1.000000000000000000, -0.000000000000000000 ) ) ;
#174 = DIRECTION ( 'NONE',  ( 0.000000000000000000, 0.000000000000000000, -1.000000000000000000 ) ) ;
#175 = LENGTH_MEASURE_WITH_UNIT ( LENGTH_MEASURE( 0.02539999999999999897 ), #295 );
#176 = VECTOR ( 'NONE', #142, 39.37007874015748143 ) ;
#177 =( GEOMETRIC_REPRESENTATION_CONTEXT ( 3 ) GLOBAL_UNCERTAINTY_ASSIGNED_CONTEXT ( ( #204 ) ) GLOBAL_UNIT_ASSIGNED_CONTEXT ( ( #47, #26, #78 ) ) REPRESENTATION_CONTEXT ( 'NONE', 'WORKASPACE' ) );
#178 = DIRECTION ( 'NONE',  ( -0.000000000000000000, -1.000000000000000000, -0.000000000000000000 ) ) ;
#179 = SURFACE_STYLE_USAGE ( .BOTH. , #105 ) ;
#180 = AXIS2_PLACEMENT_3D ( 'NONE', #34, #191, #267 ) ;
#181 = LENGTH_MEASURE_WITH_UNIT ( LENGTH_MEASURE( 0.02539999999999999897 ), #187 );
#182 = LINE ( 'NONE', #134, #176 ) ;
#183 = DIRECTION ( 'NONE',  ( -1.000000000000000000, 0.000000000000000000, 0.000000000000000000 ) ) ;
#184 = CARTESIAN_POINT ( 'NONE',  ( 0.1250000000000000278, 0.3749999999999999445, 1.530808498934191817E-17 ) ) ;
#185 = ORIENTED_EDGE ( 'NONE', *, *, #156, .F. ) ;
#186 = COLOUR_RGB ( '',1.000000000000000000, 0.000000000000000000, 0.000000000000000000 ) ;
#187 =( LENGTH_UNIT ( ) NAMED_UNIT ( * ) SI_UNIT ( $, .METRE. ) );
#188 = DIRECTION ( 'NONE',  ( 3.768143997376471359E-17, 1.000000000000000000, -0.000000000000000000 ) ) ;
#189 = EDGE_LOOP ( 'NONE', ( #284, #143, #148, #50 ) ) ;
#190 = DIRECTION ( 'NONE',  ( 0.000000000000000000, 0.000000000000000000, 1.000000000000000000 ) ) ;
#191 = DIRECTION ( 'NONE',  ( 0.000000000000000000, -1.000000000000000000, -0.000000000000000000 ) ) ;
#192 = PRESENTATION_LAYER_ASSIGNMENT (  '', '', ( #157 ) ) ;
#193 = MECHANICAL_DESIGN_GEOMETRIC_PRESENTATION_REPRESENTATION (  '', ( #76 ), #10 ) ;
#194 = EDGE_LOOP ( 'NONE', ( #21, #208 ) ) ;
#195 = EDGE_CURVE ( 'NONE', #168, #122, #72, .T. ) ;
#196 = SURFACE_STYLE_USAGE ( .BOTH. , #270 ) ;
#197 = CARTESIAN_POINT ( 'NONE',  ( 0.000000000000000000, 0.3750000000000000555, 0.000000000000000000 ) ) ;
#198 =( GEOMETRIC_REPRESENTATION_CONTEXT ( 3 ) GLOBAL_UNCERTAINTY_ASSIGNED_CONTEXT ( ( #20 ) ) GLOBAL_UNIT_ASSIGNED_CONTEXT ( ( #110, #299, #66 ) ) REPRESENTATION_CONTEXT ( 'NONE', 'WORKASPACE' ) );
#199 = CARTESIAN_POINT ( 'NONE',  ( 0.000000000000000000, 0.3750000000000000555, -0.1250000000000000278 ) ) ;
#200 = LINE ( 'NONE', #268, #271 ) ;
#201 = CIRCLE ( 'NONE', #302, 0.1250000000000000278 ) ;
#202 = CARTESIAN_POINT ( 'NONE',  ( 0.000000000000000000, 0.000000000000000000, 0.000000000000000000 ) ) ;
#203 = SURFACE_STYLE_FILL_AREA ( #151 ) ;
#204 = UNCERTAINTY_MEASURE_WITH_UNIT (LENGTH_MEASURE( 1.000000000000000082E-05 ), #47, 'distance_accuracy_value', 'NONE');
#205 = STYLED_ITEM ( 'NONE', ( #45 ), #221 ) ;
#206 = DIRECTION ( 'NONE',  ( -0.000000000000000000, -1.000000000000000000, -0.000000000000000000 ) ) ;
#207 = SURFACE_STYLE_FILL_AREA ( #89 ) ;
#208 = ORIENTED_EDGE ( 'NONE', *, *, #127, .T. ) ;
#209 = DIRECTION ( 'NONE',  ( -0.000000000000000000, -1.000000000000000000, -0.000000000000000000 ) ) ;
#210 = VERTEX_POINT ( 'NONE', #184 ) ;
#211 = MECHANICAL_DESIGN_GEOMETRIC_PRESENTATION_REPRESENTATION (  '', ( #205 ), #44 ) ;
#212 = MANIFOLD_SOLID_BREP ( 'Revolve - Cutting Edge', #249 ) ;
#213 = SURFACE_SIDE_STYLE ('',( #43 ) ) ;
#214 = ORIENTED_EDGE ( 'NONE', *, *, #127, .F. ) ;
#215 = EDGE_CURVE ( 'NONE', #122, #168, #8, .T. ) ;
#216 = ORIENTED_EDGE ( 'NONE', *, *, #104, .T. ) ;
#217 = DIRECTION ( 'NONE',  ( 1.000000000000000000, 0.000000000000000000, 0.000000000000000000 ) ) ;
#218 = AXIS2_PLACEMENT_3D ( 'NONE', #202, #178, #161 ) ;
#219 =( NAMED_UNIT ( * ) PLANE_ANGLE_UNIT ( ) SI_UNIT ( $, .RADIAN. ) );
#220 = CARTESIAN_POINT ( 'NONE',  ( 0.000000000000000000, 0.000000000000000000, 0.000000000000000000 ) ) ;
#221 = ADVANCED_FACE ( 'NONE', ( #166 ), #48, .T. ) ;
#222 =( NAMED_UNIT ( * ) PLANE_ANGLE_UNIT ( ) SI_UNIT ( $, .RADIAN. ) );
#223 = PRESENTATION_LAYER_ASSIGNMENT (  '', '', ( #131 ) ) ;
#224 =( CONVERSION_BASED_UNIT ( 'INCH', #67 ) LENGTH_UNIT ( ) NAMED_UNIT ( #23 ) );
#225 = EDGE_CURVE ( 'NONE', #119, #259, #52, .T. ) ;
#226 = ADVANCED_BREP_SHAPE_REPRESENTATION ( '30137W', ( #212, #109, #137 ), #177 ) ;
#227 = CYLINDRICAL_SURFACE ( 'NONE', #94, 0.1249999999999999861 ) ;
#228 = PRESENTATION_LAYER_ASSIGNMENT (  '', '', ( #82 ) ) ;
#229 = FACE_OUTER_BOUND ( 'NONE', #309, .T. ) ;
#230 = FACE_OUTER_BOUND ( 'NONE', #237, .T. ) ;
#231 = AXIS2_PLACEMENT_3D ( 'NONE', #40, #103, #80 ) ;
#232 = CYLINDRICAL_SURFACE ( 'NONE', #250, 0.1249999999999999861 ) ;
#233 = CARTESIAN_POINT ( 'NONE',  ( 6.123233995736766036E-17, 2.000000000000000000, 0.000000000000000000 ) ) ;
#234 = PRODUCT_DEFINITION ( 'UNKNOWN', '', #61, #88 ) ;
#235 = ORIENTED_EDGE ( 'NONE', *, *, #83, .F. ) ;
#236 = FILL_AREA_STYLE_COLOUR ( '', #17 ) ;
#237 = EDGE_LOOP ( 'NONE', ( #185, #97, #145, #214 ) ) ;
#238 = ORIENTED_EDGE ( 'NONE', *, *, #195, .F. ) ;
#239 = FACE_OUTER_BOUND ( 'NONE', #306, .T. ) ;
#240 = ORIENTED_EDGE ( 'NONE', *, *, #39, .F. ) ;
#241 = APPLICATION_PROTOCOL_DEFINITION ( 'draft international standard', 'automotive_design', 1998, #296 ) ;
#242 = AXIS2_PLACEMENT_3D ( 'NONE', #4, #150, #260 ) ;
#243 = DIMENSIONAL_EXPONENTS ( 1.000000000000000000, 0.000000000000000000, 0.000000000000000000, 0.000000000000000000, 0.000000000000000000, 0.000000000000000000, 0.000000000000000000 ) ;
#244 = FILL_AREA_STYLE ('',( #120 ) ) ;
#245 = CARTESIAN_POINT ( 'NONE',  ( 0.000000000000000000, 0.3750000000000000555, 0.000000000000000000 ) ) ;
#246 = LENGTH_MEASURE_WITH_UNIT ( LENGTH_MEASURE( 0.02539999999999999897 ), #79 );
#247 = FILL_AREA_STYLE_COLOUR ( '', #254 ) ;
#248 =( GEOMETRIC_REPRESENTATION_CONTEXT ( 3 ) GLOBAL_UNCERTAINTY_ASSIGNED_CONTEXT ( ( #15 ) ) GLOBAL_UNIT_ASSIGNED_CONTEXT ( ( #128, #6, #58 ) ) REPRESENTATION_CONTEXT ( 'NONE', 'WORKASPACE' ) );
#249 = CLOSED_SHELL ( 'NONE', ( #28, #280, #294, #221 ) ) ;
#250 = AXIS2_PLACEMENT_3D ( 'NONE', #22, #279, #183 ) ;
#251 = FILL_AREA_STYLE ('',( #247 ) ) ;
#252 = CARTESIAN_POINT ( 'NONE',  ( 8.874318240602707505E-35, 0.3750000000000000555, 0.000000000000000000 ) ) ;
#253 = APPLICATION_CONTEXT ( 'automotive_design' ) ;
#254 = COLOUR_RGB ( '',0.7921568627450980005, 0.8196078431372548767, 0.9333333333333333481 ) ;
#255 = COLOUR_RGB ( '',0.7921568627450980005, 0.8196078431372548767, 0.9333333333333333481 ) ;
#256 =( NAMED_UNIT ( * ) SI_UNIT ( $, .STERADIAN. ) SOLID_ANGLE_UNIT ( ) );
#257 = ORIENTED_EDGE ( 'NONE', *, *, #225, .F. ) ;
#258 =( CONVERSION_BASED_UNIT ( 'INCH', #181 ) LENGTH_UNIT ( ) NAMED_UNIT ( #124 ) );
#259 = VERTEX_POINT ( 'NONE', #288 ) ;
#260 = DIRECTION ( 'NONE',  ( -1.000000000000000000, 0.000000000000000000, 0.000000000000000000 ) ) ;
#261 = ORIENTED_EDGE ( 'NONE', *, *, #195, .T. ) ;
#262 = AXIS2_PLACEMENT_3D ( 'NONE', #220, #153, #174 ) ;
#263 = APPLICATION_PROTOCOL_DEFINITION ( 'draft international standard', 'automotive_design', 1998, #253 ) ;
#264 = EDGE_CURVE ( 'NONE', #77, #114, #60, .T. ) ;
#265 = SURFACE_SIDE_STYLE ('',( #171 ) ) ;
#266 = EDGE_LOOP ( 'NONE', ( #1, #216, #31, #238 ) ) ;
#267 = DIRECTION ( 'NONE',  ( 0.000000000000000000, 0.000000000000000000, -1.000000000000000000 ) ) ;
#268 = CARTESIAN_POINT ( 'NONE',  ( 0.000000000000000000, 0.000000000000000000, -0.1250000000000000000 ) ) ;
#269 = FACE_OUTER_BOUND ( 'NONE', #194, .T. ) ;
#270 = SURFACE_SIDE_STYLE ('',( #203 ) ) ;
#271 = VECTOR ( 'NONE', #81, 39.37007874015748143 ) ;
#272 =( NAMED_UNIT ( * ) SI_UNIT ( $, .STERADIAN. ) SOLID_ANGLE_UNIT ( ) );
#273 = FACE_OUTER_BOUND ( 'NONE', #55, .T. ) ;
#274 = DIRECTION ( 'NONE',  ( 0.000000000000000000, -0.000000000000000000, 1.000000000000000000 ) ) ;
#275 =( LENGTH_UNIT ( ) NAMED_UNIT ( * ) SI_UNIT ( $, .METRE. ) );
#276 = CLOSED_SHELL ( 'NONE', ( #289, #121, #304, #100 ) ) ;
#277 = CIRCLE ( 'NONE', #37, 0.1249999999999999445 ) ;
#278 = CARTESIAN_POINT ( 'NONE',  ( 1.530808498934191509E-17, 0.000000000000000000, 0.1250000000000000000 ) ) ;
#279 = DIRECTION ( 'NONE',  ( 3.768143997376471359E-17, 1.000000000000000000, -0.000000000000000000 ) ) ;
#280 = ADVANCED_FACE ( 'NONE', ( #239 ), #75, .T. ) ;
#281 = FILL_AREA_STYLE_COLOUR ( '', #186 ) ;
#282 =( NAMED_UNIT ( * ) PLANE_ANGLE_UNIT ( ) SI_UNIT ( $, .RADIAN. ) );
#283 =( GEOMETRIC_REPRESENTATION_CONTEXT ( 3 ) GLOBAL_UNCERTAINTY_ASSIGNED_CONTEXT ( ( #71 ) ) GLOBAL_UNIT_ASSIGNED_CONTEXT ( ( #38, #222, #272 ) ) REPRESENTATION_CONTEXT ( 'NONE', 'WORKASPACE' ) );
#284 = ORIENTED_EDGE ( 'NONE', *, *, #264, .T. ) ;
#285 =( LENGTH_UNIT ( ) NAMED_UNIT ( * ) SI_UNIT ( $, .METRE. ) );
#286 = SURFACE_STYLE_USAGE ( .BOTH. , #213 ) ;
#287 = ORIENTED_EDGE ( 'NONE', *, *, #156, .T. ) ;
#288 = CARTESIAN_POINT ( 'NONE',  ( 0.1250000000000000278, 2.000000000000000000, 1.530808498934191817E-17 ) ) ;
#289 = ADVANCED_FACE ( 'NONE', ( #273 ), #227, .T. ) ;
#290 =( GEOMETRIC_REPRESENTATION_CONTEXT ( 3 ) GLOBAL_UNCERTAINTY_ASSIGNED_CONTEXT ( ( #84 ) ) GLOBAL_UNIT_ASSIGNED_CONTEXT ( ( #224, #126, #164 ) ) REPRESENTATION_CONTEXT ( 'NONE', 'WORKASPACE' ) );
#291 = VECTOR ( 'NONE', #206, 39.37007874015748143 ) ;
#292 = DIMENSIONAL_EXPONENTS ( 1.000000000000000000, 0.000000000000000000, 0.000000000000000000, 0.000000000000000000, 0.000000000000000000, 0.000000000000000000, 0.000000000000000000 ) ;
#293 = CARTESIAN_POINT ( 'NONE',  ( -0.1249999999999999167, 2.000000000000000000, 0.000000000000000000 ) ) ;
#294 = ADVANCED_FACE ( 'NONE', ( #73 ), #46, .T. ) ;
#295 =( LENGTH_UNIT ( ) NAMED_UNIT ( * ) SI_UNIT ( $, .METRE. ) );
#296 = APPLICATION_CONTEXT ( 'automotive_design' ) ;
#297 = MECHANICAL_DESIGN_GEOMETRIC_PRESENTATION_REPRESENTATION (  '', ( #131 ), #283 ) ;
#298 = PLANE ( 'NONE',  #163 ) ;
#299 =( NAMED_UNIT ( * ) PLANE_ANGLE_UNIT ( ) SI_UNIT ( $, .RADIAN. ) );
#300 = LINE ( 'NONE', #293, #99 ) ;
#301 = FILL_AREA_STYLE ('',( #236 ) ) ;
#302 = AXIS2_PLACEMENT_3D ( 'NONE', #19, #188, #91 ) ;
#303 = DIRECTION ( 'NONE',  ( -0.000000000000000000, -1.000000000000000000, -0.000000000000000000 ) ) ;
#304 = ADVANCED_FACE ( 'NONE', ( #230 ), #232, .T. ) ;
#305 = SURFACE_SIDE_STYLE ('',( #207 ) ) ;
#306 = EDGE_LOOP ( 'NONE', ( #25, #141 ) ) ;
#307 = DIRECTION ( 'NONE',  ( 0.000000000000000000, 0.000000000000000000, -1.000000000000000000 ) ) ;
#308 = MECHANICAL_DESIGN_GEOMETRIC_PRESENTATION_REPRESENTATION (  '', ( #82 ), #198 ) ;
#309 = EDGE_LOOP ( 'NONE', ( #240, #116 ) ) ;
ENDSEC;
END-ISO-10303-21;
