ISO-10303-21;
HEADER;
FILE_DESCRIPTION (( 'STEP AP214' ),
    '1' );
FILE_NAME ('59475.STEP',
    '2023-07-24T15:07:15',
    ( '' ),
    ( '' ),
    'SwSTEP 2.0',
    'SolidWorks 2023',
    '' );
FILE_SCHEMA (( 'AUTOMOTIVE_DESIGN' ));
ENDSEC;

DATA;
#1 = SURFACE_STYLE_FILL_AREA ( #368 ) ;
#2 = COLOUR_RGB ( '',1.000000000000000000, 0.000000000000000000, 0.000000000000000000 ) ;
#3 = AXIS2_PLACEMENT_3D ( 'NONE', #242, #74, #46 ) ;
#4 = DIRECTION ( 'NONE',  ( 0.000000000000000000, 1.000000000000000000, 0.000000000000000000 ) ) ;
#5 = DIRECTION ( 'NONE',  ( 0.000000000000000000, 0.000000000000000000, -1.000000000000000000 ) ) ;
#6 =( NAMED_UNIT ( * ) SI_UNIT ( $, .STERADIAN. ) SOLID_ANGLE_UNIT ( ) );
#7 = CIRCLE ( 'NONE', #61, 9.999999999999992895 ) ;
#8 = ORIENTED_EDGE ( 'NONE', *, *, #29, .T. ) ;
#9 = UNCERTAINTY_MEASURE_WITH_UNIT (LENGTH_MEASURE( 1.000000000000000082E-05 ), #86, 'distance_accuracy_value', 'NONE');
#10 = SURFACE_STYLE_USAGE ( .BOTH. , #87 ) ;
#11 = DIRECTION ( 'NONE',  ( 0.000000000000000000, 0.000000000000000000, -1.000000000000000000 ) ) ;
#12 = EDGE_CURVE ( 'NONE', #45, #190, #333, .T. ) ;
#13 = CIRCLE ( 'NONE', #218, 10.00000000000000178 ) ;
#14 = COLOUR_RGB ( '',0.7921568627450980005, 0.8196078431372548767, 0.9333333333333333481 ) ;
#15 = DIRECTION ( 'NONE',  ( -1.000000000000000000, 0.000000000000000000, 0.000000000000000000 ) ) ;
#16 = PRESENTATION_STYLE_ASSIGNMENT (( #182 ) ) ;
#17 = PRESENTATION_STYLE_ASSIGNMENT (( #245 ) ) ;
#18 = FILL_AREA_STYLE_COLOUR ( '', #268 ) ;
#19 = SURFACE_STYLE_FILL_AREA ( #276 ) ;
#20 = DIRECTION ( 'NONE',  ( 0.000000000000000000, 0.000000000000000000, -1.000000000000000000 ) ) ;
#21 = ORIENTED_EDGE ( 'NONE', *, *, #179, .F. ) ;
#22 = PLANE ( 'NONE',  #209 ) ;
#23 =( GEOMETRIC_REPRESENTATION_CONTEXT ( 3 ) GLOBAL_UNCERTAINTY_ASSIGNED_CONTEXT ( ( #115 ) ) GLOBAL_UNIT_ASSIGNED_CONTEXT ( ( #305, #171, #340 ) ) REPRESENTATION_CONTEXT ( 'NONE', 'WORKASPACE' ) );
#24 = AXIS2_PLACEMENT_3D ( 'NONE', #84, #206, #169 ) ;
#25 = EDGE_LOOP ( 'NONE', ( #132, #279, #303, #361 ) ) ;
#26 = PLANE ( 'NONE',  #203 ) ;
#27 = FILL_AREA_STYLE ('',( #289 ) ) ;
#28 = SURFACE_STYLE_USAGE ( .BOTH. , #192 ) ;
#29 = EDGE_CURVE ( 'NONE', #190, #45, #104, .T. ) ;
#30 = CARTESIAN_POINT ( 'NONE',  ( -1.714505518806293652E-15, 89.00000000000000000, 0.000000000000000000 ) ) ;
#31 = PRESENTATION_LAYER_ASSIGNMENT (  '', '', ( #208 ) ) ;
#32 = DIRECTION ( 'NONE',  ( -1.576935716305902603E-16, 1.000000000000000000, -0.000000000000000000 ) ) ;
#33 = PRESENTATION_STYLE_ASSIGNMENT (( #28 ) ) ;
#34 = EDGE_CURVE ( 'NONE', #369, #140, #229, .T. ) ;
#35 =( GEOMETRIC_REPRESENTATION_CONTEXT ( 3 ) GLOBAL_UNCERTAINTY_ASSIGNED_CONTEXT ( ( #355 ) ) GLOBAL_UNIT_ASSIGNED_CONTEXT ( ( #254, #50, #356 ) ) REPRESENTATION_CONTEXT ( 'NONE', 'WORKASPACE' ) );
#36 = UNCERTAINTY_MEASURE_WITH_UNIT (LENGTH_MEASURE( 1.000000000000000082E-05 ), #283, 'distance_accuracy_value', 'NONE');
#37 = PRODUCT_CONTEXT ( 'NONE', #339, 'mechanical' ) ;
#38 = APPLICATION_PROTOCOL_DEFINITION ( 'draft international standard', 'automotive_design', 1998, #339 ) ;
#39 = CIRCLE ( 'NONE', #315, 10.00000000000000000 ) ;
#40 = MECHANICAL_DESIGN_GEOMETRIC_PRESENTATION_REPRESENTATION (  '', ( #208 ), #293 ) ;
#41 = STYLED_ITEM ( 'NONE', ( #16 ), #299 ) ;
#42 = FACE_OUTER_BOUND ( 'NONE', #337, .T. ) ;
#43 = ORIENTED_EDGE ( 'NONE', *, *, #12, .T. ) ;
#44 = CARTESIAN_POINT ( 'NONE',  ( 0.000000000000000000, 1.000000000000000000, 0.000000000000000000 ) ) ;
#45 = VERTEX_POINT ( 'NONE', #197 ) ;
#46 = DIRECTION ( 'NONE',  ( 0.000000000000000000, 0.000000000000000000, -1.000000000000000000 ) ) ;
#47 = ORIENTED_EDGE ( 'NONE', *, *, #179, .T. ) ;
#48 = CYLINDRICAL_SURFACE ( 'NONE', #24, 9.999999999999998224 ) ;
#49 = CARTESIAN_POINT ( 'NONE',  ( 0.000000000000000000, 30.00000000000000000, 0.000000000000000000 ) ) ;
#50 =( NAMED_UNIT ( * ) PLANE_ANGLE_UNIT ( ) SI_UNIT ( $, .RADIAN. ) );
#51 = SURFACE_STYLE_FILL_AREA ( #27 ) ;
#52 = DIRECTION ( 'NONE',  ( -1.000000000000000000, 0.000000000000000000, 0.000000000000000000 ) ) ;
#53 = DIRECTION ( 'NONE',  ( -1.000000000000000000, 0.000000000000000000, 0.000000000000000000 ) ) ;
#54 = VECTOR ( 'NONE', #66, 1000.000000000000000 ) ;
#55 = CARTESIAN_POINT ( 'NONE',  ( 0.000000000000000000, 0.000000000000000000, -10.00000000000000178 ) ) ;
#56 = MECHANICAL_DESIGN_GEOMETRIC_PRESENTATION_REPRESENTATION (  '', ( #41 ), #280 ) ;
#57 = CARTESIAN_POINT ( 'NONE',  ( 1.224646799147353256E-15, 1.000000000000000000, 10.00000000000000178 ) ) ;
#58 = FILL_AREA_STYLE ('',( #250 ) ) ;
#59 = SURFACE_SIDE_STYLE ('',( #195 ) ) ;
#60 = APPLICATION_CONTEXT ( 'automotive_design' ) ;
#61 = AXIS2_PLACEMENT_3D ( 'NONE', #282, #32, #53 ) ;
#62 = DIRECTION ( 'NONE',  ( -1.576935716305902603E-16, 1.000000000000000000, -0.000000000000000000 ) ) ;
#63 = EDGE_CURVE ( 'NONE', #136, #369, #39, .T. ) ;
#64 =( NAMED_UNIT ( * ) PLANE_ANGLE_UNIT ( ) SI_UNIT ( $, .RADIAN. ) );
#65 = FILL_AREA_STYLE ('',( #325 ) ) ;
#66 = DIRECTION ( 'NONE',  ( -0.000000000000000000, -1.000000000000000000, -0.000000000000000000 ) ) ;
#67 = DIRECTION ( 'NONE',  ( 0.000000000000000000, 0.000000000000000000, 1.000000000000000000 ) ) ;
#68 = ADVANCED_FACE ( 'NONE', ( #353 ), #317, .T. ) ;
#69 = DIRECTION ( 'NONE',  ( 0.000000000000000000, 0.000000000000000000, -1.000000000000000000 ) ) ;
#70 = ORIENTED_EDGE ( 'NONE', *, *, #266, .F. ) ;
#71 = PRODUCT ( '59475', '59475', '', ( #37 ) ) ;
#72 = PRESENTATION_LAYER_ASSIGNMENT (  '', '', ( #235 ) ) ;
#73 = ORIENTED_EDGE ( 'NONE', *, *, #174, .T. ) ;
#74 = DIRECTION ( 'NONE',  ( -0.000000000000000000, -1.000000000000000000, -0.000000000000000000 ) ) ;
#75 = CARTESIAN_POINT ( 'NONE',  ( 0.000000000000000000, 0.000000000000000000, 0.000000000000000000 ) ) ;
#76 = VERTEX_POINT ( 'NONE', #89 ) ;
#77 = PRODUCT_RELATED_PRODUCT_CATEGORY ( 'part', '', ( #71 ) ) ;
#78 =( NAMED_UNIT ( * ) PLANE_ANGLE_UNIT ( ) SI_UNIT ( $, .RADIAN. ) );
#79 = MECHANICAL_DESIGN_GEOMETRIC_PRESENTATION_REPRESENTATION (  '', ( #235 ), #105 ) ;
#80 = LINE ( 'NONE', #200, #161 ) ;
#81 = DIRECTION ( 'NONE',  ( -1.000000000000000000, -1.576935716305902603E-16, 0.000000000000000000 ) ) ;
#82 = AXIS2_PLACEMENT_3D ( 'NONE', #122, #67, #152 ) ;
#83 = CARTESIAN_POINT ( 'NONE',  ( 0.000000000000000000, 0.000000000000000000, 0.000000000000000000 ) ) ;
#84 = CARTESIAN_POINT ( 'NONE',  ( -1.714505518806293849E-15, 89.00000000000000000, 0.000000000000000000 ) ) ;
#85 = UNCERTAINTY_MEASURE_WITH_UNIT (LENGTH_MEASURE( 1.000000000000000082E-05 ), #265, 'distance_accuracy_value', 'NONE');
#86 =( LENGTH_UNIT ( ) NAMED_UNIT ( * ) SI_UNIT ( .MILLI., .METRE. ) );
#87 = SURFACE_SIDE_STYLE ('',( #19 ) ) ;
#88 = EDGE_CURVE ( 'NONE', #76, #366, #300, .T. ) ;
#89 = CARTESIAN_POINT ( 'NONE',  ( -9.999999999999985789, 30.00000000000000000, 0.000000000000000000 ) ) ;
#90 = CIRCLE ( 'NONE', #120, 10.00000000000000178 ) ;
#91 = COLOUR_RGB ( '',1.000000000000000000, 0.000000000000000000, 0.000000000000000000 ) ;
#92 = TOROIDAL_SURFACE ( 'NONE', #236, 9.000000000000001776, 1.000000000000000444 ) ;
#93 = CARTESIAN_POINT ( 'NONE',  ( 10.00000000000000000, 89.00000000000000000, 1.224646799147353256E-15 ) ) ;
#94 = DIRECTION ( 'NONE',  ( -1.000000000000000000, 0.000000000000000000, 0.000000000000000000 ) ) ;
#95 = EDGE_CURVE ( 'NONE', #227, #140, #90, .T. ) ;
#96 = PRESENTATION_LAYER_ASSIGNMENT (  '', '', ( #156 ) ) ;
#97 = TOROIDAL_SURFACE ( 'NONE', #307, 9.000000000000001776, 1.000000000000000444 ) ;
#98 =( NAMED_UNIT ( * ) PLANE_ANGLE_UNIT ( ) SI_UNIT ( $, .RADIAN. ) );
#99 = ORIENTED_EDGE ( 'NONE', *, *, #184, .F. ) ;
#100 = DIRECTION ( 'NONE',  ( -0.000000000000000000, -1.000000000000000000, -0.000000000000000000 ) ) ;
#101 = CARTESIAN_POINT ( 'NONE',  ( 0.000000000000000000, 1.000000000000000000, -10.00000000000000178 ) ) ;
#102 = EDGE_LOOP ( 'NONE', ( #99, #335, #47, #158 ) ) ;
#103 = EDGE_LOOP ( 'NONE', ( #70, #256 ) ) ;
#104 = CIRCLE ( 'NONE', #143, 9.000000000000001776 ) ;
#105 =( GEOMETRIC_REPRESENTATION_CONTEXT ( 3 ) GLOBAL_UNCERTAINTY_ASSIGNED_CONTEXT ( ( #321 ) ) GLOBAL_UNIT_ASSIGNED_CONTEXT ( ( #107, #164, #6 ) ) REPRESENTATION_CONTEXT ( 'NONE', 'WORKASPACE' ) );
#106 = SURFACE_STYLE_FILL_AREA ( #272 ) ;
#107 =( LENGTH_UNIT ( ) NAMED_UNIT ( * ) SI_UNIT ( .MILLI., .METRE. ) );
#108 = CARTESIAN_POINT ( 'NONE',  ( 0.000000000000000000, 0.000000000000000000, -9.000000000000001776 ) ) ;
#109 = ORIENTED_EDGE ( 'NONE', *, *, #216, .F. ) ;
#110 = DIRECTION ( 'NONE',  ( 1.000000000000000000, 1.576935716305902603E-16, 0.000000000000000000 ) ) ;
#111 = SURFACE_STYLE_USAGE ( .BOTH. , #252 ) ;
#112 = ORIENTED_EDGE ( 'NONE', *, *, #174, .F. ) ;
#113 = CARTESIAN_POINT ( 'NONE',  ( 0.000000000000000000, 30.00000000000000000, 0.000000000000000000 ) ) ;
#114 = FILL_AREA_STYLE ('',( #259 ) ) ;
#115 = UNCERTAINTY_MEASURE_WITH_UNIT (LENGTH_MEASURE( 1.000000000000000082E-05 ), #305, 'distance_accuracy_value', 'NONE');
#116 = PLANE ( 'NONE',  #194 ) ;
#117 = AXIS2_PLACEMENT_3D ( 'NONE', #360, #100, #69 ) ;
#118 = ORIENTED_EDGE ( 'NONE', *, *, #231, .T. ) ;
#119 = CARTESIAN_POINT ( 'NONE',  ( -10.00000000000000355, 89.00000000000000000, 0.000000000000000000 ) ) ;
#120 = AXIS2_PLACEMENT_3D ( 'NONE', #278, #135, #247 ) ;
#121 = PRESENTATION_LAYER_ASSIGNMENT (  '', '', ( #215 ) ) ;
#122 = CARTESIAN_POINT ( 'NONE',  ( 0.000000000000000000, 0.000000000000000000, 0.000000000000000000 ) ) ;
#123 = DIRECTION ( 'NONE',  ( -1.000000000000000000, 0.000000000000000000, 0.000000000000000000 ) ) ;
#124 = EDGE_LOOP ( 'NONE', ( #73, #310, #301, #253 ) ) ;
#125 = AXIS2_PLACEMENT_3D ( 'NONE', #314, #312, #257 ) ;
#126 = PRESENTATION_LAYER_ASSIGNMENT (  '', '', ( #187 ) ) ;
#127 = SURFACE_SIDE_STYLE ('',( #328 ) ) ;
#128 = EDGE_LOOP ( 'NONE', ( #251, #118 ) ) ;
#129 = EDGE_CURVE ( 'NONE', #140, #227, #13, .T. ) ;
#130 = DIRECTION ( 'NONE',  ( -1.576935716305902603E-16, 1.000000000000000000, -0.000000000000000000 ) ) ;
#131 = CARTESIAN_POINT ( 'NONE',  ( 1.224646799147353454E-15, 0.000000000000000000, 10.00000000000000178 ) ) ;
#132 = ORIENTED_EDGE ( 'NONE', *, *, #138, .F. ) ;
#133 =( GEOMETRIC_REPRESENTATION_CONTEXT ( 3 ) GLOBAL_UNCERTAINTY_ASSIGNED_CONTEXT ( ( #36 ) ) GLOBAL_UNIT_ASSIGNED_CONTEXT ( ( #283, #78, #286 ) ) REPRESENTATION_CONTEXT ( 'NONE', 'WORKASPACE' ) );
#134 = SURFACE_STYLE_FILL_AREA ( #58 ) ;
#135 = DIRECTION ( 'NONE',  ( -0.000000000000000000, -1.000000000000000000, -0.000000000000000000 ) ) ;
#136 = VERTEX_POINT ( 'NONE', #243 ) ;
#137 = SURFACE_SIDE_STYLE ('',( #134 ) ) ;
#138 = EDGE_CURVE ( 'NONE', #136, #227, #327, .T. ) ;
#139 = CARTESIAN_POINT ( 'NONE',  ( 1.102182119232617911E-15, 1.000000000000000000, 9.000000000000001776 ) ) ;
#140 = VERTEX_POINT ( 'NONE', #101 ) ;
#141 = SURFACE_STYLE_USAGE ( .BOTH. , #59 ) ;
#142 = FACE_OUTER_BOUND ( 'NONE', #217, .T. ) ;
#143 = AXIS2_PLACEMENT_3D ( 'NONE', #83, #287, #205 ) ;
#144 = PRESENTATION_LAYER_ASSIGNMENT (  '', '', ( #269 ) ) ;
#145 = DIRECTION ( 'NONE',  ( 1.000000000000000000, 0.000000000000000000, -1.224646799147353207E-16 ) ) ;
#146 = PRESENTATION_STYLE_ASSIGNMENT (( #10 ) ) ;
#147 = PRODUCT_DEFINITION ( 'UNKNOWN', '', #181, #173 ) ;
#148 =( GEOMETRIC_REPRESENTATION_CONTEXT ( 3 ) GLOBAL_UNCERTAINTY_ASSIGNED_CONTEXT ( ( #232 ) ) GLOBAL_UNIT_ASSIGNED_CONTEXT ( ( #362, #189, #159 ) ) REPRESENTATION_CONTEXT ( 'NONE', 'WORKASPACE' ) );
#149 = COLOUR_RGB ( '',1.000000000000000000, 0.000000000000000000, 0.000000000000000000 ) ;
#150 = SURFACE_STYLE_USAGE ( .BOTH. , #137 ) ;
#151 = CARTESIAN_POINT ( 'NONE',  ( 0.000000000000000000, 0.000000000000000000, 0.000000000000000000 ) ) ;
#152 = DIRECTION ( 'NONE',  ( 1.000000000000000000, 0.000000000000000000, 0.000000000000000000 ) ) ;
#153 = DIRECTION ( 'NONE',  ( -0.000000000000000000, -1.000000000000000000, -0.000000000000000000 ) ) ;
#154 = PRODUCT_DEFINITION_SHAPE ( 'NONE', 'NONE',  #147 ) ;
#155 = DIRECTION ( 'NONE',  ( -0.000000000000000000, -1.000000000000000000, -0.000000000000000000 ) ) ;
#156 = STYLED_ITEM ( 'NONE', ( #17 ), #166 ) ;
#157 = DIRECTION ( 'NONE',  ( 0.000000000000000000, 0.000000000000000000, -1.000000000000000000 ) ) ;
#158 = ORIENTED_EDGE ( 'NONE', *, *, #12, .F. ) ;
#159 =( NAMED_UNIT ( * ) SI_UNIT ( $, .STERADIAN. ) SOLID_ANGLE_UNIT ( ) );
#160 = CLOSED_SHELL ( 'NONE', ( #320, #199, #246, #329 ) ) ;
#161 = VECTOR ( 'NONE', #204, 1000.000000000000000 ) ;
#162 = FILL_AREA_STYLE_COLOUR ( '', #91 ) ;
#163 = DIRECTION ( 'NONE',  ( -0.000000000000000000, -1.000000000000000000, -0.000000000000000000 ) ) ;
#164 =( NAMED_UNIT ( * ) PLANE_ANGLE_UNIT ( ) SI_UNIT ( $, .RADIAN. ) );
#165 = ORIENTED_EDGE ( 'NONE', *, *, #88, .T. ) ;
#166 = ADVANCED_FACE ( 'NONE', ( #277 ), #22, .T. ) ;
#167 = AXIS2_PLACEMENT_3D ( 'NONE', #151, #155, #11 ) ;
#168 = AXIS2_PLACEMENT_3D ( 'NONE', #270, #271, #15 ) ;
#169 = DIRECTION ( 'NONE',  ( -1.000000000000000000, 0.000000000000000000, 0.000000000000000000 ) ) ;
#170 = FILL_AREA_STYLE ('',( #226 ) ) ;
#171 =( NAMED_UNIT ( * ) PLANE_ANGLE_UNIT ( ) SI_UNIT ( $, .RADIAN. ) );
#172 = SURFACE_SIDE_STYLE ('',( #51 ) ) ;
#173 = PRODUCT_DEFINITION_CONTEXT ( 'detailed design', #60, 'design' ) ;
#174 = EDGE_CURVE ( 'NONE', #76, #331, #7, .T. ) ;
#175 = CIRCLE ( 'NONE', #168, 10.00000000000000178 ) ;
#176 = DIRECTION ( 'NONE',  ( 0.000000000000000000, 0.000000000000000000, 1.000000000000000000 ) ) ;
#177 = MECHANICAL_DESIGN_GEOMETRIC_PRESENTATION_REPRESENTATION (  '', ( #187 ), #133 ) ;
#178 = SHAPE_DEFINITION_REPRESENTATION ( #154, #260 ) ;
#179 = EDGE_CURVE ( 'NONE', #140, #190, #225, .T. ) ;
#180 =( NAMED_UNIT ( * ) PLANE_ANGLE_UNIT ( ) SI_UNIT ( $, .RADIAN. ) );
#181 = PRODUCT_DEFINITION_FORMATION_WITH_SPECIFIED_SOURCE ( 'ANY', '', #71, .NOT_KNOWN. ) ;
#182 = SURFACE_STYLE_USAGE ( .BOTH. , #127 ) ;
#183 = SURFACE_SIDE_STYLE ('',( #106 ) ) ;
#184 = EDGE_CURVE ( 'NONE', #227, #45, #264, .T. ) ;
#185 =( NAMED_UNIT ( * ) SI_UNIT ( $, .STERADIAN. ) SOLID_ANGLE_UNIT ( ) );
#186 = ORIENTED_EDGE ( 'NONE', *, *, #138, .T. ) ;
#187 = STYLED_ITEM ( 'NONE', ( #228 ), #188 ) ;
#188 = MANIFOLD_SOLID_BREP ( 'Revolve - Cutting Edge', #239 ) ;
#189 =( NAMED_UNIT ( * ) PLANE_ANGLE_UNIT ( ) SI_UNIT ( $, .RADIAN. ) );
#190 = VERTEX_POINT ( 'NONE', #108 ) ;
#191 = FACE_OUTER_BOUND ( 'NONE', #124, .T. ) ;
#192 = SURFACE_SIDE_STYLE ('',( #351 ) ) ;
#193 = EDGE_LOOP ( 'NONE', ( #207, #275, #284, #21 ) ) ;
#194 = AXIS2_PLACEMENT_3D ( 'NONE', #349, #354, #81 ) ;
#195 = SURFACE_STYLE_FILL_AREA ( #170 ) ;
#196 = ORIENTED_EDGE ( 'NONE', *, *, #34, .F. ) ;
#197 = CARTESIAN_POINT ( 'NONE',  ( 1.163414459189985682E-15, 0.000000000000000000, 9.000000000000001776 ) ) ;
#198 = MANIFOLD_SOLID_BREP ( 'Revolve - Tool Body (Straight Shanked)', #160 ) ;
#199 = ADVANCED_FACE ( 'NONE', ( #142 ), #116, .F. ) ;
#200 = CARTESIAN_POINT ( 'NONE',  ( 9.999999999999996447, 89.00000000000000000, 1.224646799147353059E-15 ) ) ;
#201 = UNCERTAINTY_MEASURE_WITH_UNIT (LENGTH_MEASURE( 1.000000000000000082E-05 ), #238, 'distance_accuracy_value', 'NONE');
#202 = PRESENTATION_STYLE_ASSIGNMENT (( #285 ) ) ;
#203 = AXIS2_PLACEMENT_3D ( 'NONE', #367, #309, #110 ) ;
#204 = DIRECTION ( 'NONE',  ( -1.576935716305902603E-16, 1.000000000000000000, -0.000000000000000000 ) ) ;
#205 = DIRECTION ( 'NONE',  ( 0.000000000000000000, 0.000000000000000000, -1.000000000000000000 ) ) ;
#206 = DIRECTION ( 'NONE',  ( -1.576935716305902603E-16, 1.000000000000000000, -0.000000000000000000 ) ) ;
#207 = ORIENTED_EDGE ( 'NONE', *, *, #129, .T. ) ;
#208 = STYLED_ITEM ( 'NONE', ( #202 ), #68 ) ;
#209 = AXIS2_PLACEMENT_3D ( 'NONE', #113, #4, #255 ) ;
#210 = COLOUR_RGB ( '',1.000000000000000000, 0.000000000000000000, 0.000000000000000000 ) ;
#211 = CARTESIAN_POINT ( 'NONE',  ( 0.000000000000000000, 30.00000000000000000, -10.00000000000000000 ) ) ;
#212 =( NAMED_UNIT ( * ) SI_UNIT ( $, .STERADIAN. ) SOLID_ANGLE_UNIT ( ) );
#213 = FACE_OUTER_BOUND ( 'NONE', #193, .T. ) ;
#214 = CARTESIAN_POINT ( 'NONE',  ( -10.00000000000000000, 89.00000000000000000, 0.000000000000000000 ) ) ;
#215 = STYLED_ITEM ( 'NONE', ( #33 ), #198 ) ;
#216 = EDGE_CURVE ( 'NONE', #331, #240, #80, .T. ) ;
#217 = EDGE_LOOP ( 'NONE', ( #112, #306 ) ) ;
#218 = AXIS2_PLACEMENT_3D ( 'NONE', #44, #163, #20 ) ;
#219 = CIRCLE ( 'NONE', #3, 10.00000000000000000 ) ;
#220 = DIRECTION ( 'NONE',  ( 0.000000000000000000, 0.000000000000000000, -1.000000000000000000 ) ) ;
#221 = DIRECTION ( 'NONE',  ( -1.224646799147353454E-16, 0.000000000000000000, -1.000000000000000000 ) ) ;
#222 = ORIENTED_EDGE ( 'NONE', *, *, #231, .F. ) ;
#223 = CARTESIAN_POINT ( 'NONE',  ( 10.00000000000000000, 30.00000000000000000, 1.224646799147353256E-15 ) ) ;
#224 = ORIENTED_EDGE ( 'NONE', *, *, #266, .T. ) ;
#225 = CIRCLE ( 'NONE', #326, 1.000000000000000888 ) ;
#226 = FILL_AREA_STYLE_COLOUR ( '', #210 ) ;
#227 = VERTEX_POINT ( 'NONE', #57 ) ;
#228 = PRESENTATION_STYLE_ASSIGNMENT (( #111 ) ) ;
#229 = LINE ( 'NONE', #55, #273 ) ;
#230 = AXIS2_PLACEMENT_3D ( 'NONE', #30, #311, #52 ) ;
#231 = EDGE_CURVE ( 'NONE', #240, #366, #297, .T. ) ;
#232 = UNCERTAINTY_MEASURE_WITH_UNIT (LENGTH_MEASURE( 1.000000000000000082E-05 ), #362, 'distance_accuracy_value', 'NONE');
#233 = FACE_OUTER_BOUND ( 'NONE', #341, .T. ) ;
#234 = CIRCLE ( 'NONE', #332, 9.999999999999992895 ) ;
#235 = STYLED_ITEM ( 'NONE', ( #291 ), #313 ) ;
#236 = AXIS2_PLACEMENT_3D ( 'NONE', #296, #153, #157 ) ;
#237 =( NAMED_UNIT ( * ) SI_UNIT ( $, .STERADIAN. ) SOLID_ANGLE_UNIT ( ) );
#238 =( LENGTH_UNIT ( ) NAMED_UNIT ( * ) SI_UNIT ( .MILLI., .METRE. ) );
#239 = CLOSED_SHELL ( 'NONE', ( #68, #308, #313, #342, #299, #166 ) ) ;
#240 = VERTEX_POINT ( 'NONE', #93 ) ;
#241 =( LENGTH_UNIT ( ) NAMED_UNIT ( * ) SI_UNIT ( .MILLI., .METRE. ) );
#242 = CARTESIAN_POINT ( 'NONE',  ( 0.000000000000000000, 30.00000000000000000, 0.000000000000000000 ) ) ;
#243 = CARTESIAN_POINT ( 'NONE',  ( 1.224646799147353256E-15, 30.00000000000000000, 10.00000000000000000 ) ) ;
#244 = EDGE_LOOP ( 'NONE', ( #224, #186, #292, #196 ) ) ;
#245 = SURFACE_STYLE_USAGE ( .BOTH. , #183 ) ;
#246 = ADVANCED_FACE ( 'NONE', ( #233 ), #357, .T. ) ;
#247 = DIRECTION ( 'NONE',  ( 0.000000000000000000, 0.000000000000000000, -1.000000000000000000 ) ) ;
#248 = AXIS2_PLACEMENT_3D ( 'NONE', #324, #130, #123 ) ;
#249 =( GEOMETRIC_REPRESENTATION_CONTEXT ( 3 ) GLOBAL_UNCERTAINTY_ASSIGNED_CONTEXT ( ( #352 ) ) GLOBAL_UNIT_ASSIGNED_CONTEXT ( ( #241, #298, #212 ) ) REPRESENTATION_CONTEXT ( 'NONE', 'WORKASPACE' ) );
#250 = FILL_AREA_STYLE_COLOUR ( '', #149 ) ;
#251 = ORIENTED_EDGE ( 'NONE', *, *, #290, .T. ) ;
#252 = SURFACE_SIDE_STYLE ('',( #1 ) ) ;
#253 = ORIENTED_EDGE ( 'NONE', *, *, #88, .F. ) ;
#254 =( LENGTH_UNIT ( ) NAMED_UNIT ( * ) SI_UNIT ( .MILLI., .METRE. ) );
#255 = DIRECTION ( 'NONE',  ( 0.000000000000000000, -0.000000000000000000, 1.000000000000000000 ) ) ;
#256 = ORIENTED_EDGE ( 'NONE', *, *, #63, .F. ) ;
#257 = DIRECTION ( 'NONE',  ( 0.000000000000000000, 0.000000000000000000, -1.000000000000000000 ) ) ;
#258 = MECHANICAL_DESIGN_GEOMETRIC_PRESENTATION_REPRESENTATION (  '', ( #295 ), #336 ) ;
#259 = FILL_AREA_STYLE_COLOUR ( '', #14 ) ;
#260 = ADVANCED_BREP_SHAPE_REPRESENTATION ( '59475', ( #188, #198, #82 ), #249 ) ;
#261 = DIRECTION ( 'NONE',  ( -1.000000000000000000, 0.000000000000000000, 0.000000000000000000 ) ) ;
#262 = CARTESIAN_POINT ( 'NONE',  ( 0.000000000000000000, 1.000000000000000000, -9.000000000000001776 ) ) ;
#263 = VECTOR ( 'NONE', #334, 1000.000000000000000 ) ;
#264 = CIRCLE ( 'NONE', #274, 1.000000000000000888 ) ;
#265 =( LENGTH_UNIT ( ) NAMED_UNIT ( * ) SI_UNIT ( .MILLI., .METRE. ) );
#266 = EDGE_CURVE ( 'NONE', #369, #136, #219, .T. ) ;
#267 = APPLICATION_PROTOCOL_DEFINITION ( 'draft international standard', 'automotive_design', 1998, #60 ) ;
#268 = COLOUR_RGB ( '',1.000000000000000000, 0.000000000000000000, 0.000000000000000000 ) ;
#269 = STYLED_ITEM ( 'NONE', ( #146 ), #308 ) ;
#270 = CARTESIAN_POINT ( 'NONE',  ( -1.714505518806293652E-15, 89.00000000000000000, 0.000000000000000000 ) ) ;
#271 = DIRECTION ( 'NONE',  ( -1.576935716305902603E-16, 1.000000000000000000, -0.000000000000000000 ) ) ;
#272 = FILL_AREA_STYLE ('',( #18 ) ) ;
#273 = VECTOR ( 'NONE', #350, 1000.000000000000000 ) ;
#274 = AXIS2_PLACEMENT_3D ( 'NONE', #139, #145, #221 ) ;
#275 = ORIENTED_EDGE ( 'NONE', *, *, #184, .T. ) ;
#276 = FILL_AREA_STYLE ('',( #162 ) ) ;
#277 = FACE_OUTER_BOUND ( 'NONE', #103, .T. ) ;
#278 = CARTESIAN_POINT ( 'NONE',  ( 0.000000000000000000, 1.000000000000000000, 0.000000000000000000 ) ) ;
#279 = ORIENTED_EDGE ( 'NONE', *, *, #63, .T. ) ;
#280 =( GEOMETRIC_REPRESENTATION_CONTEXT ( 3 ) GLOBAL_UNCERTAINTY_ASSIGNED_CONTEXT ( ( #201 ) ) GLOBAL_UNIT_ASSIGNED_CONTEXT ( ( #238, #98, #185 ) ) REPRESENTATION_CONTEXT ( 'NONE', 'WORKASPACE' ) );
#281 = FACE_OUTER_BOUND ( 'NONE', #128, .T. ) ;
#282 = CARTESIAN_POINT ( 'NONE',  ( 7.589415207398531038E-15, 30.00000000000000000, 0.000000000000000000 ) ) ;
#283 =( LENGTH_UNIT ( ) NAMED_UNIT ( * ) SI_UNIT ( .MILLI., .METRE. ) );
#284 = ORIENTED_EDGE ( 'NONE', *, *, #29, .F. ) ;
#285 = SURFACE_STYLE_USAGE ( .BOTH. , #172 ) ;
#286 =( NAMED_UNIT ( * ) SI_UNIT ( $, .STERADIAN. ) SOLID_ANGLE_UNIT ( ) );
#287 = DIRECTION ( 'NONE',  ( -0.000000000000000000, -1.000000000000000000, -0.000000000000000000 ) ) ;
#288 = PRESENTATION_LAYER_ASSIGNMENT (  '', '', ( #295 ) ) ;
#289 = FILL_AREA_STYLE_COLOUR ( '', #2 ) ;
#290 = EDGE_CURVE ( 'NONE', #366, #240, #175, .T. ) ;
#291 = PRESENTATION_STYLE_ASSIGNMENT (( #150 ) ) ;
#292 = ORIENTED_EDGE ( 'NONE', *, *, #129, .F. ) ;
#293 =( GEOMETRIC_REPRESENTATION_CONTEXT ( 3 ) GLOBAL_UNCERTAINTY_ASSIGNED_CONTEXT ( ( #9 ) ) GLOBAL_UNIT_ASSIGNED_CONTEXT ( ( #86, #180, #237 ) ) REPRESENTATION_CONTEXT ( 'NONE', 'WORKASPACE' ) );
#294 = PRESENTATION_LAYER_ASSIGNMENT (  '', '', ( #41 ) ) ;
#295 = STYLED_ITEM ( 'NONE', ( #348 ), #342 ) ;
#296 = CARTESIAN_POINT ( 'NONE',  ( 0.000000000000000000, 1.000000000000000000, 0.000000000000000000 ) ) ;
#297 = CIRCLE ( 'NONE', #230, 10.00000000000000178 ) ;
#298 =( NAMED_UNIT ( * ) PLANE_ANGLE_UNIT ( ) SI_UNIT ( $, .RADIAN. ) );
#299 = ADVANCED_FACE ( 'NONE', ( #302 ), #330, .T. ) ;
#300 = LINE ( 'NONE', #214, #263 ) ;
#301 = ORIENTED_EDGE ( 'NONE', *, *, #290, .F. ) ;
#302 = FACE_OUTER_BOUND ( 'NONE', #25, .T. ) ;
#303 = ORIENTED_EDGE ( 'NONE', *, *, #34, .T. ) ;
#304 = ORIENTED_EDGE ( 'NONE', *, *, #358, .T. ) ;
#305 =( LENGTH_UNIT ( ) NAMED_UNIT ( * ) SI_UNIT ( .MILLI., .METRE. ) );
#306 = ORIENTED_EDGE ( 'NONE', *, *, #358, .F. ) ;
#307 = AXIS2_PLACEMENT_3D ( 'NONE', #318, #322, #220 ) ;
#308 = ADVANCED_FACE ( 'NONE', ( #213 ), #97, .T. ) ;
#309 = DIRECTION ( 'NONE',  ( 1.576935716305902603E-16, -1.000000000000000000, 0.000000000000000000 ) ) ;
#310 = ORIENTED_EDGE ( 'NONE', *, *, #216, .T. ) ;
#311 = DIRECTION ( 'NONE',  ( -1.576935716305902603E-16, 1.000000000000000000, -0.000000000000000000 ) ) ;
#312 = DIRECTION ( 'NONE',  ( -0.000000000000000000, -1.000000000000000000, -0.000000000000000000 ) ) ;
#313 = ADVANCED_FACE ( 'NONE', ( #42 ), #365, .T. ) ;
#314 = CARTESIAN_POINT ( 'NONE',  ( 0.000000000000000000, 0.000000000000000000, 0.000000000000000000 ) ) ;
#315 = AXIS2_PLACEMENT_3D ( 'NONE', #49, #345, #5 ) ;
#316 = AXIS2_PLACEMENT_3D ( 'NONE', #75, #338, #370 ) ;
#317 = CYLINDRICAL_SURFACE ( 'NONE', #167, 10.00000000000000178 ) ;
#318 = CARTESIAN_POINT ( 'NONE',  ( 0.000000000000000000, 1.000000000000000000, 0.000000000000000000 ) ) ;
#319 = CARTESIAN_POINT ( 'NONE',  ( 7.589415207398531038E-15, 30.00000000000000000, 0.000000000000000000 ) ) ;
#320 = ADVANCED_FACE ( 'NONE', ( #191 ), #48, .T. ) ;
#321 = UNCERTAINTY_MEASURE_WITH_UNIT (LENGTH_MEASURE( 1.000000000000000082E-05 ), #107, 'distance_accuracy_value', 'NONE');
#322 = DIRECTION ( 'NONE',  ( -0.000000000000000000, -1.000000000000000000, -0.000000000000000000 ) ) ;
#323 = MECHANICAL_DESIGN_GEOMETRIC_PRESENTATION_REPRESENTATION (  '', ( #215 ), #23 ) ;
#324 = CARTESIAN_POINT ( 'NONE',  ( -1.714505518806293849E-15, 89.00000000000000000, 0.000000000000000000 ) ) ;
#325 = FILL_AREA_STYLE_COLOUR ( '', #346 ) ;
#326 = AXIS2_PLACEMENT_3D ( 'NONE', #262, #261, #176 ) ;
#327 = LINE ( 'NONE', #131, #54 ) ;
#328 = SURFACE_STYLE_FILL_AREA ( #65 ) ;
#329 = ADVANCED_FACE ( 'NONE', ( #281 ), #26, .F. ) ;
#330 = CYLINDRICAL_SURFACE ( 'NONE', #117, 10.00000000000000178 ) ;
#331 = VERTEX_POINT ( 'NONE', #223 ) ;
#332 = AXIS2_PLACEMENT_3D ( 'NONE', #319, #62, #94 ) ;
#333 = CIRCLE ( 'NONE', #125, 9.000000000000001776 ) ;
#334 = DIRECTION ( 'NONE',  ( -1.576935716305902603E-16, 1.000000000000000000, -0.000000000000000000 ) ) ;
#335 = ORIENTED_EDGE ( 'NONE', *, *, #95, .T. ) ;
#336 =( GEOMETRIC_REPRESENTATION_CONTEXT ( 3 ) GLOBAL_UNCERTAINTY_ASSIGNED_CONTEXT ( ( #85 ) ) GLOBAL_UNIT_ASSIGNED_CONTEXT ( ( #265, #64, #359 ) ) REPRESENTATION_CONTEXT ( 'NONE', 'WORKASPACE' ) );
#337 = EDGE_LOOP ( 'NONE', ( #8, #43 ) ) ;
#338 = DIRECTION ( 'NONE',  ( 0.000000000000000000, -1.000000000000000000, -0.000000000000000000 ) ) ;
#339 = APPLICATION_CONTEXT ( 'automotive_design' ) ;
#340 =( NAMED_UNIT ( * ) SI_UNIT ( $, .STERADIAN. ) SOLID_ANGLE_UNIT ( ) );
#341 = EDGE_LOOP ( 'NONE', ( #109, #304, #165, #222 ) ) ;
#342 = ADVANCED_FACE ( 'NONE', ( #343 ), #92, .T. ) ;
#343 = FACE_OUTER_BOUND ( 'NONE', #102, .T. ) ;
#344 = FILL_AREA_STYLE_COLOUR ( '', #347 ) ;
#345 = DIRECTION ( 'NONE',  ( -0.000000000000000000, -1.000000000000000000, -0.000000000000000000 ) ) ;
#346 = COLOUR_RGB ( '',1.000000000000000000, 0.000000000000000000, 0.000000000000000000 ) ;
#347 = COLOUR_RGB ( '',0.7921568627450980005, 0.8196078431372548767, 0.9333333333333333481 ) ;
#348 = PRESENTATION_STYLE_ASSIGNMENT (( #141 ) ) ;
#349 = CARTESIAN_POINT ( 'NONE',  ( 7.589415207398531038E-15, 30.00000000000000000, 0.000000000000000000 ) ) ;
#350 = DIRECTION ( 'NONE',  ( -0.000000000000000000, -1.000000000000000000, -0.000000000000000000 ) ) ;
#351 = SURFACE_STYLE_FILL_AREA ( #114 ) ;
#352 = UNCERTAINTY_MEASURE_WITH_UNIT (LENGTH_MEASURE( 1.000000000000000082E-05 ), #241, 'distance_accuracy_value', 'NONE');
#353 = FACE_OUTER_BOUND ( 'NONE', #244, .T. ) ;
#354 = DIRECTION ( 'NONE',  ( -1.576935716305902603E-16, 1.000000000000000000, 0.000000000000000000 ) ) ;
#355 = UNCERTAINTY_MEASURE_WITH_UNIT (LENGTH_MEASURE( 1.000000000000000082E-05 ), #254, 'distance_accuracy_value', 'NONE');
#356 =( NAMED_UNIT ( * ) SI_UNIT ( $, .STERADIAN. ) SOLID_ANGLE_UNIT ( ) );
#357 = CYLINDRICAL_SURFACE ( 'NONE', #248, 9.999999999999998224 ) ;
#358 = EDGE_CURVE ( 'NONE', #331, #76, #234, .T. ) ;
#359 =( NAMED_UNIT ( * ) SI_UNIT ( $, .STERADIAN. ) SOLID_ANGLE_UNIT ( ) );
#360 = CARTESIAN_POINT ( 'NONE',  ( 0.000000000000000000, 0.000000000000000000, 0.000000000000000000 ) ) ;
#361 = ORIENTED_EDGE ( 'NONE', *, *, #95, .F. ) ;
#362 =( LENGTH_UNIT ( ) NAMED_UNIT ( * ) SI_UNIT ( .MILLI., .METRE. ) );
#363 = MECHANICAL_DESIGN_GEOMETRIC_PRESENTATION_REPRESENTATION (  '', ( #156 ), #148 ) ;
#364 = MECHANICAL_DESIGN_GEOMETRIC_PRESENTATION_REPRESENTATION (  '', ( #269 ), #35 ) ;
#365 = PLANE ( 'NONE',  #316 ) ;
#366 = VERTEX_POINT ( 'NONE', #119 ) ;
#367 = CARTESIAN_POINT ( 'NONE',  ( 10.00000000000000000, 89.00000000000000000, 0.000000000000000000 ) ) ;
#368 = FILL_AREA_STYLE ('',( #344 ) ) ;
#369 = VERTEX_POINT ( 'NONE', #211 ) ;
#370 = DIRECTION ( 'NONE',  ( 0.000000000000000000, 0.000000000000000000, -1.000000000000000000 ) ) ;
ENDSEC;
END-ISO-10303-21;
