ISO-10303-21;
HEADER;
FILE_DESCRIPTION (( 'STEP AP214' ),
    '1' );
FILE_NAME ('Micro_SME-009-2X.STEP',
    '2021-09-02T09:54:24',
    ( '' ),
    ( '' ),
    'SwSTEP 2.0',
    'SolidWorks 2020',
    '' );
FILE_SCHEMA (( 'AUTOMOTIVE_DESIGN' ));
ENDSEC;

DATA;
#1 = CARTESIAN_POINT ( 'NONE',  ( 0.04750000000000064587, 5.817072295950006528E-18, 1.500000000000000222 ) ) ;
#2 = DIRECTION ( 'NONE',  ( -0.1736481776669311639, 2.126576849575783008E-17, 0.9848077530122080203 ) ) ;
#3 = EDGE_CURVE ( 'NONE', #218, #129, #51, .T. ) ;
#4 = SURFACE_STYLE_FILL_AREA ( #34 ) ;
#5 = ORIENTED_EDGE ( 'NONE', *, *, #15, .F. ) ;
#6 = COLOUR_RGB ( '',0.7921568627450980005, 0.8196078431372548767, 0.9333333333333333481 ) ;
#7 =( LENGTH_UNIT ( ) NAMED_UNIT ( * ) SI_UNIT ( $, .METRE. ) );
#8 = EDGE_CURVE ( 'NONE', #134, #217, #47, .T. ) ;
#9 = ORIENTED_EDGE ( 'NONE', *, *, #106, .T. ) ;
#10 = ORIENTED_EDGE ( 'NONE', *, *, #230, .F. ) ;
#11 = CIRCLE ( 'NONE', #131, 0.04750000000000064587 ) ;
#12 = ORIENTED_EDGE ( 'NONE', *, *, #285, .F. ) ;
#13 = EDGE_CURVE ( 'NONE', #293, #212, #88, .T. ) ;
#14 = DIRECTION ( 'NONE',  ( 0.0000000000000000000, 0.0000000000000000000, 1.000000000000000000 ) ) ;
#15 = EDGE_CURVE ( 'NONE', #129, #200, #195, .T. ) ;
#16 = ORIENTED_EDGE ( 'NONE', *, *, #81, .T. ) ;
#17 = AXIS2_PLACEMENT_3D ( 'NONE', #157, #253, #101 ) ;
#18 = CARTESIAN_POINT ( 'NONE',  ( 0.0000000000000000000, 0.0000000000000000000, 1.485000000000000764 ) ) ;
#19 = CARTESIAN_POINT ( 'NONE',  ( 6.742170102956384843E-35, 0.0000000000000000000, 5.505399685566926447E-19 ) ) ;
#20 = CARTESIAN_POINT ( 'NONE',  ( 4.187800557085168523E-17, 0.0000000000000000000, 0.3419598663060138266 ) ) ;
#21 =( GEOMETRIC_REPRESENTATION_CONTEXT ( 3 ) GLOBAL_UNCERTAINTY_ASSIGNED_CONTEXT ( ( #97 ) ) GLOBAL_UNIT_ASSIGNED_CONTEXT ( ( #120, #234, #121 ) ) REPRESENTATION_CONTEXT ( 'NONE', 'WORKASPACE' ) );
#22 = DIRECTION ( 'NONE',  ( 0.0000000000000000000, 0.0000000000000000000, 1.000000000000000000 ) ) ;
#23 = EDGE_CURVE ( 'NONE', #217, #41, #246, .T. ) ;
#24 = CARTESIAN_POINT ( 'NONE',  ( 0.0000000000000000000, 0.0000000000000000000, 1.500000000000000222 ) ) ;
#25 = ADVANCED_FACE ( 'NONE', ( #152 ), #43, .T. ) ;
#26 = CARTESIAN_POINT ( 'NONE',  ( 0.0000000000000000000, 0.0000000000000000000, 1.500000000000000222 ) ) ;
#27 = APPLICATION_CONTEXT ( 'automotive_design' ) ;
#28 = AXIS2_PLACEMENT_3D ( 'NONE', #294, #85, #176 ) ;
#29 = DIRECTION ( 'NONE',  ( -1.000000000000000000, 0.0000000000000000000, 0.0000000000000000000 ) ) ;
#30 = DIMENSIONAL_EXPONENTS ( 1.000000000000000000, 0.0000000000000000000, 0.0000000000000000000, 0.0000000000000000000, 0.0000000000000000000, 0.0000000000000000000, 0.0000000000000000000 ) ;
#31 = AXIS2_PLACEMENT_3D ( 'NONE', #117, #206, #29 ) ;
#32 = DIRECTION ( 'NONE',  ( -1.000000000000000000, 0.0000000000000000000, 0.0000000000000000000 ) ) ;
#33 = LENGTH_MEASURE_WITH_UNIT ( LENGTH_MEASURE( 0.02539999999999999897 ), #146 );
#34 = FILL_AREA_STYLE ('',( #61 ) ) ;
#35 = AXIS2_PLACEMENT_3D ( 'NONE', #26, #298, #275 ) ;
#36 = CARTESIAN_POINT ( 'NONE',  ( 0.0000000000000000000, 0.0000000000000000000, 0.0000000000000000000 ) ) ;
#37 = EDGE_LOOP ( 'NONE', ( #151, #143, #241, #273 ) ) ;
#38 = EDGE_CURVE ( 'NONE', #249, #200, #139, .T. ) ;
#39 = VECTOR ( 'NONE', #269, 39.37007874015748143 ) ;
#40 = COLOUR_RGB ( '',0.7921568627450980005, 0.8196078431372548767, 0.9333333333333333481 ) ;
#41 = VERTEX_POINT ( 'NONE', #66 ) ;
#42 = DIRECTION ( 'NONE',  ( 0.0000000000000000000, 0.0000000000000000000, -1.000000000000000000 ) ) ;
#43 = CYLINDRICAL_SURFACE ( 'NONE', #232, 0.06250000000000002776 ) ;
#44 =( GEOMETRIC_REPRESENTATION_CONTEXT ( 3 ) GLOBAL_UNCERTAINTY_ASSIGNED_CONTEXT ( ( #256 ) ) GLOBAL_UNIT_ASSIGNED_CONTEXT ( ( #242, #127, #168 ) ) REPRESENTATION_CONTEXT ( 'NONE', 'WORKASPACE' ) );
#45 = EDGE_CURVE ( 'NONE', #200, #185, #247, .T. ) ;
#46 = CARTESIAN_POINT ( 'NONE',  ( -0.06250000000000002776, 0.0000000000000000000, 1.500000000000000222 ) ) ;
#47 = LINE ( 'NONE', #92, #161 ) ;
#48 = CYLINDRICAL_SURFACE ( 'NONE', #17, 0.004495499999999999496 ) ;
#49 = CARTESIAN_POINT ( 'NONE',  ( -0.06249999999999997918, 0.0000000000000000000, 0.3419598663060138266 ) ) ;
#50 = PLANE ( 'NONE',  #35 ) ;
#51 = CIRCLE ( 'NONE', #208, 0.04750000000000064587 ) ;
#52 = LINE ( 'NONE', #1, #108 ) ;
#53 = PRODUCT_DEFINITION_SHAPE ( 'NONE', 'NONE',  #77 ) ;
#54 = DIRECTION ( 'NONE',  ( -1.000000000000000000, 0.0000000000000000000, 0.0000000000000000000 ) ) ;
#55 = CONICAL_SURFACE ( 'NONE', #74, 0.004495500000000001231, 0.1745329251994338637 ) ;
#56 = ORIENTED_EDGE ( 'NONE', *, *, #23, .T. ) ;
#57 = SURFACE_STYLE_USAGE ( .BOTH. , #210 ) ;
#58 = EDGE_LOOP ( 'NONE', ( #236, #174, #169, #105 ) ) ;
#59 = EDGE_CURVE ( 'NONE', #41, #217, #67, .T. ) ;
#60 = CIRCLE ( 'NONE', #181, 0.06250000000000002776 ) ;
#61 = FILL_AREA_STYLE_COLOUR ( '', #6 ) ;
#62 = ORIENTED_EDGE ( 'NONE', *, *, #230, .T. ) ;
#63 = EDGE_LOOP ( 'NONE', ( #155, #133, #164, #199 ) ) ;
#64 = DIRECTION ( 'NONE',  ( -0.7071067811865462405, 0.0000000000000000000, -0.7071067811865486830 ) ) ;
#65 = CARTESIAN_POINT ( 'NONE',  ( -0.04750000000000064587, 0.0000000000000000000, 1.500000000000000222 ) ) ;
#66 = CARTESIAN_POINT ( 'NONE',  ( 0.004495499999999998629, 5.505399685566924522E-19, -1.184750211852384294E-34 ) ) ;
#67 = CIRCLE ( 'NONE', #149, 0.004495499999999998629 ) ;
#68 = PRODUCT_DEFINITION_FORMATION_WITH_SPECIFIED_SOURCE ( 'ANY', '', #281, .NOT_KNOWN. ) ;
#69 = ORIENTED_EDGE ( 'NONE', *, *, #3, .T. ) ;
#70 = EDGE_CURVE ( 'NONE', #218, #249, #52, .T. ) ;
#71 = DIRECTION ( 'NONE',  ( 1.000000000000000000, 0.0000000000000000000, 0.0000000000000000000 ) ) ;
#72 = ADVANCED_FACE ( 'NONE', ( #75 ), #48, .T. ) ;
#73 = CARTESIAN_POINT ( 'NONE',  ( 0.04750000000000064587, 6.735557395310483192E-18, 1.500000000000000222 ) ) ;
#74 = AXIS2_PLACEMENT_3D ( 'NONE', #135, #209, #184 ) ;
#75 = FACE_OUTER_BOUND ( 'NONE', #58, .T. ) ;
#76 = CARTESIAN_POINT ( 'NONE',  ( 1.592040838891559496E-18, 0.0000000000000000000, 0.01299999999999999767 ) ) ;
#77 = PRODUCT_DEFINITION ( 'UNKNOWN', '', #68, #102 ) ;
#78 = CARTESIAN_POINT ( 'NONE',  ( 0.06250000000000002776, 7.654042494670959086E-18, 1.500000000000000222 ) ) ;
#79 =( CONVERSION_BASED_UNIT ( 'INCH', #280 ) LENGTH_UNIT ( ) NAMED_UNIT ( #183 ) );
#80 = CARTESIAN_POINT ( 'NONE',  ( 4.187800557085168523E-17, 0.0000000000000000000, 0.3419598663060138266 ) ) ;
#81 = EDGE_CURVE ( 'NONE', #134, #293, #239, .T. ) ;
#82 = ORIENTED_EDGE ( 'NONE', *, *, #147, .T. ) ;
#83 = VECTOR ( 'NONE', #64, 39.37007874015748854 ) ;
#84 = PRESENTATION_STYLE_ASSIGNMENT (( #57 ) ) ;
#85 = DIRECTION ( 'NONE',  ( -1.224646799147353700E-16, -0.0000000000000000000, -1.000000000000000000 ) ) ;
#86 = CARTESIAN_POINT ( 'NONE',  ( 0.0000000000000000000, 0.0000000000000000000, 1.500000000000000222 ) ) ;
#87 = SURFACE_SIDE_STYLE ('',( #263 ) ) ;
#88 = LINE ( 'NONE', #290, #39 ) ;
#89 = SHAPE_DEFINITION_REPRESENTATION ( #53, #170 ) ;
#90 = ORIENTED_EDGE ( 'NONE', *, *, #205, .F. ) ;
#91 = CARTESIAN_POINT ( 'NONE',  ( 0.0000000000000000000, 0.0000000000000000000, 0.0000000000000000000 ) ) ;
#92 = CARTESIAN_POINT ( 'NONE',  ( -0.004495499999999999496, 0.0000000000000000000, 5.505399685566927410E-19 ) ) ;
#93 = ADVANCED_FACE ( 'NONE', ( #296 ), #228, .T. ) ;
#94 = VECTOR ( 'NONE', #274, 39.37007874015748143 ) ;
#95 = DIRECTION ( 'NONE',  ( -1.224646799147353700E-16, -0.0000000000000000000, -1.000000000000000000 ) ) ;
#96 = DIRECTION ( 'NONE',  ( 0.0000000000000000000, 0.0000000000000000000, -1.000000000000000000 ) ) ;
#97 = UNCERTAINTY_MEASURE_WITH_UNIT (LENGTH_MEASURE( 1.000000000000000082E-05 ), #120, 'distance_accuracy_value', 'NONE');
#98 = CARTESIAN_POINT ( 'NONE',  ( -0.004495499999999999496, 4.102291231613827213E-18, 0.01299999999999999767 ) ) ;
#99 = CONICAL_SURFACE ( 'NONE', #255, 0.04750000000000064587, 0.7853981633974466137 ) ;
#100 = ADVANCED_FACE ( 'NONE', ( #158 ), #159, .T. ) ;
#101 = DIRECTION ( 'NONE',  ( -1.000000000000000000, 0.0000000000000000000, 1.224646799147353700E-16 ) ) ;
#102 = PRODUCT_DEFINITION_CONTEXT ( 'detailed design', #27, 'design' ) ;
#103 = DIRECTION ( 'NONE',  ( 0.0000000000000000000, 0.0000000000000000000, 1.000000000000000000 ) ) ;
#104 = AXIS2_PLACEMENT_3D ( 'NONE', #187, #140, #32 ) ;
#105 = ORIENTED_EDGE ( 'NONE', *, *, #59, .F. ) ;
#106 = EDGE_CURVE ( 'NONE', #129, #218, #11, .T. ) ;
#107 = CARTESIAN_POINT ( 'NONE',  ( -0.004495499999999999496, 5.505399685566927410E-19, 0.01299999999999999767 ) ) ;
#108 = VECTOR ( 'NONE', #118, 39.37007874015748854 ) ;
#109 = EDGE_LOOP ( 'NONE', ( #82, #153, #196, #193 ) ) ;
#110 = DIRECTION ( 'NONE',  ( 1.000000000000000000, 0.0000000000000000000, 0.0000000000000000000 ) ) ;
#111 = ORIENTED_EDGE ( 'NONE', *, *, #225, .T. ) ;
#112 = DIRECTION ( 'NONE',  ( 1.000000000000000000, 0.0000000000000000000, 0.0000000000000000000 ) ) ;
#113 = SURFACE_STYLE_USAGE ( .BOTH. , #87 ) ;
#114 = DIRECTION ( 'NONE',  ( -1.224646799147353700E-16, -0.0000000000000000000, -1.000000000000000000 ) ) ;
#115 = DIRECTION ( 'NONE',  ( -1.224646799147353700E-16, -0.0000000000000000000, -1.000000000000000000 ) ) ;
#116 = FACE_OUTER_BOUND ( 'NONE', #188, .T. ) ;
#117 = CARTESIAN_POINT ( 'NONE',  ( 0.0000000000000000000, 0.0000000000000000000, 1.500000000000000222 ) ) ;
#118 = DIRECTION ( 'NONE',  ( 0.7071067811865462405, 8.659560562354916834E-17, -0.7071067811865486830 ) ) ;
#119 = FACE_OUTER_BOUND ( 'NONE', #266, .T. ) ;
#120 =( CONVERSION_BASED_UNIT ( 'INCH', #33 ) LENGTH_UNIT ( ) NAMED_UNIT ( #30 ) );
#121 =( NAMED_UNIT ( * ) SI_UNIT ( $, .STERADIAN. ) SOLID_ANGLE_UNIT ( ) );
#122 = AXIS2_PLACEMENT_3D ( 'NONE', #76, #95, #54 ) ;
#123 = FACE_OUTER_BOUND ( 'NONE', #258, .T. ) ;
#124 = ADVANCED_FACE ( 'NONE', ( #116 ), #50, .T. ) ;
#125 = DIRECTION ( 'NONE',  ( 1.000000000000000000, 0.0000000000000000000, 0.0000000000000000000 ) ) ;
#126 = AXIS2_PLACEMENT_3D ( 'NONE', #182, #179, #207 ) ;
#127 =( NAMED_UNIT ( * ) PLANE_ANGLE_UNIT ( ) SI_UNIT ( $, .RADIAN. ) );
#128 = EDGE_LOOP ( 'NONE', ( #16, #111, #173, #189 ) ) ;
#129 = VERTEX_POINT ( 'NONE', #202 ) ;
#130 = DIRECTION ( 'NONE',  ( -0.0000000000000000000, -0.0000000000000000000, -1.000000000000000000 ) ) ;
#131 = AXIS2_PLACEMENT_3D ( 'NONE', #24, #22, #71 ) ;
#132 = PRESENTATION_STYLE_ASSIGNMENT (( #113 ) ) ;
#133 = ORIENTED_EDGE ( 'NONE', *, *, #227, .T. ) ;
#134 = VERTEX_POINT ( 'NONE', #98 ) ;
#135 = CARTESIAN_POINT ( 'NONE',  ( 1.592040838891559496E-18, 0.0000000000000000000, 0.01299999999999999767 ) ) ;
#136 = CIRCLE ( 'NONE', #104, 0.004495500000000001231 ) ;
#137 = FACE_OUTER_BOUND ( 'NONE', #37, .T. ) ;
#138 = DIRECTION ( 'NONE',  ( 0.0000000000000000000, 0.0000000000000000000, -1.000000000000000000 ) ) ;
#139 = CIRCLE ( 'NONE', #260, 0.06250000000000002776 ) ;
#140 = DIRECTION ( 'NONE',  ( -1.224646799147353700E-16, -0.0000000000000000000, -1.000000000000000000 ) ) ;
#141 = PRODUCT_RELATED_PRODUCT_CATEGORY ( 'part', '', ( #281 ) ) ;
#142 = DIRECTION ( 'NONE',  ( 1.000000000000000000, 0.0000000000000000000, -0.0000000000000000000 ) ) ;
#143 = ORIENTED_EDGE ( 'NONE', *, *, #106, .F. ) ;
#144 = STYLED_ITEM ( 'NONE', ( #132 ), #170 ) ;
#145 = CARTESIAN_POINT ( 'NONE',  ( 0.004495500000000002966, 0.0000000000000000000, 0.01299999999999999767 ) ) ;
#146 =( LENGTH_UNIT ( ) NAMED_UNIT ( * ) SI_UNIT ( $, .METRE. ) );
#147 = EDGE_CURVE ( 'NONE', #200, #249, #172, .T. ) ;
#148 = ORIENTED_EDGE ( 'NONE', *, *, #45, .T. ) ;
#149 = AXIS2_PLACEMENT_3D ( 'NONE', #19, #114, #201 ) ;
#150 = DIRECTION ( 'NONE',  ( 0.0000000000000000000, 0.0000000000000000000, 1.000000000000000000 ) ) ;
#151 = ORIENTED_EDGE ( 'NONE', *, *, #70, .F. ) ;
#152 = FACE_OUTER_BOUND ( 'NONE', #288, .T. ) ;
#153 = ORIENTED_EDGE ( 'NONE', *, *, #205, .T. ) ;
#154 = MECHANICAL_DESIGN_GEOMETRIC_PRESENTATION_REPRESENTATION (  '', ( #144 ), #44 ) ;
#155 = ORIENTED_EDGE ( 'NONE', *, *, #81, .F. ) ;
#156 = DIRECTION ( 'NONE',  ( 1.000000000000000000, 0.0000000000000000000, 0.0000000000000000000 ) ) ;
#157 = CARTESIAN_POINT ( 'NONE',  ( 0.0000000000000000000, 0.0000000000000000000, 0.0000000000000000000 ) ) ;
#158 = FACE_OUTER_BOUND ( 'NONE', #109, .T. ) ;
#159 = CYLINDRICAL_SURFACE ( 'NONE', #31, 0.06250000000000002776 ) ;
#160 = DIRECTION ( 'NONE',  ( -0.0000000000000000000, -0.0000000000000000000, -1.000000000000000000 ) ) ;
#161 = VECTOR ( 'NONE', #271, 39.37007874015748143 ) ;
#162 = AXIS2_PLACEMENT_3D ( 'NONE', #238, #214, #163 ) ;
#163 = DIRECTION ( 'NONE',  ( 1.000000000000000000, 0.0000000000000000000, 0.0000000000000000000 ) ) ;
#164 = ORIENTED_EDGE ( 'NONE', *, *, #213, .T. ) ;
#165 = DIRECTION ( 'NONE',  ( -1.224646799147353700E-16, -0.0000000000000000000, -1.000000000000000000 ) ) ;
#166 = PRESENTATION_LAYER_ASSIGNMENT (  '', '', ( #144 ) ) ;
#167 = DIRECTION ( 'NONE',  ( -1.000000000000000000, 0.0000000000000000000, 0.0000000000000000000 ) ) ;
#168 =( NAMED_UNIT ( * ) SI_UNIT ( $, .STERADIAN. ) SOLID_ANGLE_UNIT ( ) );
#169 = ORIENTED_EDGE ( 'NONE', *, *, #8, .T. ) ;
#170 = ADVANCED_BREP_SHAPE_REPRESENTATION ( 'Micro_SME-009-2X', ( #267, #265 ), #276 ) ;
#171 = EDGE_LOOP ( 'NONE', ( #56, #244 ) ) ;
#172 = CIRCLE ( 'NONE', #203, 0.06250000000000002776 ) ;
#173 = ORIENTED_EDGE ( 'NONE', *, *, #23, .F. ) ;
#174 = ORIENTED_EDGE ( 'NONE', *, *, #285, .T. ) ;
#175 = ADVANCED_FACE ( 'NONE', ( #137 ), #252, .T. ) ;
#176 = DIRECTION ( 'NONE',  ( -1.000000000000000000, 0.0000000000000000000, 1.224646799147353700E-16 ) ) ;
#177 = AXIS2_PLACEMENT_3D ( 'NONE', #20, #115, #156 ) ;
#178 = LINE ( 'NONE', #78, #272 ) ;
#179 = DIRECTION ( 'NONE',  ( -1.224646799147353700E-16, -0.0000000000000000000, -1.000000000000000000 ) ) ;
#180 = CARTESIAN_POINT ( 'NONE',  ( 0.0000000000000000000, 0.0000000000000000000, 1.485000000000000764 ) ) ;
#181 = AXIS2_PLACEMENT_3D ( 'NONE', #80, #165, #216 ) ;
#182 = CARTESIAN_POINT ( 'NONE',  ( 0.0000000000000000000, 0.0000000000000000000, 0.0000000000000000000 ) ) ;
#183 = DIMENSIONAL_EXPONENTS ( 1.000000000000000000, 0.0000000000000000000, 0.0000000000000000000, 0.0000000000000000000, 0.0000000000000000000, 0.0000000000000000000, 0.0000000000000000000 ) ;
#184 = DIRECTION ( 'NONE',  ( 1.000000000000000000, 0.0000000000000000000, 0.0000000000000000000 ) ) ;
#185 = VERTEX_POINT ( 'NONE', #49 ) ;
#186 = VECTOR ( 'NONE', #2, 39.37007874015747433 ) ;
#187 = CARTESIAN_POINT ( 'NONE',  ( 1.592040838891559496E-18, 0.0000000000000000000, 0.01299999999999999767 ) ) ;
#188 = EDGE_LOOP ( 'NONE', ( #9, #69 ) ) ;
#189 = ORIENTED_EDGE ( 'NONE', *, *, #8, .F. ) ;
#190 = ORIENTED_EDGE ( 'NONE', *, *, #227, .F. ) ;
#191 = MECHANICAL_DESIGN_GEOMETRIC_PRESENTATION_REPRESENTATION (  '', ( #220 ), #21 ) ;
#192 = FACE_OUTER_BOUND ( 'NONE', #63, .T. ) ;
#193 = ORIENTED_EDGE ( 'NONE', *, *, #45, .F. ) ;
#194 = ADVANCED_FACE ( 'NONE', ( #119 ), #55, .T. ) ;
#195 = LINE ( 'NONE', #65, #83 ) ;
#196 = ORIENTED_EDGE ( 'NONE', *, *, #213, .F. ) ;
#197 = APPLICATION_PROTOCOL_DEFINITION ( 'draft international standard', 'automotive_design', 1998, #27 ) ;
#198 = AXIS2_PLACEMENT_3D ( 'NONE', #231, #96, #229 ) ;
#199 = ORIENTED_EDGE ( 'NONE', *, *, #13, .F. ) ;
#200 = VERTEX_POINT ( 'NONE', #278 ) ;
#201 = DIRECTION ( 'NONE',  ( -1.000000000000000000, 0.0000000000000000000, 1.224646799147353700E-16 ) ) ;
#202 = CARTESIAN_POINT ( 'NONE',  ( -0.04750000000000064587, 0.0000000000000000000, 1.500000000000000222 ) ) ;
#203 = AXIS2_PLACEMENT_3D ( 'NONE', #180, #138, #224 ) ;
#204 = LINE ( 'NONE', #297, #94 ) ;
#205 = EDGE_CURVE ( 'NONE', #249, #212, #178, .T. ) ;
#206 = DIRECTION ( 'NONE',  ( -0.0000000000000000000, -0.0000000000000000000, -1.000000000000000000 ) ) ;
#207 = DIRECTION ( 'NONE',  ( -1.000000000000000000, 0.0000000000000000000, 1.224646799147353700E-16 ) ) ;
#208 = AXIS2_PLACEMENT_3D ( 'NONE', #245, #14, #110 ) ;
#209 = DIRECTION ( 'NONE',  ( 1.224646799147353700E-16, 0.0000000000000000000, 1.000000000000000000 ) ) ;
#210 = SURFACE_SIDE_STYLE ('',( #4 ) ) ;
#211 = DIMENSIONAL_EXPONENTS ( 1.000000000000000000, 0.0000000000000000000, 0.0000000000000000000, 0.0000000000000000000, 0.0000000000000000000, 0.0000000000000000000, 0.0000000000000000000 ) ;
#212 = VERTEX_POINT ( 'NONE', #254 ) ;
#213 = EDGE_CURVE ( 'NONE', #185, #212, #291, .T. ) ;
#214 = DIRECTION ( 'NONE',  ( 1.224646799147353700E-16, 0.0000000000000000000, 1.000000000000000000 ) ) ;
#215 = ORIENTED_EDGE ( 'NONE', *, *, #3, .F. ) ;
#216 = DIRECTION ( 'NONE',  ( 1.000000000000000000, 0.0000000000000000000, 0.0000000000000000000 ) ) ;
#217 = VERTEX_POINT ( 'NONE', #250 ) ;
#218 = VERTEX_POINT ( 'NONE', #73 ) ;
#219 = ORIENTED_EDGE ( 'NONE', *, *, #38, .T. ) ;
#220 = STYLED_ITEM ( 'NONE', ( #84 ), #267 ) ;
#221 = DIRECTION ( 'NONE',  ( -1.000000000000000000, 0.0000000000000000000, 0.0000000000000000000 ) ) ;
#222 = LENGTH_MEASURE_WITH_UNIT ( LENGTH_MEASURE( 0.02539999999999999897 ), #240 );
#223 = DIRECTION ( 'NONE',  ( -0.0000000000000000000, -0.0000000000000000000, -1.000000000000000000 ) ) ;
#224 = DIRECTION ( 'NONE',  ( 1.000000000000000000, 0.0000000000000000000, 0.0000000000000000000 ) ) ;
#225 = EDGE_CURVE ( 'NONE', #293, #41, #204, .T. ) ;
#226 = VECTOR ( 'NONE', #223, 39.37007874015748143 ) ;
#227 = EDGE_CURVE ( 'NONE', #134, #185, #251, .T. ) ;
#228 = CYLINDRICAL_SURFACE ( 'NONE', #126, 0.004495499999999999496 ) ;
#229 = DIRECTION ( 'NONE',  ( -1.000000000000000000, 0.0000000000000000000, 0.0000000000000000000 ) ) ;
#230 = EDGE_CURVE ( 'NONE', #212, #185, #60, .T. ) ;
#231 = CARTESIAN_POINT ( 'NONE',  ( 0.0000000000000000000, 0.0000000000000000000, 1.500000000000000222 ) ) ;
#232 = AXIS2_PLACEMENT_3D ( 'NONE', #86, #130, #221 ) ;
#233 = UNCERTAINTY_MEASURE_WITH_UNIT (LENGTH_MEASURE( 1.000000000000000082E-05 ), #79, 'distance_accuracy_value', 'NONE');
#234 =( NAMED_UNIT ( * ) PLANE_ANGLE_UNIT ( ) SI_UNIT ( $, .RADIAN. ) );
#235 = DIRECTION ( 'NONE',  ( 0.0000000000000000000, 0.0000000000000000000, -1.000000000000000000 ) ) ;
#236 = ORIENTED_EDGE ( 'NONE', *, *, #225, .F. ) ;
#237 = AXIS2_PLACEMENT_3D ( 'NONE', #36, #103, #142 ) ;
#238 = CARTESIAN_POINT ( 'NONE',  ( 1.592040838891559496E-18, 0.0000000000000000000, 0.01299999999999999767 ) ) ;
#239 = CIRCLE ( 'NONE', #122, 0.004495500000000001231 ) ;
#240 =( LENGTH_UNIT ( ) NAMED_UNIT ( * ) SI_UNIT ( $, .METRE. ) );
#241 = ORIENTED_EDGE ( 'NONE', *, *, #15, .T. ) ;
#242 =( CONVERSION_BASED_UNIT ( 'INCH', #222 ) LENGTH_UNIT ( ) NAMED_UNIT ( #211 ) );
#243 = CLOSED_SHELL ( 'NONE', ( #93, #270, #248, #100, #25, #124, #175, #194, #72, #279 ) ) ;
#244 = ORIENTED_EDGE ( 'NONE', *, *, #59, .T. ) ;
#245 = CARTESIAN_POINT ( 'NONE',  ( 0.0000000000000000000, 0.0000000000000000000, 1.500000000000000222 ) ) ;
#246 = CIRCLE ( 'NONE', #28, 0.004495499999999998629 ) ;
#247 = LINE ( 'NONE', #46, #226 ) ;
#248 = ADVANCED_FACE ( 'NONE', ( #123 ), #99, .T. ) ;
#249 = VERTEX_POINT ( 'NONE', #261 ) ;
#250 = CARTESIAN_POINT ( 'NONE',  ( -0.004495499999999998629, 0.0000000000000000000, 1.101079937113385289E-18 ) ) ;
#251 = LINE ( 'NONE', #107, #186 ) ;
#252 = CONICAL_SURFACE ( 'NONE', #198, 0.04750000000000064587, 0.7853981633974466137 ) ;
#253 = DIRECTION ( 'NONE',  ( -1.224646799147353700E-16, -0.0000000000000000000, -1.000000000000000000 ) ) ;
#254 = CARTESIAN_POINT ( 'NONE',  ( 0.06250000000000006939, 7.654042494670963708E-18, 0.3419598663060138266 ) ) ;
#255 = AXIS2_PLACEMENT_3D ( 'NONE', #259, #235, #167 ) ;
#256 = UNCERTAINTY_MEASURE_WITH_UNIT (LENGTH_MEASURE( 1.000000000000000082E-05 ), #242, 'distance_accuracy_value', 'NONE');
#257 =( NAMED_UNIT ( * ) PLANE_ANGLE_UNIT ( ) SI_UNIT ( $, .RADIAN. ) );
#258 = EDGE_LOOP ( 'NONE', ( #215, #264, #292, #5 ) ) ;
#259 = CARTESIAN_POINT ( 'NONE',  ( 0.0000000000000000000, 0.0000000000000000000, 1.500000000000000222 ) ) ;
#260 = AXIS2_PLACEMENT_3D ( 'NONE', #18, #42, #112 ) ;
#261 = CARTESIAN_POINT ( 'NONE',  ( 0.06250000000000002776, 7.654042494670959086E-18, 1.485000000000000764 ) ) ;
#262 = ORIENTED_EDGE ( 'NONE', *, *, #13, .T. ) ;
#263 = SURFACE_STYLE_FILL_AREA ( #289 ) ;
#264 = ORIENTED_EDGE ( 'NONE', *, *, #70, .T. ) ;
#265 = AXIS2_PLACEMENT_3D ( 'NONE', #91, #150, #125 ) ;
#266 = EDGE_LOOP ( 'NONE', ( #190, #12, #262, #62 ) ) ;
#267 = MANIFOLD_SOLID_BREP ( 'Cut-Revolve1', #243 ) ;
#268 = PRODUCT_CONTEXT ( 'NONE', #277, 'mechanical' ) ;
#269 = DIRECTION ( 'NONE',  ( 0.1736481776669313581, 0.0000000000000000000, 0.9848077530122077983 ) ) ;
#270 = ADVANCED_FACE ( 'NONE', ( #192 ), #295, .T. ) ;
#271 = DIRECTION ( 'NONE',  ( -1.224646799147353700E-16, -0.0000000000000000000, -1.000000000000000000 ) ) ;
#272 = VECTOR ( 'NONE', #160, 39.37007874015748143 ) ;
#273 = ORIENTED_EDGE ( 'NONE', *, *, #38, .F. ) ;
#274 = DIRECTION ( 'NONE',  ( -1.224646799147353700E-16, -0.0000000000000000000, -1.000000000000000000 ) ) ;
#275 = DIRECTION ( 'NONE',  ( 1.000000000000000000, 0.0000000000000000000, -0.0000000000000000000 ) ) ;
#276 =( GEOMETRIC_REPRESENTATION_CONTEXT ( 3 ) GLOBAL_UNCERTAINTY_ASSIGNED_CONTEXT ( ( #233 ) ) GLOBAL_UNIT_ASSIGNED_CONTEXT ( ( #79, #257, #282 ) ) REPRESENTATION_CONTEXT ( 'NONE', 'WORKASPACE' ) );
#277 = APPLICATION_CONTEXT ( 'automotive_design' ) ;
#278 = CARTESIAN_POINT ( 'NONE',  ( -0.06250000000000002776, 0.0000000000000000000, 1.485000000000000764 ) ) ;
#279 = ADVANCED_FACE ( 'NONE', ( #283 ), #286, .F. ) ;
#280 = LENGTH_MEASURE_WITH_UNIT ( LENGTH_MEASURE( 0.02539999999999999897 ), #7 );
#281 = PRODUCT ( 'Micro_SME-009-2X', 'Micro_SME-009-2X', '', ( #268 ) ) ;
#282 =( NAMED_UNIT ( * ) SI_UNIT ( $, .STERADIAN. ) SOLID_ANGLE_UNIT ( ) );
#283 = FACE_OUTER_BOUND ( 'NONE', #171, .T. ) ;
#284 = APPLICATION_PROTOCOL_DEFINITION ( 'draft international standard', 'automotive_design', 1998, #277 ) ;
#285 = EDGE_CURVE ( 'NONE', #293, #134, #136, .T. ) ;
#286 = PLANE ( 'NONE',  #237 ) ;
#287 = FILL_AREA_STYLE_COLOUR ( '', #40 ) ;
#288 = EDGE_LOOP ( 'NONE', ( #90, #219, #148, #10 ) ) ;
#289 = FILL_AREA_STYLE ('',( #287 ) ) ;
#290 = CARTESIAN_POINT ( 'NONE',  ( 0.004495500000000002966, 0.0000000000000000000, 0.01299999999999999767 ) ) ;
#291 = CIRCLE ( 'NONE', #177, 0.06250000000000002776 ) ;
#292 = ORIENTED_EDGE ( 'NONE', *, *, #147, .F. ) ;
#293 = VERTEX_POINT ( 'NONE', #145 ) ;
#294 = CARTESIAN_POINT ( 'NONE',  ( 6.742170102956384843E-35, 0.0000000000000000000, 5.505399685566926447E-19 ) ) ;
#295 = CONICAL_SURFACE ( 'NONE', #162, 0.004495500000000001231, 0.1745329251994338637 ) ;
#296 = FACE_OUTER_BOUND ( 'NONE', #128, .T. ) ;
#297 = CARTESIAN_POINT ( 'NONE',  ( 0.004495499999999999496, 5.505399685566925485E-19, -5.505399685566927410E-19 ) ) ;
#298 = DIRECTION ( 'NONE',  ( 0.0000000000000000000, 0.0000000000000000000, 1.000000000000000000 ) ) ;
#299 = PRESENTATION_LAYER_ASSIGNMENT (  '', '', ( #220 ) ) ;
ENDSEC;
END-ISO-10303-21;
