ISO-10303-21;
HEADER;
FILE_DESCRIPTION (( 'STEP AP214' ),
    '1' );
FILE_NAME ('84987.STEP',
    '2023-06-23T15:10:25',
    ( '' ),
    ( '' ),
    'SwSTEP 2.0',
    'SolidWorks 2023',
    '' );
FILE_SCHEMA (( 'AUTOMOTIVE_DESIGN' ));
ENDSEC;

DATA;
#1 = ADVANCED_FACE ( 'NONE', ( #218 ), #177, .T. ) ;
#2 = DIRECTION ( 'NONE',  ( -1.558641380732995372E-16, 1.000000000000000000, 0.000000000000000000 ) ) ;
#3 = CARTESIAN_POINT ( 'NONE',  ( 3.827021247335478926E-17, 0.000000000000000000, 0.3125000000000000000 ) ) ;
#4 = FACE_OUTER_BOUND ( 'NONE', #22, .T. ) ;
#5 = CIRCLE ( 'NONE', #261, 0.3125000000000000000 ) ;
#6 =( CONVERSION_BASED_UNIT ( 'INCH', #153 ) LENGTH_UNIT ( ) NAMED_UNIT ( #215 ) );
#7 = CARTESIAN_POINT ( 'NONE',  ( 0.000000000000000000, 0.000000000000000000, 0.000000000000000000 ) ) ;
#8 = EDGE_CURVE ( 'NONE', #99, #150, #238, .T. ) ;
#9 = UNCERTAINTY_MEASURE_WITH_UNIT (LENGTH_MEASURE( 1.000000000000000082E-05 ), #294, 'distance_accuracy_value', 'NONE');
#10 =( LENGTH_UNIT ( ) NAMED_UNIT ( * ) SI_UNIT ( $, .METRE. ) );
#11 = ORIENTED_EDGE ( 'NONE', *, *, #39, .F. ) ;
#12 = MECHANICAL_DESIGN_GEOMETRIC_PRESENTATION_REPRESENTATION (  '', ( #89 ), #274 ) ;
#13 = STYLED_ITEM ( 'NONE', ( #279 ), #246 ) ;
#14 = DIRECTION ( 'NONE',  ( 0.000000000000000000, 0.000000000000000000, 1.000000000000000000 ) ) ;
#15 = CARTESIAN_POINT ( 'NONE',  ( 0.000000000000000000, 3.250000000000000000, -0.3125000000000000000 ) ) ;
#16 = PRESENTATION_STYLE_ASSIGNMENT (( #117 ) ) ;
#17 = LENGTH_MEASURE_WITH_UNIT ( LENGTH_MEASURE( 0.02539999999999999897 ), #10 );
#18 = EDGE_CURVE ( 'NONE', #150, #99, #5, .T. ) ;
#19 = UNCERTAINTY_MEASURE_WITH_UNIT (LENGTH_MEASURE( 1.000000000000000082E-05 ), #48, 'distance_accuracy_value', 'NONE');
#20 =( NAMED_UNIT ( * ) PLANE_ANGLE_UNIT ( ) SI_UNIT ( $, .RADIAN. ) );
#21 = SURFACE_STYLE_FILL_AREA ( #70 ) ;
#22 = EDGE_LOOP ( 'NONE', ( #190, #168 ) ) ;
#23 = PRODUCT_RELATED_PRODUCT_CATEGORY ( 'part', '', ( #202 ) ) ;
#24 =( GEOMETRIC_REPRESENTATION_CONTEXT ( 3 ) GLOBAL_UNCERTAINTY_ASSIGNED_CONTEXT ( ( #19 ) ) GLOBAL_UNIT_ASSIGNED_CONTEXT ( ( #48, #235, #25 ) ) REPRESENTATION_CONTEXT ( 'NONE', 'WORKASPACE' ) );
#25 =( NAMED_UNIT ( * ) SI_UNIT ( $, .STERADIAN. ) SOLID_ANGLE_UNIT ( ) );
#26 = VECTOR ( 'NONE', #178, 39.37007874015748143 ) ;
#27 = LINE ( 'NONE', #216, #56 ) ;
#28 = VERTEX_POINT ( 'NONE', #245 ) ;
#29 = LINE ( 'NONE', #3, #26 ) ;
#30 = EDGE_LOOP ( 'NONE', ( #278, #262, #172, #189 ) ) ;
#31 =( GEOMETRIC_REPRESENTATION_CONTEXT ( 3 ) GLOBAL_UNCERTAINTY_ASSIGNED_CONTEXT ( ( #197 ) ) GLOBAL_UNIT_ASSIGNED_CONTEXT ( ( #6, #155, #174 ) ) REPRESENTATION_CONTEXT ( 'NONE', 'WORKASPACE' ) );
#32 = FILL_AREA_STYLE_COLOUR ( '', #295 ) ;
#33 = DIRECTION ( 'NONE',  ( -0.000000000000000000, -1.000000000000000000, -0.000000000000000000 ) ) ;
#34 = COLOUR_RGB ( '',1.000000000000000000, 0.000000000000000000, 0.000000000000000000 ) ;
#35 = CARTESIAN_POINT ( 'NONE',  ( 0.000000000000000000, 0.000000000000000000, 0.000000000000000000 ) ) ;
#36 = SURFACE_STYLE_FILL_AREA ( #292 ) ;
#37 = PRODUCT_DEFINITION_SHAPE ( 'NONE', 'NONE',  #228 ) ;
#38 = LINE ( 'NONE', #291, #50 ) ;
#39 = EDGE_CURVE ( 'NONE', #145, #102, #38, .T. ) ;
#40 = DIRECTION ( 'NONE',  ( 1.000000000000000000, 0.000000000000000000, 0.000000000000000000 ) ) ;
#41 = FILL_AREA_STYLE_COLOUR ( '', #248 ) ;
#42 = PRESENTATION_LAYER_ASSIGNMENT (  '', '', ( #200 ) ) ;
#43 = MECHANICAL_DESIGN_GEOMETRIC_PRESENTATION_REPRESENTATION (  '', ( #13 ), #188 ) ;
#44 = FACE_OUTER_BOUND ( 'NONE', #217, .T. ) ;
#45 = DIRECTION ( 'NONE',  ( -1.558641380732995372E-16, 1.000000000000000000, -0.000000000000000000 ) ) ;
#46 = CARTESIAN_POINT ( 'NONE',  ( 0.000000000000000000, 3.250000000000000000, 0.000000000000000000 ) ) ;
#47 =( NAMED_UNIT ( * ) PLANE_ANGLE_UNIT ( ) SI_UNIT ( $, .RADIAN. ) );
#48 =( CONVERSION_BASED_UNIT ( 'INCH', #167 ) LENGTH_UNIT ( ) NAMED_UNIT ( #302 ) );
#49 = ORIENTED_EDGE ( 'NONE', *, *, #287, .F. ) ;
#50 = VECTOR ( 'NONE', #111, 39.37007874015748143 ) ;
#51 = PRODUCT_DEFINITION_FORMATION_WITH_SPECIFIED_SOURCE ( 'ANY', '', #202, .NOT_KNOWN. ) ;
#52 = CYLINDRICAL_SURFACE ( 'NONE', #224, 0.3125000000000000000 ) ;
#53 = PRESENTATION_STYLE_ASSIGNMENT (( #257 ) ) ;
#54 =( LENGTH_UNIT ( ) NAMED_UNIT ( * ) SI_UNIT ( $, .METRE. ) );
#55 =( LENGTH_UNIT ( ) NAMED_UNIT ( * ) SI_UNIT ( $, .METRE. ) );
#56 = VECTOR ( 'NONE', #173, 39.37007874015748143 ) ;
#57 = DIRECTION ( 'NONE',  ( 1.000000000000000000, 1.558641380732995372E-16, 0.000000000000000000 ) ) ;
#58 = ADVANCED_FACE ( 'NONE', ( #289 ), #223, .T. ) ;
#59 = AXIS2_PLACEMENT_3D ( 'NONE', #151, #157, #57 ) ;
#60 = AXIS2_PLACEMENT_3D ( 'NONE', #163, #14, #40 ) ;
#61 = DIRECTION ( 'NONE',  ( -0.000000000000000000, -1.000000000000000000, -0.000000000000000000 ) ) ;
#62 = PRESENTATION_STYLE_ASSIGNMENT (( #154 ) ) ;
#63 = ADVANCED_FACE ( 'NONE', ( #179 ), #82, .F. ) ;
#64 = DIRECTION ( 'NONE',  ( -1.000000000000000000, 0.000000000000000000, 0.000000000000000000 ) ) ;
#65 = CARTESIAN_POINT ( 'NONE',  ( -4.286263797015738074E-16, 6.000000000000000888, 0.000000000000000000 ) ) ;
#66 = EDGE_CURVE ( 'NONE', #144, #145, #253, .T. ) ;
#67 = CARTESIAN_POINT ( 'NONE',  ( 3.795879615208215711E-33, 3.250000000000000000, 0.000000000000000000 ) ) ;
#68 = LENGTH_MEASURE_WITH_UNIT ( LENGTH_MEASURE( 0.02539999999999999897 ), #96 );
#69 = DIRECTION ( 'NONE',  ( 0.000000000000000000, 0.000000000000000000, -1.000000000000000000 ) ) ;
#70 = FILL_AREA_STYLE ('',( #258 ) ) ;
#71 = ORIENTED_EDGE ( 'NONE', *, *, #93, .F. ) ;
#72 = COLOUR_RGB ( '',0.7921568627450980005, 0.8196078431372548767, 0.9333333333333333481 ) ;
#73 = CARTESIAN_POINT ( 'NONE',  ( 0.000000000000000000, 0.000000000000000000, 0.000000000000000000 ) ) ;
#74 = ADVANCED_FACE ( 'NONE', ( #4 ), #240, .T. ) ;
#75 = CARTESIAN_POINT ( 'NONE',  ( 0.000000000000000000, 0.000000000000000000, 0.000000000000000000 ) ) ;
#76 = ORIENTED_EDGE ( 'NONE', *, *, #256, .T. ) ;
#77 =( CONVERSION_BASED_UNIT ( 'INCH', #271 ) LENGTH_UNIT ( ) NAMED_UNIT ( #301 ) );
#78 = VERTEX_POINT ( 'NONE', #300 ) ;
#79 = MANIFOLD_SOLID_BREP ( 'Revolve - Tool Body (Straight Shanked)', #118 ) ;
#80 =( LENGTH_UNIT ( ) NAMED_UNIT ( * ) SI_UNIT ( $, .METRE. ) );
#81 =( GEOMETRIC_REPRESENTATION_CONTEXT ( 3 ) GLOBAL_UNCERTAINTY_ASSIGNED_CONTEXT ( ( #88 ) ) GLOBAL_UNIT_ASSIGNED_CONTEXT ( ( #160, #185, #226 ) ) REPRESENTATION_CONTEXT ( 'NONE', 'WORKASPACE' ) );
#82 = PLANE ( 'NONE',  #59 ) ;
#83 = EDGE_CURVE ( 'NONE', #144, #28, #135, .T. ) ;
#84 = ADVANCED_BREP_SHAPE_REPRESENTATION ( '84987', ( #280, #79, #60 ), #31 ) ;
#85 = DIRECTION ( 'NONE',  ( 0.000000000000000000, 0.000000000000000000, -1.000000000000000000 ) ) ;
#86 = DIRECTION ( 'NONE',  ( 0.000000000000000000, 0.000000000000000000, -1.000000000000000000 ) ) ;
#87 = CARTESIAN_POINT ( 'NONE',  ( 3.827021247335478926E-17, 0.000000000000000000, 0.3125000000000000000 ) ) ;
#88 = UNCERTAINTY_MEASURE_WITH_UNIT (LENGTH_MEASURE( 1.000000000000000082E-05 ), #160, 'distance_accuracy_value', 'NONE');
#89 = STYLED_ITEM ( 'NONE', ( #62 ), #1 ) ;
#90 = CARTESIAN_POINT ( 'NONE',  ( -4.286263797015738074E-16, 6.000000000000000888, 0.000000000000000000 ) ) ;
#91 = CARTESIAN_POINT ( 'NONE',  ( 0.000000000000000000, 3.250000000000000000, 0.000000000000000000 ) ) ;
#92 = DIRECTION ( 'NONE',  ( -1.558641380732995372E-16, 1.000000000000000000, -0.000000000000000000 ) ) ;
#93 = EDGE_CURVE ( 'NONE', #145, #144, #304, .T. ) ;
#94 = AXIS2_PLACEMENT_3D ( 'NONE', #46, #45, #299 ) ;
#95 = DIRECTION ( 'NONE',  ( -1.000000000000000000, 0.000000000000000000, 0.000000000000000000 ) ) ;
#96 =( LENGTH_UNIT ( ) NAMED_UNIT ( * ) SI_UNIT ( $, .METRE. ) );
#97 = FACE_OUTER_BOUND ( 'NONE', #106, .T. ) ;
#98 = COLOUR_RGB ( '',1.000000000000000000, 0.000000000000000000, 0.000000000000000000 ) ;
#99 = VERTEX_POINT ( 'NONE', #15 ) ;
#100 = PRODUCT_DEFINITION_CONTEXT ( 'detailed design', #149, 'design' ) ;
#101 = DIRECTION ( 'NONE',  ( -1.000000000000000000, -1.558641380732995372E-16, 0.000000000000000000 ) ) ;
#102 = VERTEX_POINT ( 'NONE', #115 ) ;
#103 = AXIS2_PLACEMENT_3D ( 'NONE', #152, #241, #129 ) ;
#104 = AXIS2_PLACEMENT_3D ( 'NONE', #121, #183, #64 ) ;
#105 = SURFACE_SIDE_STYLE ('',( #21 ) ) ;
#106 = EDGE_LOOP ( 'NONE', ( #196, #281, #305, #237 ) ) ;
#107 = ORIENTED_EDGE ( 'NONE', *, *, #83, .T. ) ;
#108 = SURFACE_STYLE_FILL_AREA ( #293 ) ;
#109 = CIRCLE ( 'NONE', #176, 0.3125000000000000000 ) ;
#110 = SURFACE_SIDE_STYLE ('',( #36 ) ) ;
#111 = DIRECTION ( 'NONE',  ( -1.558641380732995372E-16, 1.000000000000000000, -0.000000000000000000 ) ) ;
#112 = PRODUCT_CONTEXT ( 'NONE', #247, 'mechanical' ) ;
#113 = CARTESIAN_POINT ( 'NONE',  ( 0.000000000000000000, 3.250000000000000000, 0.000000000000000000 ) ) ;
#114 = COLOUR_RGB ( '',1.000000000000000000, 0.000000000000000000, 0.000000000000000000 ) ;
#115 = CARTESIAN_POINT ( 'NONE',  ( 0.3125000000000000000, 6.000000000000000888, 3.827021247335483241E-17 ) ) ;
#116 = CARTESIAN_POINT ( 'NONE',  ( 3.827021247335478926E-17, 3.250000000000000000, 0.3125000000000000000 ) ) ;
#117 = SURFACE_STYLE_USAGE ( .BOTH. , #277 ) ;
#118 = CLOSED_SHELL ( 'NONE', ( #138, #211, #58, #63 ) ) ;
#119 = MECHANICAL_DESIGN_GEOMETRIC_PRESENTATION_REPRESENTATION (  '', ( #194 ), #126 ) ;
#120 = DIMENSIONAL_EXPONENTS ( 1.000000000000000000, 0.000000000000000000, 0.000000000000000000, 0.000000000000000000, 0.000000000000000000, 0.000000000000000000, 0.000000000000000000 ) ;
#121 = CARTESIAN_POINT ( 'NONE',  ( -4.286263797015738074E-16, 6.000000000000000888, 0.000000000000000000 ) ) ;
#122 = ORIENTED_EDGE ( 'NONE', *, *, #206, .T. ) ;
#123 = MECHANICAL_DESIGN_GEOMETRIC_PRESENTATION_REPRESENTATION (  '', ( #290 ), #266 ) ;
#124 = AXIS2_PLACEMENT_3D ( 'NONE', #269, #33, #86 ) ;
#125 = AXIS2_PLACEMENT_3D ( 'NONE', #65, #92, #275 ) ;
#126 =( GEOMETRIC_REPRESENTATION_CONTEXT ( 3 ) GLOBAL_UNCERTAINTY_ASSIGNED_CONTEXT ( ( #214 ) ) GLOBAL_UNIT_ASSIGNED_CONTEXT ( ( #77, #268, #288 ) ) REPRESENTATION_CONTEXT ( 'NONE', 'WORKASPACE' ) );
#127 = CYLINDRICAL_SURFACE ( 'NONE', #233, 0.3125000000000000000 ) ;
#128 = SURFACE_STYLE_FILL_AREA ( #297 ) ;
#129 = DIRECTION ( 'NONE',  ( -1.000000000000000000, 0.000000000000000000, 0.000000000000000000 ) ) ;
#130 = FILL_AREA_STYLE_COLOUR ( '', #72 ) ;
#131 = AXIS2_PLACEMENT_3D ( 'NONE', #67, #2, #101 ) ;
#132 = DIRECTION ( 'NONE',  ( 0.000000000000000000, 0.000000000000000000, -1.000000000000000000 ) ) ;
#133 = SURFACE_STYLE_USAGE ( .BOTH. , #110 ) ;
#134 = DIRECTION ( 'NONE',  ( 0.000000000000000000, 0.000000000000000000, -1.000000000000000000 ) ) ;
#135 = LINE ( 'NONE', #276, #213 ) ;
#136 = AXIS2_PLACEMENT_3D ( 'NONE', #90, #203, #182 ) ;
#137 = AXIS2_PLACEMENT_3D ( 'NONE', #142, #208, #95 ) ;
#138 = ADVANCED_FACE ( 'NONE', ( #97 ), #139, .T. ) ;
#139 = CYLINDRICAL_SURFACE ( 'NONE', #137, 0.3125000000000002220 ) ;
#140 = PLANE ( 'NONE',  #131 ) ;
#141 = PRESENTATION_LAYER_ASSIGNMENT (  '', '', ( #89 ) ) ;
#142 = CARTESIAN_POINT ( 'NONE',  ( -4.286263797015738074E-16, 6.000000000000000888, 0.000000000000000000 ) ) ;
#143 =( LENGTH_UNIT ( ) NAMED_UNIT ( * ) SI_UNIT ( $, .METRE. ) );
#144 = VERTEX_POINT ( 'NONE', #273 ) ;
#145 = VERTEX_POINT ( 'NONE', #184 ) ;
#146 = AXIS2_PLACEMENT_3D ( 'NONE', #7, #267, #132 ) ;
#147 = FACE_OUTER_BOUND ( 'NONE', #30, .T. ) ;
#148 = CARTESIAN_POINT ( 'NONE',  ( 0.000000000000000000, 0.000000000000000000, 0.000000000000000000 ) ) ;
#149 = APPLICATION_CONTEXT ( 'automotive_design' ) ;
#150 = VERTEX_POINT ( 'NONE', #116 ) ;
#151 = CARTESIAN_POINT ( 'NONE',  ( 0.3125000000000000000, 6.000000000000000888, 0.000000000000000000 ) ) ;
#152 = CARTESIAN_POINT ( 'NONE',  ( 0.000000000000000000, 3.250000000000000000, 0.000000000000000000 ) ) ;
#153 = LENGTH_MEASURE_WITH_UNIT ( LENGTH_MEASURE( 0.02539999999999999897 ), #80 );
#154 = SURFACE_STYLE_USAGE ( .BOTH. , #244 ) ;
#155 =( NAMED_UNIT ( * ) PLANE_ANGLE_UNIT ( ) SI_UNIT ( $, .RADIAN. ) );
#156 = AXIS2_PLACEMENT_3D ( 'NONE', #91, #225, #227 ) ;
#157 = DIRECTION ( 'NONE',  ( 1.558641380732995372E-16, -1.000000000000000000, 0.000000000000000000 ) ) ;
#158 =( NAMED_UNIT ( * ) SI_UNIT ( $, .STERADIAN. ) SOLID_ANGLE_UNIT ( ) );
#159 = EDGE_CURVE ( 'NONE', #28, #102, #220, .T. ) ;
#160 =( CONVERSION_BASED_UNIT ( 'INCH', #17 ) LENGTH_UNIT ( ) NAMED_UNIT ( #186 ) );
#161 = CIRCLE ( 'NONE', #125, 0.3125000000000004441 ) ;
#162 = SURFACE_STYLE_FILL_AREA ( #164 ) ;
#163 = CARTESIAN_POINT ( 'NONE',  ( 0.000000000000000000, 0.000000000000000000, 0.000000000000000000 ) ) ;
#164 = FILL_AREA_STYLE ('',( #41 ) ) ;
#165 = DIMENSIONAL_EXPONENTS ( 1.000000000000000000, 0.000000000000000000, 0.000000000000000000, 0.000000000000000000, 0.000000000000000000, 0.000000000000000000, 0.000000000000000000 ) ;
#166 = SURFACE_STYLE_FILL_AREA ( #231 ) ;
#167 = LENGTH_MEASURE_WITH_UNIT ( LENGTH_MEASURE( 0.02539999999999999897 ), #143 );
#168 = ORIENTED_EDGE ( 'NONE', *, *, #18, .F. ) ;
#169 = FILL_AREA_STYLE_COLOUR ( '', #34 ) ;
#170 = ORIENTED_EDGE ( 'NONE', *, *, #18, .T. ) ;
#171 = CIRCLE ( 'NONE', #255, 0.3125000000000000000 ) ;
#172 = ORIENTED_EDGE ( 'NONE', *, *, #306, .F. ) ;
#173 = DIRECTION ( 'NONE',  ( -0.000000000000000000, -1.000000000000000000, -0.000000000000000000 ) ) ;
#174 =( NAMED_UNIT ( * ) SI_UNIT ( $, .STERADIAN. ) SOLID_ANGLE_UNIT ( ) );
#175 = ORIENTED_EDGE ( 'NONE', *, *, #250, .T. ) ;
#176 = AXIS2_PLACEMENT_3D ( 'NONE', #35, #61, #85 ) ;
#177 = PLANE ( 'NONE',  #146 ) ;
#178 = DIRECTION ( 'NONE',  ( -0.000000000000000000, -1.000000000000000000, -0.000000000000000000 ) ) ;
#179 = FACE_OUTER_BOUND ( 'NONE', #193, .T. ) ;
#180 = MECHANICAL_DESIGN_GEOMETRIC_PRESENTATION_REPRESENTATION (  '', ( #210 ), #24 ) ;
#181 =( NAMED_UNIT ( * ) SI_UNIT ( $, .STERADIAN. ) SOLID_ANGLE_UNIT ( ) );
#182 = DIRECTION ( 'NONE',  ( -1.000000000000000000, 0.000000000000000000, 0.000000000000000000 ) ) ;
#183 = DIRECTION ( 'NONE',  ( -1.558641380732995372E-16, 1.000000000000000000, -0.000000000000000000 ) ) ;
#184 = CARTESIAN_POINT ( 'NONE',  ( 0.3125000000000000000, 3.250000000000000000, 3.827021247335483241E-17 ) ) ;
#185 =( NAMED_UNIT ( * ) PLANE_ANGLE_UNIT ( ) SI_UNIT ( $, .RADIAN. ) );
#186 = DIMENSIONAL_EXPONENTS ( 1.000000000000000000, 0.000000000000000000, 0.000000000000000000, 0.000000000000000000, 0.000000000000000000, 0.000000000000000000, 0.000000000000000000 ) ;
#187 =( LENGTH_UNIT ( ) NAMED_UNIT ( * ) SI_UNIT ( $, .METRE. ) );
#188 =( GEOMETRIC_REPRESENTATION_CONTEXT ( 3 ) GLOBAL_UNCERTAINTY_ASSIGNED_CONTEXT ( ( #283 ) ) GLOBAL_UNIT_ASSIGNED_CONTEXT ( ( #282, #47, #229 ) ) REPRESENTATION_CONTEXT ( 'NONE', 'WORKASPACE' ) );
#189 = ORIENTED_EDGE ( 'NONE', *, *, #250, .F. ) ;
#190 = ORIENTED_EDGE ( 'NONE', *, *, #8, .F. ) ;
#191 = UNCERTAINTY_MEASURE_WITH_UNIT (LENGTH_MEASURE( 1.000000000000000082E-05 ), #251, 'distance_accuracy_value', 'NONE');
#192 = FACE_OUTER_BOUND ( 'NONE', #307, .T. ) ;
#193 = EDGE_LOOP ( 'NONE', ( #285, #122 ) ) ;
#194 = STYLED_ITEM ( 'NONE', ( #286 ), #280 ) ;
#195 = DIRECTION ( 'NONE',  ( -0.000000000000000000, -1.000000000000000000, -0.000000000000000000 ) ) ;
#196 = ORIENTED_EDGE ( 'NONE', *, *, #66, .T. ) ;
#197 = UNCERTAINTY_MEASURE_WITH_UNIT (LENGTH_MEASURE( 1.000000000000000082E-05 ), #6, 'distance_accuracy_value', 'NONE');
#198 = ORIENTED_EDGE ( 'NONE', *, *, #206, .F. ) ;
#199 = DIRECTION ( 'NONE',  ( -0.000000000000000000, -1.000000000000000000, -0.000000000000000000 ) ) ;
#200 = STYLED_ITEM ( 'NONE', ( #201 ), #74 ) ;
#201 = PRESENTATION_STYLE_ASSIGNMENT (( #133 ) ) ;
#202 = PRODUCT ( '84987', '84987', '', ( #112 ) ) ;
#203 = DIRECTION ( 'NONE',  ( -1.558641380732995372E-16, 1.000000000000000000, -0.000000000000000000 ) ) ;
#204 = SURFACE_SIDE_STYLE ('',( #108 ) ) ;
#205 =( NAMED_UNIT ( * ) PLANE_ANGLE_UNIT ( ) SI_UNIT ( $, .RADIAN. ) );
#206 = EDGE_CURVE ( 'NONE', #102, #28, #161, .T. ) ;
#207 = FILL_AREA_STYLE_COLOUR ( '', #114 ) ;
#208 = DIRECTION ( 'NONE',  ( -1.558641380732995372E-16, 1.000000000000000000, -0.000000000000000000 ) ) ;
#209 = APPLICATION_PROTOCOL_DEFINITION ( 'draft international standard', 'automotive_design', 1998, #149 ) ;
#210 = STYLED_ITEM ( 'NONE', ( #53 ), #265 ) ;
#211 = ADVANCED_FACE ( 'NONE', ( #44 ), #140, .F. ) ;
#212 = SURFACE_STYLE_USAGE ( .BOTH. , #105 ) ;
#213 = VECTOR ( 'NONE', #254, 39.37007874015748143 ) ;
#214 = UNCERTAINTY_MEASURE_WITH_UNIT (LENGTH_MEASURE( 1.000000000000000082E-05 ), #77, 'distance_accuracy_value', 'NONE');
#215 = DIMENSIONAL_EXPONENTS ( 1.000000000000000000, 0.000000000000000000, 0.000000000000000000, 0.000000000000000000, 0.000000000000000000, 0.000000000000000000, 0.000000000000000000 ) ;
#216 = CARTESIAN_POINT ( 'NONE',  ( 0.000000000000000000, 0.000000000000000000, -0.3125000000000000000 ) ) ;
#217 = EDGE_LOOP ( 'NONE', ( #230, #71 ) ) ;
#218 = FACE_OUTER_BOUND ( 'NONE', #259, .T. ) ;
#219 = CLOSED_SHELL ( 'NONE', ( #265, #74, #246, #1 ) ) ;
#220 = CIRCLE ( 'NONE', #104, 0.3125000000000004441 ) ;
#221 = LENGTH_MEASURE_WITH_UNIT ( LENGTH_MEASURE( 0.02539999999999999897 ), #55 );
#222 = APPLICATION_PROTOCOL_DEFINITION ( 'draft international standard', 'automotive_design', 1998, #247 ) ;
#223 = CYLINDRICAL_SURFACE ( 'NONE', #136, 0.3125000000000002220 ) ;
#224 = AXIS2_PLACEMENT_3D ( 'NONE', #148, #308, #236 ) ;
#225 = DIRECTION ( 'NONE',  ( 0.000000000000000000, 1.000000000000000000, 0.000000000000000000 ) ) ;
#226 =( NAMED_UNIT ( * ) SI_UNIT ( $, .STERADIAN. ) SOLID_ANGLE_UNIT ( ) );
#227 = DIRECTION ( 'NONE',  ( 0.000000000000000000, -0.000000000000000000, 1.000000000000000000 ) ) ;
#228 = PRODUCT_DEFINITION ( 'UNKNOWN', '', #51, #100 ) ;
#229 =( NAMED_UNIT ( * ) SI_UNIT ( $, .STERADIAN. ) SOLID_ANGLE_UNIT ( ) );
#230 = ORIENTED_EDGE ( 'NONE', *, *, #66, .F. ) ;
#231 = FILL_AREA_STYLE ('',( #169 ) ) ;
#232 = ORIENTED_EDGE ( 'NONE', *, *, #93, .T. ) ;
#233 = AXIS2_PLACEMENT_3D ( 'NONE', #73, #195, #234 ) ;
#234 = DIRECTION ( 'NONE',  ( 0.000000000000000000, 0.000000000000000000, -1.000000000000000000 ) ) ;
#235 =( NAMED_UNIT ( * ) PLANE_ANGLE_UNIT ( ) SI_UNIT ( $, .RADIAN. ) );
#236 = DIRECTION ( 'NONE',  ( 0.000000000000000000, 0.000000000000000000, -1.000000000000000000 ) ) ;
#237 = ORIENTED_EDGE ( 'NONE', *, *, #83, .F. ) ;
#238 = CIRCLE ( 'NONE', #124, 0.3125000000000000000 ) ;
#239 = SURFACE_STYLE_USAGE ( .BOTH. , #204 ) ;
#240 = PLANE ( 'NONE',  #156 ) ;
#241 = DIRECTION ( 'NONE',  ( -1.558641380732995372E-16, 1.000000000000000000, -0.000000000000000000 ) ) ;
#242 = PRESENTATION_LAYER_ASSIGNMENT (  '', '', ( #290 ) ) ;
#243 = PRESENTATION_LAYER_ASSIGNMENT (  '', '', ( #194 ) ) ;
#244 = SURFACE_SIDE_STYLE ('',( #128 ) ) ;
#245 = CARTESIAN_POINT ( 'NONE',  ( -0.3125000000000008327, 6.000000000000000888, 0.000000000000000000 ) ) ;
#246 = ADVANCED_FACE ( 'NONE', ( #192 ), #127, .T. ) ;
#247 = APPLICATION_CONTEXT ( 'automotive_design' ) ;
#248 = COLOUR_RGB ( '',0.7921568627450980005, 0.8196078431372548767, 0.9333333333333333481 ) ;
#249 = PRESENTATION_LAYER_ASSIGNMENT (  '', '', ( #210 ) ) ;
#250 = EDGE_CURVE ( 'NONE', #99, #78, #27, .T. ) ;
#251 =( CONVERSION_BASED_UNIT ( 'INCH', #68 ) LENGTH_UNIT ( ) NAMED_UNIT ( #120 ) );
#252 = DIMENSIONAL_EXPONENTS ( 1.000000000000000000, 0.000000000000000000, 0.000000000000000000, 0.000000000000000000, 0.000000000000000000, 0.000000000000000000, 0.000000000000000000 ) ;
#253 = CIRCLE ( 'NONE', #103, 0.3125000000000000000 ) ;
#254 = DIRECTION ( 'NONE',  ( -1.558641380732995372E-16, 1.000000000000000000, -0.000000000000000000 ) ) ;
#255 = AXIS2_PLACEMENT_3D ( 'NONE', #75, #284, #69 ) ;
#256 = EDGE_CURVE ( 'NONE', #309, #78, #171, .T. ) ;
#257 = SURFACE_STYLE_USAGE ( .BOTH. , #260 ) ;
#258 = FILL_AREA_STYLE_COLOUR ( '', #98 ) ;
#259 = EDGE_LOOP ( 'NONE', ( #263, #76 ) ) ;
#260 = SURFACE_SIDE_STYLE ('',( #166 ) ) ;
#261 = AXIS2_PLACEMENT_3D ( 'NONE', #113, #199, #134 ) ;
#262 = ORIENTED_EDGE ( 'NONE', *, *, #287, .T. ) ;
#263 = ORIENTED_EDGE ( 'NONE', *, *, #306, .T. ) ;
#264 = ORIENTED_EDGE ( 'NONE', *, *, #256, .F. ) ;
#265 = ADVANCED_FACE ( 'NONE', ( #147 ), #52, .T. ) ;
#266 =( GEOMETRIC_REPRESENTATION_CONTEXT ( 3 ) GLOBAL_UNCERTAINTY_ASSIGNED_CONTEXT ( ( #191 ) ) GLOBAL_UNIT_ASSIGNED_CONTEXT ( ( #251, #20, #158 ) ) REPRESENTATION_CONTEXT ( 'NONE', 'WORKASPACE' ) );
#267 = DIRECTION ( 'NONE',  ( 0.000000000000000000, -1.000000000000000000, -0.000000000000000000 ) ) ;
#268 =( NAMED_UNIT ( * ) PLANE_ANGLE_UNIT ( ) SI_UNIT ( $, .RADIAN. ) );
#269 = CARTESIAN_POINT ( 'NONE',  ( 0.000000000000000000, 3.250000000000000000, 0.000000000000000000 ) ) ;
#270 = MECHANICAL_DESIGN_GEOMETRIC_PRESENTATION_REPRESENTATION (  '', ( #200 ), #81 ) ;
#271 = LENGTH_MEASURE_WITH_UNIT ( LENGTH_MEASURE( 0.02539999999999999897 ), #54 );
#272 = EDGE_LOOP ( 'NONE', ( #11, #232, #107, #198 ) ) ;
#273 = CARTESIAN_POINT ( 'NONE',  ( -0.3125000000000000000, 3.250000000000000000, 0.000000000000000000 ) ) ;
#274 =( GEOMETRIC_REPRESENTATION_CONTEXT ( 3 ) GLOBAL_UNCERTAINTY_ASSIGNED_CONTEXT ( ( #9 ) ) GLOBAL_UNIT_ASSIGNED_CONTEXT ( ( #294, #205, #181 ) ) REPRESENTATION_CONTEXT ( 'NONE', 'WORKASPACE' ) );
#275 = DIRECTION ( 'NONE',  ( -1.000000000000000000, 0.000000000000000000, 0.000000000000000000 ) ) ;
#276 = CARTESIAN_POINT ( 'NONE',  ( -0.3125000000000006106, 6.000000000000000888, 0.000000000000000000 ) ) ;
#277 = SURFACE_SIDE_STYLE ('',( #162 ) ) ;
#278 = ORIENTED_EDGE ( 'NONE', *, *, #8, .T. ) ;
#279 = PRESENTATION_STYLE_ASSIGNMENT (( #212 ) ) ;
#280 = MANIFOLD_SOLID_BREP ( 'Revolve - Cutting Edge', #219 ) ;
#281 = ORIENTED_EDGE ( 'NONE', *, *, #39, .T. ) ;
#282 =( CONVERSION_BASED_UNIT ( 'INCH', #303 ) LENGTH_UNIT ( ) NAMED_UNIT ( #165 ) );
#283 = UNCERTAINTY_MEASURE_WITH_UNIT (LENGTH_MEASURE( 1.000000000000000082E-05 ), #282, 'distance_accuracy_value', 'NONE');
#284 = DIRECTION ( 'NONE',  ( -0.000000000000000000, -1.000000000000000000, -0.000000000000000000 ) ) ;
#285 = ORIENTED_EDGE ( 'NONE', *, *, #159, .T. ) ;
#286 = PRESENTATION_STYLE_ASSIGNMENT (( #239 ) ) ;
#287 = EDGE_CURVE ( 'NONE', #150, #309, #29, .T. ) ;
#288 =( NAMED_UNIT ( * ) SI_UNIT ( $, .STERADIAN. ) SOLID_ANGLE_UNIT ( ) );
#289 = FACE_OUTER_BOUND ( 'NONE', #272, .T. ) ;
#290 = STYLED_ITEM ( 'NONE', ( #16 ), #79 ) ;
#291 = CARTESIAN_POINT ( 'NONE',  ( 0.3124999999999998335, 6.000000000000000888, 3.827021247335482008E-17 ) ) ;
#292 = FILL_AREA_STYLE ('',( #32 ) ) ;
#293 = FILL_AREA_STYLE ('',( #130 ) ) ;
#294 =( CONVERSION_BASED_UNIT ( 'INCH', #221 ) LENGTH_UNIT ( ) NAMED_UNIT ( #252 ) );
#295 = COLOUR_RGB ( '',1.000000000000000000, 0.000000000000000000, 0.000000000000000000 ) ;
#296 = SHAPE_DEFINITION_REPRESENTATION ( #37, #84 ) ;
#297 = FILL_AREA_STYLE ('',( #207 ) ) ;
#298 = PRESENTATION_LAYER_ASSIGNMENT (  '', '', ( #13 ) ) ;
#299 = DIRECTION ( 'NONE',  ( -1.000000000000000000, 0.000000000000000000, 0.000000000000000000 ) ) ;
#300 = CARTESIAN_POINT ( 'NONE',  ( 0.000000000000000000, 0.000000000000000000, -0.3125000000000000000 ) ) ;
#301 = DIMENSIONAL_EXPONENTS ( 1.000000000000000000, 0.000000000000000000, 0.000000000000000000, 0.000000000000000000, 0.000000000000000000, 0.000000000000000000, 0.000000000000000000 ) ;
#302 = DIMENSIONAL_EXPONENTS ( 1.000000000000000000, 0.000000000000000000, 0.000000000000000000, 0.000000000000000000, 0.000000000000000000, 0.000000000000000000, 0.000000000000000000 ) ;
#303 = LENGTH_MEASURE_WITH_UNIT ( LENGTH_MEASURE( 0.02539999999999999897 ), #187 );
#304 = CIRCLE ( 'NONE', #94, 0.3125000000000000000 ) ;
#305 = ORIENTED_EDGE ( 'NONE', *, *, #159, .F. ) ;
#306 = EDGE_CURVE ( 'NONE', #78, #309, #109, .T. ) ;
#307 = EDGE_LOOP ( 'NONE', ( #49, #170, #175, #264 ) ) ;
#308 = DIRECTION ( 'NONE',  ( -0.000000000000000000, -1.000000000000000000, -0.000000000000000000 ) ) ;
#309 = VERTEX_POINT ( 'NONE', #87 ) ;
ENDSEC;
END-ISO-10303-21;
