ISO-10303-21;
HEADER;
FILE_DESCRIPTION (( 'STEP AP214' ),
    '1' );
FILE_NAME ('59614.STEP',
    '2023-07-24T15:15:33',
    ( '' ),
    ( '' ),
    'SwSTEP 2.0',
    'SolidWorks 2023',
    '' );
FILE_SCHEMA (( 'AUTOMOTIVE_DESIGN' ));
ENDSEC;

DATA;
#1 = ORIENTED_EDGE ( 'NONE', *, *, #42, .F. ) ;
#2 =( LENGTH_UNIT ( ) NAMED_UNIT ( * ) SI_UNIT ( .MILLI., .METRE. ) );
#3 =( NAMED_UNIT ( * ) PLANE_ANGLE_UNIT ( ) SI_UNIT ( $, .RADIAN. ) );
#4 = PRODUCT_CONTEXT ( 'NONE', #298, 'mechanical' ) ;
#5 = PRESENTATION_LAYER_ASSIGNMENT (  '', '', ( #82 ) ) ;
#6 = CARTESIAN_POINT ( 'NONE',  ( 1.214306433183764966E-14, 25.00000000000000000, 0.000000000000000000 ) ) ;
#7 =( LENGTH_UNIT ( ) NAMED_UNIT ( * ) SI_UNIT ( .MILLI., .METRE. ) );
#8 = VECTOR ( 'NONE', #208, 1000.000000000000000 ) ;
#9 = CARTESIAN_POINT ( 'NONE',  ( 5.000000000000000888, 75.00000000000000000, 6.123233995736757408E-16 ) ) ;
#10 = PRODUCT_DEFINITION_SHAPE ( 'NONE', 'NONE',  #199 ) ;
#11 = EDGE_CURVE ( 'NONE', #136, #62, #306, .T. ) ;
#12 = MECHANICAL_DESIGN_GEOMETRIC_PRESENTATION_REPRESENTATION (  '', ( #314 ), #149 ) ;
#13 = FILL_AREA_STYLE ('',( #239 ) ) ;
#14 = CARTESIAN_POINT ( 'NONE',  ( 6.123233995736762930E-15, 75.00000000000000000, 0.000000000000000000 ) ) ;
#15 = STYLED_ITEM ( 'NONE', ( #269 ), #98 ) ;
#16 = DIRECTION ( 'NONE',  ( -1.203966067220177465E-16, 1.000000000000000000, -0.000000000000000000 ) ) ;
#17 = SURFACE_STYLE_USAGE ( .BOTH. , #325 ) ;
#18 = EDGE_LOOP ( 'NONE', ( #1, #177 ) ) ;
#19 = VERTEX_POINT ( 'NONE', #272 ) ;
#20 = SURFACE_STYLE_FILL_AREA ( #172 ) ;
#21 = PRESENTATION_STYLE_ASSIGNMENT (( #120 ) ) ;
#22 = AXIS2_PLACEMENT_3D ( 'NONE', #32, #100, #312 ) ;
#23 = ORIENTED_EDGE ( 'NONE', *, *, #103, .T. ) ;
#24 = EDGE_CURVE ( 'NONE', #123, #342, #226, .T. ) ;
#25 = COLOUR_RGB ( '',1.000000000000000000, 0.000000000000000000, 0.000000000000000000 ) ;
#26 = CYLINDRICAL_SURFACE ( 'NONE', #169, 5.000000000000000888 ) ;
#27 = ORIENTED_EDGE ( 'NONE', *, *, #351, .T. ) ;
#28 = STYLED_ITEM ( 'NONE', ( #51 ), #138 ) ;
#29 = ORIENTED_EDGE ( 'NONE', *, *, #11, .F. ) ;
#30 = UNCERTAINTY_MEASURE_WITH_UNIT (LENGTH_MEASURE( 1.000000000000000082E-05 ), #7, 'distance_accuracy_value', 'NONE');
#31 = MANIFOLD_SOLID_BREP ( 'Revolve - Cutting Edge', #77 ) ;
#32 = CARTESIAN_POINT ( 'NONE',  ( 0.000000000000000000, 0.000000000000000000, 0.000000000000000000 ) ) ;
#33 = AXIS2_PLACEMENT_3D ( 'NONE', #170, #303, #227 ) ;
#34 = EDGE_CURVE ( 'NONE', #259, #123, #183, .T. ) ;
#35 =( LENGTH_UNIT ( ) NAMED_UNIT ( * ) SI_UNIT ( .MILLI., .METRE. ) );
#36 = MANIFOLD_SOLID_BREP ( 'Revolve - Tool Body (Straight Shanked)', #130 ) ;
#37 = LINE ( 'NONE', #153, #8 ) ;
#38 = AXIS2_PLACEMENT_3D ( 'NONE', #197, #132, #155 ) ;
#39 = CARTESIAN_POINT ( 'NONE',  ( 0.000000000000000000, 1.000000000000000000, -5.000000000000000888 ) ) ;
#40 = FILL_AREA_STYLE_COLOUR ( '', #53 ) ;
#41 = UNCERTAINTY_MEASURE_WITH_UNIT (LENGTH_MEASURE( 1.000000000000000082E-05 ), #35, 'distance_accuracy_value', 'NONE');
#42 = EDGE_CURVE ( 'NONE', #257, #259, #129, .T. ) ;
#43 = DIRECTION ( 'NONE',  ( -0.000000000000000000, -1.000000000000000000, -0.000000000000000000 ) ) ;
#44 = UNCERTAINTY_MEASURE_WITH_UNIT (LENGTH_MEASURE( 1.000000000000000082E-05 ), #357, 'distance_accuracy_value', 'NONE');
#45 = DIRECTION ( 'NONE',  ( -1.000000000000000000, 0.000000000000000000, 0.000000000000000000 ) ) ;
#46 = AXIS2_PLACEMENT_3D ( 'NONE', #164, #158, #349 ) ;
#47 = VECTOR ( 'NONE', #345, 1000.000000000000000 ) ;
#48 = DIRECTION ( 'NONE',  ( -1.203966067220177465E-16, 1.000000000000000000, -0.000000000000000000 ) ) ;
#49 = EDGE_CURVE ( 'NONE', #342, #305, #331, .T. ) ;
#50 = CARTESIAN_POINT ( 'NONE',  ( -4.999999999999987566, 75.00000000000000000, 0.000000000000000000 ) ) ;
#51 = PRESENTATION_STYLE_ASSIGNMENT (( #17 ) ) ;
#52 = FILL_AREA_STYLE_COLOUR ( '', #364 ) ;
#53 = COLOUR_RGB ( '',0.7921568627450980005, 0.8196078431372548767, 0.9333333333333333481 ) ;
#54 = ADVANCED_FACE ( 'NONE', ( #175 ), #161, .T. ) ;
#55 = SURFACE_STYLE_FILL_AREA ( #281 ) ;
#56 = DIRECTION ( 'NONE',  ( -1.000000000000000000, 0.000000000000000000, 0.000000000000000000 ) ) ;
#57 = TOROIDAL_SURFACE ( 'NONE', #156, 4.000000000000000000, 1.000000000000000444 ) ;
#58 = EDGE_CURVE ( 'NONE', #262, #136, #157, .T. ) ;
#59 = ORIENTED_EDGE ( 'NONE', *, *, #338, .F. ) ;
#60 = APPLICATION_CONTEXT ( 'automotive_design' ) ;
#61 = FILL_AREA_STYLE_COLOUR ( '', #25 ) ;
#62 = VERTEX_POINT ( 'NONE', #9 ) ;
#63 =( GEOMETRIC_REPRESENTATION_CONTEXT ( 3 ) GLOBAL_UNCERTAINTY_ASSIGNED_CONTEXT ( ( #240 ) ) GLOBAL_UNIT_ASSIGNED_CONTEXT ( ( #2, #180, #216 ) ) REPRESENTATION_CONTEXT ( 'NONE', 'WORKASPACE' ) );
#64 = CIRCLE ( 'NONE', #33, 4.999999999999987566 ) ;
#65 = CARTESIAN_POINT ( 'NONE',  ( 0.000000000000000000, 0.000000000000000000, -4.000000000000000000 ) ) ;
#66 = VERTEX_POINT ( 'NONE', #350 ) ;
#67 =( NAMED_UNIT ( * ) SI_UNIT ( $, .STERADIAN. ) SOLID_ANGLE_UNIT ( ) );
#68 = PRESENTATION_LAYER_ASSIGNMENT (  '', '', ( #15 ) ) ;
#69 = ADVANCED_FACE ( 'NONE', ( #105 ), #76, .T. ) ;
#70 = PRESENTATION_STYLE_ASSIGNMENT (( #126 ) ) ;
#71 = CARTESIAN_POINT ( 'NONE',  ( 6.123233995736767268E-16, 0.000000000000000000, 5.000000000000000888 ) ) ;
#72 = AXIS2_PLACEMENT_3D ( 'NONE', #159, #310, #96 ) ;
#73 = DIRECTION ( 'NONE',  ( -0.000000000000000000, -1.000000000000000000, -0.000000000000000000 ) ) ;
#74 = SURFACE_STYLE_USAGE ( .BOTH. , #318 ) ;
#75 = DIRECTION ( 'NONE',  ( -0.000000000000000000, -1.000000000000000000, -0.000000000000000000 ) ) ;
#76 = CYLINDRICAL_SURFACE ( 'NONE', #181, 4.999999999999990230 ) ;
#77 = CLOSED_SHELL ( 'NONE', ( #187, #138, #254, #98, #134, #277 ) ) ;
#78 = FACE_OUTER_BOUND ( 'NONE', #366, .T. ) ;
#79 = UNCERTAINTY_MEASURE_WITH_UNIT (LENGTH_MEASURE( 1.000000000000000082E-05 ), #347, 'distance_accuracy_value', 'NONE');
#80 = CARTESIAN_POINT ( 'NONE',  ( 0.000000000000000000, 0.000000000000000000, 0.000000000000000000 ) ) ;
#81 = AXIS2_PLACEMENT_3D ( 'NONE', #80, #294, #299 ) ;
#82 = STYLED_ITEM ( 'NONE', ( #186 ), #36 ) ;
#83 = SURFACE_STYLE_FILL_AREA ( #326 ) ;
#84 = SURFACE_SIDE_STYLE ('',( #362 ) ) ;
#85 = DIRECTION ( 'NONE',  ( 0.000000000000000000, 0.000000000000000000, -1.000000000000000000 ) ) ;
#86 = MECHANICAL_DESIGN_GEOMETRIC_PRESENTATION_REPRESENTATION (  '', ( #215 ), #228 ) ;
#87 = PRESENTATION_STYLE_ASSIGNMENT (( #137 ) ) ;
#88 = PRESENTATION_LAYER_ASSIGNMENT (  '', '', ( #28 ) ) ;
#89 =( LENGTH_UNIT ( ) NAMED_UNIT ( * ) SI_UNIT ( .MILLI., .METRE. ) );
#90 =( NAMED_UNIT ( * ) SI_UNIT ( $, .STERADIAN. ) SOLID_ANGLE_UNIT ( ) );
#91 = CARTESIAN_POINT ( 'NONE',  ( 0.000000000000000000, 0.000000000000000000, 0.000000000000000000 ) ) ;
#92 = ORIENTED_EDGE ( 'NONE', *, *, #290, .T. ) ;
#93 = CARTESIAN_POINT ( 'NONE',  ( 0.000000000000000000, 25.00000000000000000, 0.000000000000000000 ) ) ;
#94 = MECHANICAL_DESIGN_GEOMETRIC_PRESENTATION_REPRESENTATION (  '', ( #363 ), #192 ) ;
#95 = EDGE_LOOP ( 'NONE', ( #202, #238, #178, #223 ) ) ;
#96 = DIRECTION ( 'NONE',  ( 0.000000000000000000, 0.000000000000000000, -1.000000000000000000 ) ) ;
#97 = EDGE_LOOP ( 'NONE', ( #252, #337 ) ) ;
#98 = ADVANCED_FACE ( 'NONE', ( #78 ), #57, .T. ) ;
#99 = LINE ( 'NONE', #243, #47 ) ;
#100 = DIRECTION ( 'NONE',  ( -0.000000000000000000, -1.000000000000000000, -0.000000000000000000 ) ) ;
#101 = DIRECTION ( 'NONE',  ( -1.000000000000000000, 0.000000000000000000, 0.000000000000000000 ) ) ;
#102 = TOROIDAL_SURFACE ( 'NONE', #230, 4.000000000000000000, 1.000000000000000444 ) ;
#103 = EDGE_CURVE ( 'NONE', #123, #66, #356, .T. ) ;
#104 = SURFACE_STYLE_FILL_AREA ( #320 ) ;
#105 = FACE_OUTER_BOUND ( 'NONE', #95, .T. ) ;
#106 = STYLED_ITEM ( 'NONE', ( #87 ), #31 ) ;
#107 = CARTESIAN_POINT ( 'NONE',  ( 0.000000000000000000, 1.000000000000000000, 0.000000000000000000 ) ) ;
#108 = PRESENTATION_LAYER_ASSIGNMENT (  '', '', ( #323 ) ) ;
#109 = CARTESIAN_POINT ( 'NONE',  ( 6.123233995736762930E-15, 75.00000000000000000, 0.000000000000000000 ) ) ;
#110 = DIRECTION ( 'NONE',  ( -1.000000000000000000, 0.000000000000000000, 0.000000000000000000 ) ) ;
#111 =( GEOMETRIC_REPRESENTATION_CONTEXT ( 3 ) GLOBAL_UNCERTAINTY_ASSIGNED_CONTEXT ( ( #41 ) ) GLOBAL_UNIT_ASSIGNED_CONTEXT ( ( #35, #3, #346 ) ) REPRESENTATION_CONTEXT ( 'NONE', 'WORKASPACE' ) );
#112 = PRESENTATION_LAYER_ASSIGNMENT (  '', '', ( #314 ) ) ;
#113 = EDGE_LOOP ( 'NONE', ( #125, #121 ) ) ;
#114 = EDGE_CURVE ( 'NONE', #62, #136, #247, .T. ) ;
#115 =( GEOMETRIC_REPRESENTATION_CONTEXT ( 3 ) GLOBAL_UNCERTAINTY_ASSIGNED_CONTEXT ( ( #263 ) ) GLOBAL_UNIT_ASSIGNED_CONTEXT ( ( #327, #361, #90 ) ) REPRESENTATION_CONTEXT ( 'NONE', 'WORKASPACE' ) );
#116 = CARTESIAN_POINT ( 'NONE',  ( 0.000000000000000000, 25.00000000000000000, -5.000000000000000000 ) ) ;
#117 =( NAMED_UNIT ( * ) SI_UNIT ( $, .STERADIAN. ) SOLID_ANGLE_UNIT ( ) );
#118 = MECHANICAL_DESIGN_GEOMETRIC_PRESENTATION_REPRESENTATION (  '', ( #15 ), #295 ) ;
#119 = PLANE ( 'NONE',  #213 ) ;
#120 = SURFACE_STYLE_USAGE ( .BOTH. , #280 ) ;
#121 = ORIENTED_EDGE ( 'NONE', *, *, #114, .T. ) ;
#122 = PLANE ( 'NONE',  #358 ) ;
#123 = VERTEX_POINT ( 'NONE', #300 ) ;
#124 = CIRCLE ( 'NONE', #72, 5.000000000000000888 ) ;
#125 = ORIENTED_EDGE ( 'NONE', *, *, #11, .T. ) ;
#126 = SURFACE_STYLE_USAGE ( .BOTH. , #267 ) ;
#127 = DIRECTION ( 'NONE',  ( -1.203966067220177465E-16, 1.000000000000000000, -0.000000000000000000 ) ) ;
#128 = DIRECTION ( 'NONE',  ( -1.000000000000000000, -1.203966067220177465E-16, 0.000000000000000000 ) ) ;
#129 = CIRCLE ( 'NONE', #38, 5.000000000000000000 ) ;
#130 = CLOSED_SHELL ( 'NONE', ( #54, #333, #69, #264 ) ) ;
#131 = DIRECTION ( 'NONE',  ( 0.000000000000000000, 0.000000000000000000, -1.000000000000000000 ) ) ;
#132 = DIRECTION ( 'NONE',  ( -0.000000000000000000, -1.000000000000000000, -0.000000000000000000 ) ) ;
#133 = MECHANICAL_DESIGN_GEOMETRIC_PRESENTATION_REPRESENTATION (  '', ( #28 ), #115 ) ;
#134 = ADVANCED_FACE ( 'NONE', ( #167 ), #321, .T. ) ;
#135 =( NAMED_UNIT ( * ) PLANE_ANGLE_UNIT ( ) SI_UNIT ( $, .RADIAN. ) );
#136 = VERTEX_POINT ( 'NONE', #50 ) ;
#137 = SURFACE_STYLE_USAGE ( .BOTH. , #84 ) ;
#138 = ADVANCED_FACE ( 'NONE', ( #162 ), #102, .T. ) ;
#139 = SURFACE_STYLE_USAGE ( .BOTH. , #249 ) ;
#140 = CIRCLE ( 'NONE', #22, 4.000000000000000000 ) ;
#141 = CARTESIAN_POINT ( 'NONE',  ( 0.000000000000000000, 0.000000000000000000, 0.000000000000000000 ) ) ;
#142 = CARTESIAN_POINT ( 'NONE',  ( -4.999999999999976019, 25.00000000000000000, 0.000000000000000000 ) ) ;
#143 = FILL_AREA_STYLE ('',( #256 ) ) ;
#144 = PLANE ( 'NONE',  #166 ) ;
#145 = ORIENTED_EDGE ( 'NONE', *, *, #290, .F. ) ;
#146 = PRESENTATION_LAYER_ASSIGNMENT (  '', '', ( #215 ) ) ;
#147 =( NAMED_UNIT ( * ) PLANE_ANGLE_UNIT ( ) SI_UNIT ( $, .RADIAN. ) );
#148 = ORIENTED_EDGE ( 'NONE', *, *, #34, .F. ) ;
#149 =( GEOMETRIC_REPRESENTATION_CONTEXT ( 3 ) GLOBAL_UNCERTAINTY_ASSIGNED_CONTEXT ( ( #44 ) ) GLOBAL_UNIT_ASSIGNED_CONTEXT ( ( #357, #135, #352 ) ) REPRESENTATION_CONTEXT ( 'NONE', 'WORKASPACE' ) );
#150 = PLANE ( 'NONE',  #236 ) ;
#151 = EDGE_LOOP ( 'NONE', ( #195, #367, #234, #174 ) ) ;
#152 = COLOUR_RGB ( '',1.000000000000000000, 0.000000000000000000, 0.000000000000000000 ) ;
#153 = CARTESIAN_POINT ( 'NONE',  ( 4.999999999999996447, 75.00000000000000000, 6.123233995736754449E-16 ) ) ;
#154 = UNCERTAINTY_MEASURE_WITH_UNIT (LENGTH_MEASURE( 1.000000000000000082E-05 ), #233, 'distance_accuracy_value', 'NONE');
#155 = DIRECTION ( 'NONE',  ( 0.000000000000000000, 0.000000000000000000, -1.000000000000000000 ) ) ;
#156 = AXIS2_PLACEMENT_3D ( 'NONE', #107, #43, #85 ) ;
#157 = LINE ( 'NONE', #271, #268 ) ;
#158 = DIRECTION ( 'NONE',  ( -0.000000000000000000, -1.000000000000000000, -0.000000000000000000 ) ) ;
#159 = CARTESIAN_POINT ( 'NONE',  ( 0.000000000000000000, 1.000000000000000000, 0.000000000000000000 ) ) ;
#160 = CARTESIAN_POINT ( 'NONE',  ( 6.123233995736762930E-15, 75.00000000000000000, 0.000000000000000000 ) ) ;
#161 = CYLINDRICAL_SURFACE ( 'NONE', #250, 4.999999999999990230 ) ;
#162 = FACE_OUTER_BOUND ( 'NONE', #283, .T. ) ;
#163 = MECHANICAL_DESIGN_GEOMETRIC_PRESENTATION_REPRESENTATION (  '', ( #82 ), #111 ) ;
#164 = CARTESIAN_POINT ( 'NONE',  ( 0.000000000000000000, 1.000000000000000000, 0.000000000000000000 ) ) ;
#165 = DIRECTION ( 'NONE',  ( -0.000000000000000000, -1.000000000000000000, -0.000000000000000000 ) ) ;
#166 = AXIS2_PLACEMENT_3D ( 'NONE', #255, #225, #198 ) ;
#167 = FACE_OUTER_BOUND ( 'NONE', #313, .T. ) ;
#168 = DIRECTION ( 'NONE',  ( 0.000000000000000000, 0.000000000000000000, -1.000000000000000000 ) ) ;
#169 = AXIS2_PLACEMENT_3D ( 'NONE', #91, #176, #282 ) ;
#170 = CARTESIAN_POINT ( 'NONE',  ( 1.214306433183764966E-14, 25.00000000000000000, 0.000000000000000000 ) ) ;
#171 = EDGE_CURVE ( 'NONE', #19, #262, #64, .T. ) ;
#172 = FILL_AREA_STYLE ('',( #52 ) ) ;
#173 = AXIS2_PLACEMENT_3D ( 'NONE', #14, #48, #45 ) ;
#174 = ORIENTED_EDGE ( 'NONE', *, *, #292, .F. ) ;
#175 = FACE_OUTER_BOUND ( 'NONE', #209, .T. ) ;
#176 = DIRECTION ( 'NONE',  ( -0.000000000000000000, -1.000000000000000000, -0.000000000000000000 ) ) ;
#177 = ORIENTED_EDGE ( 'NONE', *, *, #324, .F. ) ;
#178 = ORIENTED_EDGE ( 'NONE', *, *, #58, .T. ) ;
#179 = UNCERTAINTY_MEASURE_WITH_UNIT (LENGTH_MEASURE( 1.000000000000000082E-05 ), #194, 'distance_accuracy_value', 'NONE');
#180 =( NAMED_UNIT ( * ) PLANE_ANGLE_UNIT ( ) SI_UNIT ( $, .RADIAN. ) );
#181 = AXIS2_PLACEMENT_3D ( 'NONE', #218, #212, #101 ) ;
#182 =( NAMED_UNIT ( * ) PLANE_ANGLE_UNIT ( ) SI_UNIT ( $, .RADIAN. ) );
#183 = LINE ( 'NONE', #71, #217 ) ;
#184 = SURFACE_STYLE_FILL_AREA ( #13 ) ;
#185 = AXIS2_PLACEMENT_3D ( 'NONE', #93, #75, #214 ) ;
#186 = PRESENTATION_STYLE_ASSIGNMENT (( #74 ) ) ;
#187 = ADVANCED_FACE ( 'NONE', ( #335 ), #26, .T. ) ;
#188 = PRODUCT_RELATED_PRODUCT_CATEGORY ( 'part', '', ( #274 ) ) ;
#189 = ORIENTED_EDGE ( 'NONE', *, *, #49, .F. ) ;
#190 = CARTESIAN_POINT ( 'NONE',  ( 0.000000000000000000, 1.000000000000000000, 0.000000000000000000 ) ) ;
#191 = SURFACE_STYLE_FILL_AREA ( #221 ) ;
#192 =( GEOMETRIC_REPRESENTATION_CONTEXT ( 3 ) GLOBAL_UNCERTAINTY_ASSIGNED_CONTEXT ( ( #79 ) ) GLOBAL_UNIT_ASSIGNED_CONTEXT ( ( #347, #182, #67 ) ) REPRESENTATION_CONTEXT ( 'NONE', 'WORKASPACE' ) );
#193 = PRESENTATION_STYLE_ASSIGNMENT (( #139 ) ) ;
#194 =( LENGTH_UNIT ( ) NAMED_UNIT ( * ) SI_UNIT ( .MILLI., .METRE. ) );
#195 = ORIENTED_EDGE ( 'NONE', *, *, #42, .T. ) ;
#196 =( NAMED_UNIT ( * ) SI_UNIT ( $, .STERADIAN. ) SOLID_ANGLE_UNIT ( ) );
#197 = CARTESIAN_POINT ( 'NONE',  ( 0.000000000000000000, 25.00000000000000000, 0.000000000000000000 ) ) ;
#198 = DIRECTION ( 'NONE',  ( 1.000000000000000000, 1.203966067220177465E-16, 0.000000000000000000 ) ) ;
#199 = PRODUCT_DEFINITION ( 'UNKNOWN', '', #316, #322 ) ;
#200 =( NAMED_UNIT ( * ) PLANE_ANGLE_UNIT ( ) SI_UNIT ( $, .RADIAN. ) );
#201 = FILL_AREA_STYLE ('',( #229 ) ) ;
#202 = ORIENTED_EDGE ( 'NONE', *, *, #301, .F. ) ;
#203 = DIRECTION ( 'NONE',  ( -1.000000000000000000, 0.000000000000000000, 0.000000000000000000 ) ) ;
#204 = AXIS2_PLACEMENT_3D ( 'NONE', #244, #355, #222 ) ;
#205 = SURFACE_SIDE_STYLE ('',( #55 ) ) ;
#206 = EDGE_CURVE ( 'NONE', #262, #19, #329, .T. ) ;
#207 = ORIENTED_EDGE ( 'NONE', *, *, #301, .T. ) ;
#208 = DIRECTION ( 'NONE',  ( -1.203966067220177465E-16, 1.000000000000000000, -0.000000000000000000 ) ) ;
#209 = EDGE_LOOP ( 'NONE', ( #309, #207, #29, #302 ) ) ;
#210 = DIRECTION ( 'NONE',  ( 1.000000000000000000, 0.000000000000000000, 0.000000000000000000 ) ) ;
#211 = ORIENTED_EDGE ( 'NONE', *, *, #338, .T. ) ;
#212 = DIRECTION ( 'NONE',  ( -1.203966067220177465E-16, 1.000000000000000000, -0.000000000000000000 ) ) ;
#213 = AXIS2_PLACEMENT_3D ( 'NONE', #287, #291, #245 ) ;
#214 = DIRECTION ( 'NONE',  ( 0.000000000000000000, 0.000000000000000000, -1.000000000000000000 ) ) ;
#215 = STYLED_ITEM ( 'NONE', ( #21 ), #254 ) ;
#216 =( NAMED_UNIT ( * ) SI_UNIT ( $, .STERADIAN. ) SOLID_ANGLE_UNIT ( ) );
#217 = VECTOR ( 'NONE', #307, 1000.000000000000000 ) ;
#218 = CARTESIAN_POINT ( 'NONE',  ( 6.123233995736762930E-15, 75.00000000000000000, 0.000000000000000000 ) ) ;
#219 = UNCERTAINTY_MEASURE_WITH_UNIT (LENGTH_MEASURE( 1.000000000000000082E-05 ), #89, 'distance_accuracy_value', 'NONE');
#220 = ADVANCED_BREP_SHAPE_REPRESENTATION ( '59614', ( #31, #36, #270 ), #63 ) ;
#221 = FILL_AREA_STYLE ('',( #248 ) ) ;
#222 = DIRECTION ( 'NONE',  ( -1.224646799147353454E-16, 0.000000000000000000, -1.000000000000000000 ) ) ;
#223 = ORIENTED_EDGE ( 'NONE', *, *, #114, .F. ) ;
#224 = SHAPE_DEFINITION_REPRESENTATION ( #10, #220 ) ;
#225 = DIRECTION ( 'NONE',  ( 1.203966067220177465E-16, -1.000000000000000000, 0.000000000000000000 ) ) ;
#226 = CIRCLE ( 'NONE', #46, 5.000000000000000888 ) ;
#227 = DIRECTION ( 'NONE',  ( -1.000000000000000000, 0.000000000000000000, 0.000000000000000000 ) ) ;
#228 =( GEOMETRIC_REPRESENTATION_CONTEXT ( 3 ) GLOBAL_UNCERTAINTY_ASSIGNED_CONTEXT ( ( #154 ) ) GLOBAL_UNIT_ASSIGNED_CONTEXT ( ( #233, #147, #258 ) ) REPRESENTATION_CONTEXT ( 'NONE', 'WORKASPACE' ) );
#229 = FILL_AREA_STYLE_COLOUR ( '', #152 ) ;
#230 = AXIS2_PLACEMENT_3D ( 'NONE', #190, #165, #168 ) ;
#231 = SURFACE_STYLE_FILL_AREA ( #201 ) ;
#232 = ORIENTED_EDGE ( 'NONE', *, *, #24, .T. ) ;
#233 =( LENGTH_UNIT ( ) NAMED_UNIT ( * ) SI_UNIT ( .MILLI., .METRE. ) );
#234 = ORIENTED_EDGE ( 'NONE', *, *, #351, .F. ) ;
#235 = CIRCLE ( 'NONE', #279, 4.000000000000000000 ) ;
#236 = AXIS2_PLACEMENT_3D ( 'NONE', #6, #315, #128 ) ;
#237 = CARTESIAN_POINT ( 'NONE',  ( 0.000000000000000000, 0.000000000000000000, 0.000000000000000000 ) ) ;
#238 = ORIENTED_EDGE ( 'NONE', *, *, #171, .T. ) ;
#239 = FILL_AREA_STYLE_COLOUR ( '', #289 ) ;
#240 = UNCERTAINTY_MEASURE_WITH_UNIT (LENGTH_MEASURE( 1.000000000000000082E-05 ), #2, 'distance_accuracy_value', 'NONE');
#241 =( GEOMETRIC_REPRESENTATION_CONTEXT ( 3 ) GLOBAL_UNCERTAINTY_ASSIGNED_CONTEXT ( ( #179 ) ) GLOBAL_UNIT_ASSIGNED_CONTEXT ( ( #194, #251, #265 ) ) REPRESENTATION_CONTEXT ( 'NONE', 'WORKASPACE' ) );
#242 = DIRECTION ( 'NONE',  ( -1.000000000000000000, 0.000000000000000000, 0.000000000000000000 ) ) ;
#243 = CARTESIAN_POINT ( 'NONE',  ( 0.000000000000000000, 0.000000000000000000, -5.000000000000000888 ) ) ;
#244 = CARTESIAN_POINT ( 'NONE',  ( 4.898587196589412829E-16, 1.000000000000000000, 4.000000000000000000 ) ) ;
#245 = DIRECTION ( 'NONE',  ( 0.000000000000000000, -0.000000000000000000, 1.000000000000000000 ) ) ;
#246 = DIRECTION ( 'NONE',  ( -1.203966067220177465E-16, 1.000000000000000000, -0.000000000000000000 ) ) ;
#247 = CIRCLE ( 'NONE', #369, 4.999999999999993783 ) ;
#248 = FILL_AREA_STYLE_COLOUR ( '', #286 ) ;
#249 = SURFACE_SIDE_STYLE ('',( #83 ) ) ;
#250 = AXIS2_PLACEMENT_3D ( 'NONE', #160, #246, #242 ) ;
#251 =( NAMED_UNIT ( * ) PLANE_ANGLE_UNIT ( ) SI_UNIT ( $, .RADIAN. ) );
#252 = ORIENTED_EDGE ( 'NONE', *, *, #206, .F. ) ;
#253 = DIRECTION ( 'NONE',  ( 0.000000000000000000, -1.000000000000000000, -0.000000000000000000 ) ) ;
#254 = ADVANCED_FACE ( 'NONE', ( #284 ), #122, .T. ) ;
#255 = CARTESIAN_POINT ( 'NONE',  ( 5.000000000000000000, 75.00000000000000000, 0.000000000000000000 ) ) ;
#256 = FILL_AREA_STYLE_COLOUR ( '', #319 ) ;
#257 = VERTEX_POINT ( 'NONE', #116 ) ;
#258 =( NAMED_UNIT ( * ) SI_UNIT ( $, .STERADIAN. ) SOLID_ANGLE_UNIT ( ) );
#259 = VERTEX_POINT ( 'NONE', #359 ) ;
#260 = AXIS2_PLACEMENT_3D ( 'NONE', #293, #203, #266 ) ;
#261 = CARTESIAN_POINT ( 'NONE',  ( 0.000000000000000000, 0.000000000000000000, 0.000000000000000000 ) ) ;
#262 = VERTEX_POINT ( 'NONE', #142 ) ;
#263 = UNCERTAINTY_MEASURE_WITH_UNIT (LENGTH_MEASURE( 1.000000000000000082E-05 ), #327, 'distance_accuracy_value', 'NONE');
#264 = ADVANCED_FACE ( 'NONE', ( #330 ), #144, .F. ) ;
#265 =( NAMED_UNIT ( * ) SI_UNIT ( $, .STERADIAN. ) SOLID_ANGLE_UNIT ( ) );
#266 = DIRECTION ( 'NONE',  ( 0.000000000000000000, 0.000000000000000000, 1.000000000000000000 ) ) ;
#267 = SURFACE_SIDE_STYLE ('',( #231 ) ) ;
#268 = VECTOR ( 'NONE', #127, 1000.000000000000000 ) ;
#269 = PRESENTATION_STYLE_ASSIGNMENT (( #348 ) ) ;
#270 = AXIS2_PLACEMENT_3D ( 'NONE', #237, #341, #210 ) ;
#271 = CARTESIAN_POINT ( 'NONE',  ( -4.999999999999984901, 75.00000000000000000, 0.000000000000000000 ) ) ;
#272 = CARTESIAN_POINT ( 'NONE',  ( 5.000000000000000888, 25.00000000000000000, 6.123233995736757408E-16 ) ) ;
#273 = PRESENTATION_LAYER_ASSIGNMENT (  '', '', ( #106 ) ) ;
#274 = PRODUCT ( '59614', '59614', '', ( #4 ) ) ;
#275 = FILL_AREA_STYLE_COLOUR ( '', #296 ) ;
#276 = ORIENTED_EDGE ( 'NONE', *, *, #324, .T. ) ;
#277 = ADVANCED_FACE ( 'NONE', ( #360 ), #119, .T. ) ;
#278 = DIRECTION ( 'NONE',  ( 0.000000000000000000, 0.000000000000000000, -1.000000000000000000 ) ) ;
#279 = AXIS2_PLACEMENT_3D ( 'NONE', #261, #73, #131 ) ;
#280 = SURFACE_SIDE_STYLE ('',( #20 ) ) ;
#281 = FILL_AREA_STYLE ('',( #61 ) ) ;
#282 = DIRECTION ( 'NONE',  ( 0.000000000000000000, 0.000000000000000000, -1.000000000000000000 ) ) ;
#283 = EDGE_LOOP ( 'NONE', ( #27, #23, #59, #189 ) ) ;
#284 = FACE_OUTER_BOUND ( 'NONE', #311, .T. ) ;
#285 = ORIENTED_EDGE ( 'NONE', *, *, #103, .F. ) ;
#286 = COLOUR_RGB ( '',1.000000000000000000, 0.000000000000000000, 0.000000000000000000 ) ;
#287 = CARTESIAN_POINT ( 'NONE',  ( 0.000000000000000000, 25.00000000000000000, 0.000000000000000000 ) ) ;
#288 = ORIENTED_EDGE ( 'NONE', *, *, #49, .T. ) ;
#289 = COLOUR_RGB ( '',1.000000000000000000, 0.000000000000000000, 0.000000000000000000 ) ;
#290 = EDGE_CURVE ( 'NONE', #66, #305, #140, .T. ) ;
#291 = DIRECTION ( 'NONE',  ( 0.000000000000000000, 1.000000000000000000, 0.000000000000000000 ) ) ;
#292 = EDGE_CURVE ( 'NONE', #257, #342, #99, .T. ) ;
#293 = CARTESIAN_POINT ( 'NONE',  ( 0.000000000000000000, 1.000000000000000000, -4.000000000000000000 ) ) ;
#294 = DIRECTION ( 'NONE',  ( -0.000000000000000000, -1.000000000000000000, -0.000000000000000000 ) ) ;
#295 =( GEOMETRIC_REPRESENTATION_CONTEXT ( 3 ) GLOBAL_UNCERTAINTY_ASSIGNED_CONTEXT ( ( #30 ) ) GLOBAL_UNIT_ASSIGNED_CONTEXT ( ( #7, #353, #196 ) ) REPRESENTATION_CONTEXT ( 'NONE', 'WORKASPACE' ) );
#296 = COLOUR_RGB ( '',1.000000000000000000, 0.000000000000000000, 0.000000000000000000 ) ;
#297 = APPLICATION_PROTOCOL_DEFINITION ( 'draft international standard', 'automotive_design', 1998, #60 ) ;
#298 = APPLICATION_CONTEXT ( 'automotive_design' ) ;
#299 = DIRECTION ( 'NONE',  ( 0.000000000000000000, 0.000000000000000000, -1.000000000000000000 ) ) ;
#300 = CARTESIAN_POINT ( 'NONE',  ( 6.123233995736766282E-16, 1.000000000000000000, 5.000000000000000888 ) ) ;
#301 = EDGE_CURVE ( 'NONE', #19, #62, #37, .T. ) ;
#302 = ORIENTED_EDGE ( 'NONE', *, *, #58, .F. ) ;
#303 = DIRECTION ( 'NONE',  ( -1.203966067220177465E-16, 1.000000000000000000, -0.000000000000000000 ) ) ;
#304 = DIRECTION ( 'NONE',  ( -1.203966067220177465E-16, 1.000000000000000000, -0.000000000000000000 ) ) ;
#305 = VERTEX_POINT ( 'NONE', #65 ) ;
#306 = CIRCLE ( 'NONE', #173, 4.999999999999993783 ) ;
#307 = DIRECTION ( 'NONE',  ( -0.000000000000000000, -1.000000000000000000, -0.000000000000000000 ) ) ;
#308 = PRESENTATION_LAYER_ASSIGNMENT (  '', '', ( #363 ) ) ;
#309 = ORIENTED_EDGE ( 'NONE', *, *, #206, .T. ) ;
#310 = DIRECTION ( 'NONE',  ( -0.000000000000000000, -1.000000000000000000, -0.000000000000000000 ) ) ;
#311 = EDGE_LOOP ( 'NONE', ( #211, #92 ) ) ;
#312 = DIRECTION ( 'NONE',  ( 0.000000000000000000, 0.000000000000000000, -1.000000000000000000 ) ) ;
#313 = EDGE_LOOP ( 'NONE', ( #148, #276, #340, #328 ) ) ;
#314 = STYLED_ITEM ( 'NONE', ( #193 ), #134 ) ;
#315 = DIRECTION ( 'NONE',  ( -1.203966067220177465E-16, 1.000000000000000000, 0.000000000000000000 ) ) ;
#316 = PRODUCT_DEFINITION_FORMATION_WITH_SPECIFIED_SOURCE ( 'ANY', '', #274, .NOT_KNOWN. ) ;
#317 = AXIS2_PLACEMENT_3D ( 'NONE', #365, #304, #56 ) ;
#318 = SURFACE_SIDE_STYLE ('',( #104 ) ) ;
#319 = COLOUR_RGB ( '',0.7921568627450980005, 0.8196078431372548767, 0.9333333333333333481 ) ;
#320 = FILL_AREA_STYLE ('',( #40 ) ) ;
#321 = CYLINDRICAL_SURFACE ( 'NONE', #81, 5.000000000000000888 ) ;
#322 = PRODUCT_DEFINITION_CONTEXT ( 'detailed design', #60, 'design' ) ;
#323 = STYLED_ITEM ( 'NONE', ( #336 ), #187 ) ;
#324 = EDGE_CURVE ( 'NONE', #259, #257, #339, .T. ) ;
#325 = SURFACE_SIDE_STYLE ('',( #191 ) ) ;
#326 = FILL_AREA_STYLE ('',( #275 ) ) ;
#327 =( LENGTH_UNIT ( ) NAMED_UNIT ( * ) SI_UNIT ( .MILLI., .METRE. ) );
#328 = ORIENTED_EDGE ( 'NONE', *, *, #24, .F. ) ;
#329 = CIRCLE ( 'NONE', #317, 4.999999999999987566 ) ;
#330 = FACE_OUTER_BOUND ( 'NONE', #113, .T. ) ;
#331 = CIRCLE ( 'NONE', #260, 1.000000000000000444 ) ;
#332 = SURFACE_STYLE_USAGE ( .BOTH. , #205 ) ;
#333 = ADVANCED_FACE ( 'NONE', ( #343 ), #150, .F. ) ;
#334 =( GEOMETRIC_REPRESENTATION_CONTEXT ( 3 ) GLOBAL_UNCERTAINTY_ASSIGNED_CONTEXT ( ( #219 ) ) GLOBAL_UNIT_ASSIGNED_CONTEXT ( ( #89, #200, #117 ) ) REPRESENTATION_CONTEXT ( 'NONE', 'WORKASPACE' ) );
#335 = FACE_OUTER_BOUND ( 'NONE', #151, .T. ) ;
#336 = PRESENTATION_STYLE_ASSIGNMENT (( #332 ) ) ;
#337 = ORIENTED_EDGE ( 'NONE', *, *, #171, .F. ) ;
#338 = EDGE_CURVE ( 'NONE', #305, #66, #235, .T. ) ;
#339 = CIRCLE ( 'NONE', #185, 5.000000000000000000 ) ;
#340 = ORIENTED_EDGE ( 'NONE', *, *, #292, .T. ) ;
#341 = DIRECTION ( 'NONE',  ( 0.000000000000000000, 0.000000000000000000, 1.000000000000000000 ) ) ;
#342 = VERTEX_POINT ( 'NONE', #39 ) ;
#343 = FACE_OUTER_BOUND ( 'NONE', #97, .T. ) ;
#344 = SURFACE_SIDE_STYLE ('',( #184 ) ) ;
#345 = DIRECTION ( 'NONE',  ( -0.000000000000000000, -1.000000000000000000, -0.000000000000000000 ) ) ;
#346 =( NAMED_UNIT ( * ) SI_UNIT ( $, .STERADIAN. ) SOLID_ANGLE_UNIT ( ) );
#347 =( LENGTH_UNIT ( ) NAMED_UNIT ( * ) SI_UNIT ( .MILLI., .METRE. ) );
#348 = SURFACE_STYLE_USAGE ( .BOTH. , #344 ) ;
#349 = DIRECTION ( 'NONE',  ( 0.000000000000000000, 0.000000000000000000, -1.000000000000000000 ) ) ;
#350 = CARTESIAN_POINT ( 'NONE',  ( 5.510910596163089556E-16, 0.000000000000000000, 4.000000000000000000 ) ) ;
#351 = EDGE_CURVE ( 'NONE', #342, #123, #124, .T. ) ;
#352 =( NAMED_UNIT ( * ) SI_UNIT ( $, .STERADIAN. ) SOLID_ANGLE_UNIT ( ) );
#353 =( NAMED_UNIT ( * ) PLANE_ANGLE_UNIT ( ) SI_UNIT ( $, .RADIAN. ) );
#354 = MECHANICAL_DESIGN_GEOMETRIC_PRESENTATION_REPRESENTATION (  '', ( #323 ), #334 ) ;
#355 = DIRECTION ( 'NONE',  ( 1.000000000000000000, 0.000000000000000000, -1.224646799147353207E-16 ) ) ;
#356 = CIRCLE ( 'NONE', #204, 1.000000000000000444 ) ;
#357 =( LENGTH_UNIT ( ) NAMED_UNIT ( * ) SI_UNIT ( .MILLI., .METRE. ) );
#358 = AXIS2_PLACEMENT_3D ( 'NONE', #141, #253, #278 ) ;
#359 = CARTESIAN_POINT ( 'NONE',  ( 6.123233995736766282E-16, 25.00000000000000000, 5.000000000000000000 ) ) ;
#360 = FACE_OUTER_BOUND ( 'NONE', #18, .T. ) ;
#361 =( NAMED_UNIT ( * ) PLANE_ANGLE_UNIT ( ) SI_UNIT ( $, .RADIAN. ) );
#362 = SURFACE_STYLE_FILL_AREA ( #143 ) ;
#363 = STYLED_ITEM ( 'NONE', ( #70 ), #277 ) ;
#364 = COLOUR_RGB ( '',1.000000000000000000, 0.000000000000000000, 0.000000000000000000 ) ;
#365 = CARTESIAN_POINT ( 'NONE',  ( 1.214306433183764966E-14, 25.00000000000000000, 0.000000000000000000 ) ) ;
#366 = EDGE_LOOP ( 'NONE', ( #285, #232, #288, #145 ) ) ;
#367 = ORIENTED_EDGE ( 'NONE', *, *, #34, .T. ) ;
#368 = MECHANICAL_DESIGN_GEOMETRIC_PRESENTATION_REPRESENTATION (  '', ( #106 ), #241 ) ;
#369 = AXIS2_PLACEMENT_3D ( 'NONE', #109, #16, #110 ) ;
#370 = APPLICATION_PROTOCOL_DEFINITION ( 'draft international standard', 'automotive_design', 1998, #298 ) ;
ENDSEC;
END-ISO-10303-21;
