ISO-10303-21;
HEADER;
FILE_DESCRIPTION (( 'STEP AP214' ),
    '1' );
FILE_NAME ('59477.STEP',
    '2023-07-24T15:07:17',
    ( '' ),
    ( '' ),
    'SwSTEP 2.0',
    'SolidWorks 2023',
    '' );
FILE_SCHEMA (( 'AUTOMOTIVE_DESIGN' ));
ENDSEC;

DATA;
#1 = PRESENTATION_STYLE_ASSIGNMENT (( #116 ) ) ;
#2 = ORIENTED_EDGE ( 'NONE', *, *, #164, .F. ) ;
#3 = DIRECTION ( 'NONE',  ( 0.000000000000000000, 1.000000000000000000, 0.000000000000000000 ) ) ;
#4 = EDGE_CURVE ( 'NONE', #257, #346, #162, .T. ) ;
#5 = DIRECTION ( 'NONE',  ( 1.000000000000000000, 0.000000000000000000, 0.000000000000000000 ) ) ;
#6 = ORIENTED_EDGE ( 'NONE', *, *, #144, .F. ) ;
#7 = ADVANCED_FACE ( 'NONE', ( #359 ), #325, .F. ) ;
#8 =( LENGTH_UNIT ( ) NAMED_UNIT ( * ) SI_UNIT ( .MILLI., .METRE. ) );
#9 = CARTESIAN_POINT ( 'NONE',  ( 0.000000000000000000, 0.000000000000000000, 0.000000000000000000 ) ) ;
#10 = AXIS2_PLACEMENT_3D ( 'NONE', #9, #184, #208 ) ;
#11 =( NAMED_UNIT ( * ) SI_UNIT ( $, .STERADIAN. ) SOLID_ANGLE_UNIT ( ) );
#12 = APPLICATION_CONTEXT ( 'automotive_design' ) ;
#13 = DIRECTION ( 'NONE',  ( 0.000000000000000000, 0.000000000000000000, -1.000000000000000000 ) ) ;
#14 = UNCERTAINTY_MEASURE_WITH_UNIT (LENGTH_MEASURE( 1.000000000000000082E-05 ), #77, 'distance_accuracy_value', 'NONE');
#15 = MANIFOLD_SOLID_BREP ( 'Revolve - Tool Body (Straight Shanked)', #134 ) ;
#16 =( GEOMETRIC_REPRESENTATION_CONTEXT ( 3 ) GLOBAL_UNCERTAINTY_ASSIGNED_CONTEXT ( ( #247 ) ) GLOBAL_UNIT_ASSIGNED_CONTEXT ( ( #8, #215, #153 ) ) REPRESENTATION_CONTEXT ( 'NONE', 'WORKASPACE' ) );
#17 = VERTEX_POINT ( 'NONE', #270 ) ;
#18 = DIRECTION ( 'NONE',  ( 0.000000000000000000, 0.000000000000000000, -1.000000000000000000 ) ) ;
#19 = CARTESIAN_POINT ( 'NONE',  ( 0.000000000000000000, 12.00000000000000000, 0.000000000000000000 ) ) ;
#20 = COLOUR_RGB ( '',1.000000000000000000, 0.000000000000000000, 0.000000000000000000 ) ;
#21 = AXIS2_PLACEMENT_3D ( 'NONE', #256, #368, #30 ) ;
#22 =( NAMED_UNIT ( * ) PLANE_ANGLE_UNIT ( ) SI_UNIT ( $, .RADIAN. ) );
#23 = ADVANCED_BREP_SHAPE_REPRESENTATION ( '59477', ( #156, #15, #94 ), #58 ) ;
#24 = SURFACE_STYLE_FILL_AREA ( #274 ) ;
#25 = EDGE_CURVE ( 'NONE', #288, #259, #102, .T. ) ;
#26 = DIRECTION ( 'NONE',  ( -1.000000000000000000, 0.000000000000000000, 0.000000000000000000 ) ) ;
#27 =( NAMED_UNIT ( * ) SI_UNIT ( $, .STERADIAN. ) SOLID_ANGLE_UNIT ( ) );
#28 = EDGE_CURVE ( 'NONE', #17, #89, #309, .T. ) ;
#29 = LINE ( 'NONE', #303, #220 ) ;
#30 = DIRECTION ( 'NONE',  ( -1.000000000000000000, -1.203932746194552959E-16, 0.000000000000000000 ) ) ;
#31 = DIRECTION ( 'NONE',  ( -1.203932746194552959E-16, 1.000000000000000000, -0.000000000000000000 ) ) ;
#32 = FACE_OUTER_BOUND ( 'NONE', #91, .T. ) ;
#33 = AXIS2_PLACEMENT_3D ( 'NONE', #360, #79, #199 ) ;
#34 = AXIS2_PLACEMENT_3D ( 'NONE', #75, #365, #203 ) ;
#35 = FILL_AREA_STYLE ('',( #59 ) ) ;
#36 = CIRCLE ( 'NONE', #336, 2.999999999999996891 ) ;
#37 = FACE_OUTER_BOUND ( 'NONE', #314, .T. ) ;
#38 = DIRECTION ( 'NONE',  ( 0.000000000000000000, 0.000000000000000000, 1.000000000000000000 ) ) ;
#39 = AXIS2_PLACEMENT_3D ( 'NONE', #159, #104, #13 ) ;
#40 = EDGE_LOOP ( 'NONE', ( #263, #117, #319, #152 ) ) ;
#41 = COLOUR_RGB ( '',1.000000000000000000, 0.000000000000000000, 0.000000000000000000 ) ;
#42 = DIRECTION ( 'NONE',  ( -1.203932746194552959E-16, 1.000000000000000000, -0.000000000000000000 ) ) ;
#43 = DIRECTION ( 'NONE',  ( 1.203932746194552959E-16, -1.000000000000000000, 0.000000000000000000 ) ) ;
#44 = AXIS2_PLACEMENT_3D ( 'NONE', #19, #328, #190 ) ;
#45 = ORIENTED_EDGE ( 'NONE', *, *, #95, .F. ) ;
#46 = EDGE_CURVE ( 'NONE', #257, #149, #250, .T. ) ;
#47 = ORIENTED_EDGE ( 'NONE', *, *, #311, .T. ) ;
#48 = LINE ( 'NONE', #330, #230 ) ;
#49 = FACE_OUTER_BOUND ( 'NONE', #40, .T. ) ;
#50 = MECHANICAL_DESIGN_GEOMETRIC_PRESENTATION_REPRESENTATION (  '', ( #272 ), #323 ) ;
#51 = PRODUCT_DEFINITION ( 'UNKNOWN', '', #142, #305 ) ;
#52 = DIRECTION ( 'NONE',  ( 0.000000000000000000, 0.000000000000000000, -1.000000000000000000 ) ) ;
#53 = PRESENTATION_LAYER_ASSIGNMENT (  '', '', ( #118 ) ) ;
#54 = SURFACE_STYLE_FILL_AREA ( #321 ) ;
#55 = SURFACE_STYLE_USAGE ( .BOTH. , #226 ) ;
#56 = CARTESIAN_POINT ( 'NONE',  ( -2.999999999999981792, 11.99999999999999645, 0.000000000000000000 ) ) ;
#57 = PRESENTATION_STYLE_ASSIGNMENT (( #177 ) ) ;
#58 =( GEOMETRIC_REPRESENTATION_CONTEXT ( 3 ) GLOBAL_UNCERTAINTY_ASSIGNED_CONTEXT ( ( #224 ) ) GLOBAL_UNIT_ASSIGNED_CONTEXT ( ( #254, #109, #347 ) ) REPRESENTATION_CONTEXT ( 'NONE', 'WORKASPACE' ) );
#59 = FILL_AREA_STYLE_COLOUR ( '', #64 ) ;
#60 = ORIENTED_EDGE ( 'NONE', *, *, #25, .F. ) ;
#61 = DIRECTION ( 'NONE',  ( -1.000000000000000000, 0.000000000000000000, 0.000000000000000000 ) ) ;
#62 = ORIENTED_EDGE ( 'NONE', *, *, #144, .T. ) ;
#63 = DIRECTION ( 'NONE',  ( -1.203932746194552959E-16, 1.000000000000000000, -0.000000000000000000 ) ) ;
#64 = COLOUR_RGB ( '',1.000000000000000000, 0.000000000000000000, 0.000000000000000000 ) ;
#65 = VERTEX_POINT ( 'NONE', #123 ) ;
#66 = DIRECTION ( 'NONE',  ( -1.000000000000000000, 0.000000000000000000, 0.000000000000000000 ) ) ;
#67 = STYLED_ITEM ( 'NONE', ( #279 ), #156 ) ;
#68 = AXIS2_PLACEMENT_3D ( 'NONE', #304, #168, #52 ) ;
#69 = CARTESIAN_POINT ( 'NONE',  ( 2.999999999999996891, 63.00000000000000000, 3.673940397442052472E-16 ) ) ;
#70 = CLOSED_SHELL ( 'NONE', ( #154, #103, #100, #293, #189, #171 ) ) ;
#71 =( LENGTH_UNIT ( ) NAMED_UNIT ( * ) SI_UNIT ( .MILLI., .METRE. ) );
#72 = PLANE ( 'NONE',  #169 ) ;
#73 = STYLED_ITEM ( 'NONE', ( #1 ), #189 ) ;
#74 = DIRECTION ( 'NONE',  ( 0.000000000000000000, 0.000000000000000000, -1.000000000000000000 ) ) ;
#75 = CARTESIAN_POINT ( 'NONE',  ( 3.061616997868383634E-16, 0.5000000000000000000, 2.500000000000000444 ) ) ;
#76 =( NAMED_UNIT ( * ) SI_UNIT ( $, .STERADIAN. ) SOLID_ANGLE_UNIT ( ) );
#77 =( LENGTH_UNIT ( ) NAMED_UNIT ( * ) SI_UNIT ( .MILLI., .METRE. ) );
#78 = DIRECTION ( 'NONE',  ( -1.000000000000000000, 0.000000000000000000, 0.000000000000000000 ) ) ;
#79 = DIRECTION ( 'NONE',  ( -0.000000000000000000, -1.000000000000000000, -0.000000000000000000 ) ) ;
#80 = CIRCLE ( 'NONE', #310, 2.999999999999996891 ) ;
#81 = FILL_AREA_STYLE ('',( #111 ) ) ;
#82 = MECHANICAL_DESIGN_GEOMETRIC_PRESENTATION_REPRESENTATION (  '', ( #67 ), #145 ) ;
#83 = SURFACE_SIDE_STYLE ('',( #170 ) ) ;
#84 = ORIENTED_EDGE ( 'NONE', *, *, #124, .F. ) ;
#85 =( GEOMETRIC_REPRESENTATION_CONTEXT ( 3 ) GLOBAL_UNCERTAINTY_ASSIGNED_CONTEXT ( ( #273 ) ) GLOBAL_UNIT_ASSIGNED_CONTEXT ( ( #113, #176, #227 ) ) REPRESENTATION_CONTEXT ( 'NONE', 'WORKASPACE' ) );
#86 = AXIS2_PLACEMENT_3D ( 'NONE', #243, #242, #192 ) ;
#87 = SURFACE_STYLE_USAGE ( .BOTH. , #155 ) ;
#88 = PRESENTATION_LAYER_ASSIGNMENT (  '', '', ( #73 ) ) ;
#89 = VERTEX_POINT ( 'NONE', #354 ) ;
#90 = CARTESIAN_POINT ( 'NONE',  ( 0.000000000000000000, 12.00000000000000000, 0.000000000000000000 ) ) ;
#91 = EDGE_LOOP ( 'NONE', ( #6, #114 ) ) ;
#92 = PRODUCT ( '59477', '59477', '', ( #182 ) ) ;
#93 = CARTESIAN_POINT ( 'NONE',  ( 0.000000000000000000, 0.5000000000000000000, 0.000000000000000000 ) ) ;
#94 = AXIS2_PLACEMENT_3D ( 'NONE', #290, #38, #5 ) ;
#95 = EDGE_CURVE ( 'NONE', #147, #346, #36, .T. ) ;
#96 = DIRECTION ( 'NONE',  ( 0.000000000000000000, -0.000000000000000000, 1.000000000000000000 ) ) ;
#97 = COLOUR_RGB ( '',1.000000000000000000, 0.000000000000000000, 0.000000000000000000 ) ;
#98 = STYLED_ITEM ( 'NONE', ( #57 ), #154 ) ;
#99 = FILL_AREA_STYLE ('',( #157 ) ) ;
#100 = ADVANCED_FACE ( 'NONE', ( #161 ), #72, .T. ) ;
#101 = FILL_AREA_STYLE ('',( #268 ) ) ;
#102 = CIRCLE ( 'NONE', #39, 3.000000000000000000 ) ;
#103 = ADVANCED_FACE ( 'NONE', ( #49 ), #261, .T. ) ;
#104 = DIRECTION ( 'NONE',  ( -0.000000000000000000, -1.000000000000000000, -0.000000000000000000 ) ) ;
#105 = ORIENTED_EDGE ( 'NONE', *, *, #363, .F. ) ;
#106 = UNCERTAINTY_MEASURE_WITH_UNIT (LENGTH_MEASURE( 1.000000000000000082E-05 ), #195, 'distance_accuracy_value', 'NONE');
#107 = CARTESIAN_POINT ( 'NONE',  ( 3.000000000000000000, 63.00000000000000000, 0.000000000000000000 ) ) ;
#108 = FILL_AREA_STYLE_COLOUR ( '', #41 ) ;
#109 =( NAMED_UNIT ( * ) PLANE_ANGLE_UNIT ( ) SI_UNIT ( $, .RADIAN. ) );
#110 = PRESENTATION_STYLE_ASSIGNMENT (( #55 ) ) ;
#111 = FILL_AREA_STYLE_COLOUR ( '', #20 ) ;
#112 = ORIENTED_EDGE ( 'NONE', *, *, #324, .F. ) ;
#113 =( LENGTH_UNIT ( ) NAMED_UNIT ( * ) SI_UNIT ( .MILLI., .METRE. ) );
#114 = ORIENTED_EDGE ( 'NONE', *, *, #46, .F. ) ;
#115 = PRESENTATION_LAYER_ASSIGNMENT (  '', '', ( #272 ) ) ;
#116 = SURFACE_STYLE_USAGE ( .BOTH. , #285 ) ;
#117 = ORIENTED_EDGE ( 'NONE', *, *, #124, .T. ) ;
#118 = STYLED_ITEM ( 'NONE', ( #221 ), #15 ) ;
#119 = AXIS2_PLACEMENT_3D ( 'NONE', #122, #63, #61 ) ;
#120 = DIRECTION ( 'NONE',  ( -0.000000000000000000, -1.000000000000000000, -0.000000000000000000 ) ) ;
#121 = ORIENTED_EDGE ( 'NONE', *, *, #4, .F. ) ;
#122 = CARTESIAN_POINT ( 'NONE',  ( 3.184081677783117402E-15, 63.00000000000000000, 0.000000000000000000 ) ) ;
#123 = CARTESIAN_POINT ( 'NONE',  ( 3.367778697655221505E-16, 0.000000000000000000, 2.500000000000000444 ) ) ;
#124 = EDGE_CURVE ( 'NONE', #259, #65, #271, .T. ) ;
#125 = ORIENTED_EDGE ( 'NONE', *, *, #211, .F. ) ;
#126 = ORIENTED_EDGE ( 'NONE', *, *, #139, .T. ) ;
#127 = SURFACE_STYLE_FILL_AREA ( #101 ) ;
#128 = COLOUR_RGB ( '',0.7921568627450980005, 0.8196078431372548767, 0.9333333333333333481 ) ;
#129 = FACE_OUTER_BOUND ( 'NONE', #369, .T. ) ;
#130 = DIRECTION ( 'NONE',  ( -1.000000000000000000, 0.000000000000000000, 0.000000000000000000 ) ) ;
#131 = AXIS2_PLACEMENT_3D ( 'NONE', #231, #206, #284 ) ;
#132 = UNCERTAINTY_MEASURE_WITH_UNIT (LENGTH_MEASURE( 1.000000000000000082E-05 ), #151, 'distance_accuracy_value', 'NONE');
#133 = SURFACE_SIDE_STYLE ('',( #24 ) ) ;
#134 = CLOSED_SHELL ( 'NONE', ( #283, #137, #337, #7 ) ) ;
#135 = MECHANICAL_DESIGN_GEOMETRIC_PRESENTATION_REPRESENTATION (  '', ( #223 ), #300 ) ;
#136 =( NAMED_UNIT ( * ) PLANE_ANGLE_UNIT ( ) SI_UNIT ( $, .RADIAN. ) );
#137 = ADVANCED_FACE ( 'NONE', ( #32 ), #282, .F. ) ;
#138 = DIRECTION ( 'NONE',  ( -0.000000000000000000, -1.000000000000000000, -0.000000000000000000 ) ) ;
#139 = EDGE_CURVE ( 'NONE', #288, #291, #322, .T. ) ;
#140 = DIRECTION ( 'NONE',  ( -1.000000000000000000, 0.000000000000000000, 0.000000000000000000 ) ) ;
#141 = EDGE_LOOP ( 'NONE', ( #62, #356, #45, #292 ) ) ;
#142 = PRODUCT_DEFINITION_FORMATION_WITH_SPECIFIED_SOURCE ( 'ANY', '', #92, .NOT_KNOWN. ) ;
#143 = EDGE_LOOP ( 'NONE', ( #236, #112 ) ) ;
#144 = EDGE_CURVE ( 'NONE', #149, #257, #294, .T. ) ;
#145 =( GEOMETRIC_REPRESENTATION_CONTEXT ( 3 ) GLOBAL_UNCERTAINTY_ASSIGNED_CONTEXT ( ( #194 ) ) GLOBAL_UNIT_ASSIGNED_CONTEXT ( ( #204, #255, #174 ) ) REPRESENTATION_CONTEXT ( 'NONE', 'WORKASPACE' ) );
#146 =( NAMED_UNIT ( * ) SI_UNIT ( $, .STERADIAN. ) SOLID_ANGLE_UNIT ( ) );
#147 = VERTEX_POINT ( 'NONE', #258 ) ;
#148 = CARTESIAN_POINT ( 'NONE',  ( 3.184081677783117402E-15, 63.00000000000000000, 0.000000000000000000 ) ) ;
#149 = VERTEX_POINT ( 'NONE', #56 ) ;
#150 = APPLICATION_PROTOCOL_DEFINITION ( 'draft international standard', 'automotive_design', 1998, #350 ) ;
#151 =( LENGTH_UNIT ( ) NAMED_UNIT ( * ) SI_UNIT ( .MILLI., .METRE. ) );
#152 = ORIENTED_EDGE ( 'NONE', *, *, #139, .F. ) ;
#153 =( NAMED_UNIT ( * ) SI_UNIT ( $, .STERADIAN. ) SOLID_ANGLE_UNIT ( ) );
#154 = ADVANCED_FACE ( 'NONE', ( #229 ), #334, .T. ) ;
#155 = SURFACE_SIDE_STYLE ('',( #295 ) ) ;
#156 = MANIFOLD_SOLID_BREP ( 'Revolve - Cutting Edge', #70 ) ;
#157 = FILL_AREA_STYLE_COLOUR ( '', #201 ) ;
#158 = COLOUR_RGB ( '',1.000000000000000000, 0.000000000000000000, 0.000000000000000000 ) ;
#159 = CARTESIAN_POINT ( 'NONE',  ( 0.000000000000000000, 0.5000000000000000000, 0.000000000000000000 ) ) ;
#160 = UNCERTAINTY_MEASURE_WITH_UNIT (LENGTH_MEASURE( 1.000000000000000082E-05 ), #71, 'distance_accuracy_value', 'NONE');
#161 = FACE_OUTER_BOUND ( 'NONE', #191, .T. ) ;
#162 = LINE ( 'NONE', #69, #299 ) ;
#163 = CIRCLE ( 'NONE', #172, 3.000000000000000000 ) ;
#164 = EDGE_CURVE ( 'NONE', #89, #259, #338, .T. ) ;
#165 = DIRECTION ( 'NONE',  ( -1.203932746194552959E-16, 1.000000000000000000, -0.000000000000000000 ) ) ;
#166 =( LENGTH_UNIT ( ) NAMED_UNIT ( * ) SI_UNIT ( .MILLI., .METRE. ) );
#167 = STYLED_ITEM ( 'NONE', ( #318 ), #171 ) ;
#168 = DIRECTION ( 'NONE',  ( -0.000000000000000000, -1.000000000000000000, -0.000000000000000000 ) ) ;
#169 = AXIS2_PLACEMENT_3D ( 'NONE', #361, #252, #307 ) ;
#170 = SURFACE_STYLE_FILL_AREA ( #306 ) ;
#171 = ADVANCED_FACE ( 'NONE', ( #315 ), #308, .T. ) ;
#172 = AXIS2_PLACEMENT_3D ( 'NONE', #202, #228, #18 ) ;
#173 = CARTESIAN_POINT ( 'NONE',  ( 3.000000000000000444, 63.00000000000000000, 3.673940397442054938E-16 ) ) ;
#174 =( NAMED_UNIT ( * ) SI_UNIT ( $, .STERADIAN. ) SOLID_ANGLE_UNIT ( ) );
#175 = SURFACE_SIDE_STYLE ('',( #54 ) ) ;
#176 =( NAMED_UNIT ( * ) PLANE_ANGLE_UNIT ( ) SI_UNIT ( $, .RADIAN. ) );
#177 = SURFACE_STYLE_USAGE ( .BOTH. , #83 ) ;
#178 = ORIENTED_EDGE ( 'NONE', *, *, #267, .T. ) ;
#179 = DIRECTION ( 'NONE',  ( 0.000000000000000000, 0.000000000000000000, -1.000000000000000000 ) ) ;
#180 = ORIENTED_EDGE ( 'NONE', *, *, #324, .T. ) ;
#181 = CARTESIAN_POINT ( 'NONE',  ( 0.000000000000000000, 0.5000000000000000000, -3.000000000000000000 ) ) ;
#182 = PRODUCT_CONTEXT ( 'NONE', #12, 'mechanical' ) ;
#183 = CIRCLE ( 'NONE', #331, 2.500000000000000444 ) ;
#184 = DIRECTION ( 'NONE',  ( -0.000000000000000000, -1.000000000000000000, -0.000000000000000000 ) ) ;
#185 = FACE_OUTER_BOUND ( 'NONE', #280, .T. ) ;
#186 = PRESENTATION_LAYER_ASSIGNMENT (  '', '', ( #342 ) ) ;
#187 = SHAPE_DEFINITION_REPRESENTATION ( #297, #23 ) ;
#188 = DIRECTION ( 'NONE',  ( 1.000000000000000000, 1.203932746194552959E-16, 0.000000000000000000 ) ) ;
#189 = ADVANCED_FACE ( 'NONE', ( #185 ), #237, .T. ) ;
#190 = DIRECTION ( 'NONE',  ( 0.000000000000000000, 0.000000000000000000, -1.000000000000000000 ) ) ;
#191 = EDGE_LOOP ( 'NONE', ( #178, #286 ) ) ;
#192 = DIRECTION ( 'NONE',  ( -1.000000000000000000, 0.000000000000000000, 0.000000000000000000 ) ) ;
#193 = PRESENTATION_LAYER_ASSIGNMENT (  '', '', ( #223 ) ) ;
#194 = UNCERTAINTY_MEASURE_WITH_UNIT (LENGTH_MEASURE( 1.000000000000000082E-05 ), #204, 'distance_accuracy_value', 'NONE');
#195 =( LENGTH_UNIT ( ) NAMED_UNIT ( * ) SI_UNIT ( .MILLI., .METRE. ) );
#196 = SURFACE_STYLE_FILL_AREA ( #335 ) ;
#197 =( NAMED_UNIT ( * ) SI_UNIT ( $, .STERADIAN. ) SOLID_ANGLE_UNIT ( ) );
#198 = DIRECTION ( 'NONE',  ( -0.000000000000000000, -1.000000000000000000, -0.000000000000000000 ) ) ;
#199 = DIRECTION ( 'NONE',  ( 0.000000000000000000, 0.000000000000000000, -1.000000000000000000 ) ) ;
#200 = CARTESIAN_POINT ( 'NONE',  ( 3.673940397442059868E-16, 0.000000000000000000, 3.000000000000000000 ) ) ;
#201 = COLOUR_RGB ( '',0.7921568627450980005, 0.8196078431372548767, 0.9333333333333333481 ) ;
#202 = CARTESIAN_POINT ( 'NONE',  ( 0.000000000000000000, 12.00000000000000000, 0.000000000000000000 ) ) ;
#203 = DIRECTION ( 'NONE',  ( -1.224646799147353454E-16, 0.000000000000000000, -1.000000000000000000 ) ) ;
#204 =( LENGTH_UNIT ( ) NAMED_UNIT ( * ) SI_UNIT ( .MILLI., .METRE. ) );
#205 = EDGE_LOOP ( 'NONE', ( #275, #367 ) ) ;
#206 = DIRECTION ( 'NONE',  ( -0.000000000000000000, -1.000000000000000000, -0.000000000000000000 ) ) ;
#207 = CIRCLE ( 'NONE', #340, 3.000000000000000000 ) ;
#208 = DIRECTION ( 'NONE',  ( 0.000000000000000000, 0.000000000000000000, -1.000000000000000000 ) ) ;
#209 = ORIENTED_EDGE ( 'NONE', *, *, #245, .F. ) ;
#210 = EDGE_LOOP ( 'NONE', ( #222, #332, #60, #105 ) ) ;
#211 = EDGE_CURVE ( 'NONE', #346, #147, #80, .T. ) ;
#212 = SURFACE_STYLE_FILL_AREA ( #35 ) ;
#213 =( GEOMETRIC_REPRESENTATION_CONTEXT ( 3 ) GLOBAL_UNCERTAINTY_ASSIGNED_CONTEXT ( ( #132 ) ) GLOBAL_UNIT_ASSIGNED_CONTEXT ( ( #151, #241, #146 ) ) REPRESENTATION_CONTEXT ( 'NONE', 'WORKASPACE' ) );
#214 = FILL_AREA_STYLE_COLOUR ( '', #320 ) ;
#215 =( NAMED_UNIT ( * ) PLANE_ANGLE_UNIT ( ) SI_UNIT ( $, .RADIAN. ) );
#216 = MECHANICAL_DESIGN_GEOMETRIC_PRESENTATION_REPRESENTATION (  '', ( #342 ), #370 ) ;
#217 = SURFACE_STYLE_USAGE ( .BOTH. , #352 ) ;
#218 = CARTESIAN_POINT ( 'NONE',  ( 3.184081677783117402E-15, 63.00000000000000000, 0.000000000000000000 ) ) ;
#219 =( GEOMETRIC_REPRESENTATION_CONTEXT ( 3 ) GLOBAL_UNCERTAINTY_ASSIGNED_CONTEXT ( ( #301 ) ) GLOBAL_UNIT_ASSIGNED_CONTEXT ( ( #166, #355, #11 ) ) REPRESENTATION_CONTEXT ( 'NONE', 'WORKASPACE' ) );
#220 = VECTOR ( 'NONE', #138, 1000.000000000000000 ) ;
#221 = PRESENTATION_STYLE_ASSIGNMENT (( #329 ) ) ;
#222 = ORIENTED_EDGE ( 'NONE', *, *, #28, .T. ) ;
#223 = STYLED_ITEM ( 'NONE', ( #358 ), #293 ) ;
#224 = UNCERTAINTY_MEASURE_WITH_UNIT (LENGTH_MEASURE( 1.000000000000000082E-05 ), #254, 'distance_accuracy_value', 'NONE');
#225 = CARTESIAN_POINT ( 'NONE',  ( 3.184081677783117402E-15, 63.00000000000000000, 0.000000000000000000 ) ) ;
#226 = SURFACE_SIDE_STYLE ('',( #196 ) ) ;
#227 =( NAMED_UNIT ( * ) SI_UNIT ( $, .STERADIAN. ) SOLID_ANGLE_UNIT ( ) );
#228 = DIRECTION ( 'NONE',  ( -0.000000000000000000, -1.000000000000000000, -0.000000000000000000 ) ) ;
#229 = FACE_OUTER_BOUND ( 'NONE', #210, .T. ) ;
#230 = VECTOR ( 'NONE', #165, 1000.000000000000000 ) ;
#231 = CARTESIAN_POINT ( 'NONE',  ( 0.000000000000000000, 0.000000000000000000, 0.000000000000000000 ) ) ;
#232 = ORIENTED_EDGE ( 'NONE', *, *, #245, .T. ) ;
#233 = PRESENTATION_LAYER_ASSIGNMENT (  '', '', ( #98 ) ) ;
#234 = PRESENTATION_LAYER_ASSIGNMENT (  '', '', ( #167 ) ) ;
#235 = CARTESIAN_POINT ( 'NONE',  ( 0.000000000000000000, 0.000000000000000000, 0.000000000000000000 ) ) ;
#236 = ORIENTED_EDGE ( 'NONE', *, *, #28, .F. ) ;
#237 = CYLINDRICAL_SURFACE ( 'NONE', #10, 3.000000000000000000 ) ;
#238 = APPLICATION_PROTOCOL_DEFINITION ( 'draft international standard', 'automotive_design', 1998, #12 ) ;
#239 = ORIENTED_EDGE ( 'NONE', *, *, #46, .T. ) ;
#240 = CYLINDRICAL_SURFACE ( 'NONE', #119, 2.999999999999993783 ) ;
#241 =( NAMED_UNIT ( * ) PLANE_ANGLE_UNIT ( ) SI_UNIT ( $, .RADIAN. ) );
#242 = DIRECTION ( 'NONE',  ( -1.203932746194552959E-16, 1.000000000000000000, -0.000000000000000000 ) ) ;
#243 = CARTESIAN_POINT ( 'NONE',  ( 9.324138683375338132E-15, 11.99999999999999645, 0.000000000000000000 ) ) ;
#244 = DIRECTION ( 'NONE',  ( -1.203932746194552959E-16, 1.000000000000000000, -0.000000000000000000 ) ) ;
#245 = EDGE_CURVE ( 'NONE', #259, #288, #207, .T. ) ;
#246 = SURFACE_SIDE_STYLE ('',( #265 ) ) ;
#247 = UNCERTAINTY_MEASURE_WITH_UNIT (LENGTH_MEASURE( 1.000000000000000082E-05 ), #8, 'distance_accuracy_value', 'NONE');
#248 = DIRECTION ( 'NONE',  ( -0.000000000000000000, -1.000000000000000000, -0.000000000000000000 ) ) ;
#249 = SURFACE_STYLE_USAGE ( .BOTH. , #133 ) ;
#250 = CIRCLE ( 'NONE', #86, 2.999999999999991562 ) ;
#251 = PRODUCT_RELATED_PRODUCT_CATEGORY ( 'part', '', ( #92 ) ) ;
#252 = DIRECTION ( 'NONE',  ( 0.000000000000000000, -1.000000000000000000, -0.000000000000000000 ) ) ;
#253 = DIRECTION ( 'NONE',  ( 0.000000000000000000, 0.000000000000000000, 1.000000000000000000 ) ) ;
#254 =( LENGTH_UNIT ( ) NAMED_UNIT ( * ) SI_UNIT ( .MILLI., .METRE. ) );
#255 =( NAMED_UNIT ( * ) PLANE_ANGLE_UNIT ( ) SI_UNIT ( $, .RADIAN. ) );
#256 = CARTESIAN_POINT ( 'NONE',  ( 9.324138683375338132E-15, 12.00000000000000000, 0.000000000000000000 ) ) ;
#257 = VERTEX_POINT ( 'NONE', #264 ) ;
#258 = CARTESIAN_POINT ( 'NONE',  ( -2.999999999999993783, 63.00000000000000000, 0.000000000000000000 ) ) ;
#259 = VERTEX_POINT ( 'NONE', #348 ) ;
#260 = AXIS2_PLACEMENT_3D ( 'NONE', #312, #78, #253 ) ;
#261 = TOROIDAL_SURFACE ( 'NONE', #68, 2.500000000000000444, 0.4999999999999997780 ) ;
#262 = DIRECTION ( 'NONE',  ( 0.000000000000000000, 0.000000000000000000, -1.000000000000000000 ) ) ;
#263 = ORIENTED_EDGE ( 'NONE', *, *, #25, .T. ) ;
#264 = CARTESIAN_POINT ( 'NONE',  ( 3.000000000000000000, 11.99999999999999645, 3.673940397442054938E-16 ) ) ;
#265 = SURFACE_STYLE_FILL_AREA ( #99 ) ;
#266 = DIRECTION ( 'NONE',  ( -1.203932746194552959E-16, 1.000000000000000000, -0.000000000000000000 ) ) ;
#267 = EDGE_CURVE ( 'NONE', #291, #65, #345, .T. ) ;
#268 = FILL_AREA_STYLE_COLOUR ( '', #158 ) ;
#269 = TOROIDAL_SURFACE ( 'NONE', #33, 2.500000000000000444, 0.4999999999999997780 ) ;
#270 = CARTESIAN_POINT ( 'NONE',  ( 0.000000000000000000, 12.00000000000000000, -3.000000000000000000 ) ) ;
#271 = CIRCLE ( 'NONE', #34, 0.4999999999999995559 ) ;
#272 = STYLED_ITEM ( 'NONE', ( #302 ), #100 ) ;
#273 = UNCERTAINTY_MEASURE_WITH_UNIT (LENGTH_MEASURE( 1.000000000000000082E-05 ), #113, 'distance_accuracy_value', 'NONE');
#274 = FILL_AREA_STYLE ('',( #341 ) ) ;
#275 = ORIENTED_EDGE ( 'NONE', *, *, #95, .T. ) ;
#276 = AXIS2_PLACEMENT_3D ( 'NONE', #107, #43, #188 ) ;
#277 = AXIS2_PLACEMENT_3D ( 'NONE', #235, #316, #179 ) ;
#278 = CARTESIAN_POINT ( 'NONE',  ( 0.000000000000000000, 0.000000000000000000, 0.000000000000000000 ) ) ;
#279 = PRESENTATION_STYLE_ASSIGNMENT (( #249 ) ) ;
#280 = EDGE_LOOP ( 'NONE', ( #2, #180, #298, #209 ) ) ;
#281 =( NAMED_UNIT ( * ) PLANE_ANGLE_UNIT ( ) SI_UNIT ( $, .RADIAN. ) );
#282 = PLANE ( 'NONE',  #21 ) ;
#283 = ADVANCED_FACE ( 'NONE', ( #287 ), #240, .T. ) ;
#284 = DIRECTION ( 'NONE',  ( 0.000000000000000000, 0.000000000000000000, -1.000000000000000000 ) ) ;
#285 = SURFACE_SIDE_STYLE ('',( #212 ) ) ;
#286 = ORIENTED_EDGE ( 'NONE', *, *, #353, .T. ) ;
#287 = FACE_OUTER_BOUND ( 'NONE', #141, .T. ) ;
#288 = VERTEX_POINT ( 'NONE', #181 ) ;
#289 = CARTESIAN_POINT ( 'NONE',  ( 0.000000000000000000, 0.000000000000000000, -2.500000000000000444 ) ) ;
#290 = CARTESIAN_POINT ( 'NONE',  ( 0.000000000000000000, 0.000000000000000000, 0.000000000000000000 ) ) ;
#291 = VERTEX_POINT ( 'NONE', #289 ) ;
#292 = ORIENTED_EDGE ( 'NONE', *, *, #311, .F. ) ;
#293 = ADVANCED_FACE ( 'NONE', ( #37 ), #269, .T. ) ;
#294 = CIRCLE ( 'NONE', #357, 2.999999999999991562 ) ;
#295 = SURFACE_STYLE_FILL_AREA ( #81 ) ;
#296 = PRESENTATION_LAYER_ASSIGNMENT (  '', '', ( #67 ) ) ;
#297 = PRODUCT_DEFINITION_SHAPE ( 'NONE', 'NONE',  #51 ) ;
#298 = ORIENTED_EDGE ( 'NONE', *, *, #363, .T. ) ;
#299 = VECTOR ( 'NONE', #266, 1000.000000000000000 ) ;
#300 =( GEOMETRIC_REPRESENTATION_CONTEXT ( 3 ) GLOBAL_UNCERTAINTY_ASSIGNED_CONTEXT ( ( #106 ) ) GLOBAL_UNIT_ASSIGNED_CONTEXT ( ( #195, #281, #197 ) ) REPRESENTATION_CONTEXT ( 'NONE', 'WORKASPACE' ) );
#301 = UNCERTAINTY_MEASURE_WITH_UNIT (LENGTH_MEASURE( 1.000000000000000082E-05 ), #166, 'distance_accuracy_value', 'NONE');
#302 = PRESENTATION_STYLE_ASSIGNMENT (( #217 ) ) ;
#303 = CARTESIAN_POINT ( 'NONE',  ( 0.000000000000000000, 0.000000000000000000, -3.000000000000000000 ) ) ;
#304 = CARTESIAN_POINT ( 'NONE',  ( 0.000000000000000000, 0.5000000000000000000, 0.000000000000000000 ) ) ;
#305 = PRODUCT_DEFINITION_CONTEXT ( 'detailed design', #350, 'design' ) ;
#306 = FILL_AREA_STYLE ('',( #362 ) ) ;
#307 = DIRECTION ( 'NONE',  ( 0.000000000000000000, 0.000000000000000000, -1.000000000000000000 ) ) ;
#308 = PLANE ( 'NONE',  #327 ) ;
#309 = CIRCLE ( 'NONE', #44, 3.000000000000000000 ) ;
#310 = AXIS2_PLACEMENT_3D ( 'NONE', #148, #42, #66 ) ;
#311 = EDGE_CURVE ( 'NONE', #149, #147, #48, .T. ) ;
#312 = CARTESIAN_POINT ( 'NONE',  ( 0.000000000000000000, 0.5000000000000000000, -2.500000000000000444 ) ) ;
#313 = MECHANICAL_DESIGN_GEOMETRIC_PRESENTATION_REPRESENTATION (  '', ( #98 ), #85 ) ;
#314 = EDGE_LOOP ( 'NONE', ( #84, #232, #126, #317 ) ) ;
#315 = FACE_OUTER_BOUND ( 'NONE', #143, .T. ) ;
#316 = DIRECTION ( 'NONE',  ( -0.000000000000000000, -1.000000000000000000, -0.000000000000000000 ) ) ;
#317 = ORIENTED_EDGE ( 'NONE', *, *, #353, .F. ) ;
#318 = PRESENTATION_STYLE_ASSIGNMENT (( #87 ) ) ;
#319 = ORIENTED_EDGE ( 'NONE', *, *, #267, .F. ) ;
#320 = COLOUR_RGB ( '',1.000000000000000000, 0.000000000000000000, 0.000000000000000000 ) ;
#321 = FILL_AREA_STYLE ('',( #214 ) ) ;
#322 = CIRCLE ( 'NONE', #260, 0.4999999999999995559 ) ;
#323 =( GEOMETRIC_REPRESENTATION_CONTEXT ( 3 ) GLOBAL_UNCERTAINTY_ASSIGNED_CONTEXT ( ( #160 ) ) GLOBAL_UNIT_ASSIGNED_CONTEXT ( ( #71, #22, #27 ) ) REPRESENTATION_CONTEXT ( 'NONE', 'WORKASPACE' ) );
#324 = EDGE_CURVE ( 'NONE', #89, #17, #163, .T. ) ;
#325 = PLANE ( 'NONE',  #276 ) ;
#326 = MECHANICAL_DESIGN_GEOMETRIC_PRESENTATION_REPRESENTATION (  '', ( #118 ), #219 ) ;
#327 = AXIS2_PLACEMENT_3D ( 'NONE', #90, #3, #96 ) ;
#328 = DIRECTION ( 'NONE',  ( -0.000000000000000000, -1.000000000000000000, -0.000000000000000000 ) ) ;
#329 = SURFACE_STYLE_USAGE ( .BOTH. , #246 ) ;
#330 = CARTESIAN_POINT ( 'NONE',  ( -2.999999999999991118, 63.00000000000000000, 0.000000000000000000 ) ) ;
#331 = AXIS2_PLACEMENT_3D ( 'NONE', #278, #248, #74 ) ;
#332 = ORIENTED_EDGE ( 'NONE', *, *, #164, .T. ) ;
#333 = DIRECTION ( 'NONE',  ( -1.203932746194552959E-16, 1.000000000000000000, -0.000000000000000000 ) ) ;
#334 = CYLINDRICAL_SURFACE ( 'NONE', #131, 3.000000000000000000 ) ;
#335 = FILL_AREA_STYLE ('',( #108 ) ) ;
#336 = AXIS2_PLACEMENT_3D ( 'NONE', #218, #244, #130 ) ;
#337 = ADVANCED_FACE ( 'NONE', ( #129 ), #364, .T. ) ;
#338 = LINE ( 'NONE', #200, #343 ) ;
#339 = SURFACE_STYLE_USAGE ( .BOTH. , #175 ) ;
#340 = AXIS2_PLACEMENT_3D ( 'NONE', #93, #120, #262 ) ;
#341 = FILL_AREA_STYLE_COLOUR ( '', #128 ) ;
#342 = STYLED_ITEM ( 'NONE', ( #110 ), #103 ) ;
#343 = VECTOR ( 'NONE', #198, 1000.000000000000000 ) ;
#344 = CARTESIAN_POINT ( 'NONE',  ( 9.324138683375338132E-15, 11.99999999999999645, 0.000000000000000000 ) ) ;
#345 = CIRCLE ( 'NONE', #277, 2.500000000000000444 ) ;
#346 = VERTEX_POINT ( 'NONE', #173 ) ;
#347 =( NAMED_UNIT ( * ) SI_UNIT ( $, .STERADIAN. ) SOLID_ANGLE_UNIT ( ) );
#348 = CARTESIAN_POINT ( 'NONE',  ( 3.673940397442059868E-16, 0.5000000000000000000, 3.000000000000000000 ) ) ;
#349 = MECHANICAL_DESIGN_GEOMETRIC_PRESENTATION_REPRESENTATION (  '', ( #73 ), #213 ) ;
#350 = APPLICATION_CONTEXT ( 'automotive_design' ) ;
#351 = MECHANICAL_DESIGN_GEOMETRIC_PRESENTATION_REPRESENTATION (  '', ( #167 ), #16 ) ;
#352 = SURFACE_SIDE_STYLE ('',( #127 ) ) ;
#353 = EDGE_CURVE ( 'NONE', #65, #291, #183, .T. ) ;
#354 = CARTESIAN_POINT ( 'NONE',  ( 3.673940397442059868E-16, 12.00000000000000000, 3.000000000000000000 ) ) ;
#355 =( NAMED_UNIT ( * ) PLANE_ANGLE_UNIT ( ) SI_UNIT ( $, .RADIAN. ) );
#356 = ORIENTED_EDGE ( 'NONE', *, *, #4, .T. ) ;
#357 = AXIS2_PLACEMENT_3D ( 'NONE', #344, #31, #140 ) ;
#358 = PRESENTATION_STYLE_ASSIGNMENT (( #339 ) ) ;
#359 = FACE_OUTER_BOUND ( 'NONE', #205, .T. ) ;
#360 = CARTESIAN_POINT ( 'NONE',  ( 0.000000000000000000, 0.5000000000000000000, 0.000000000000000000 ) ) ;
#361 = CARTESIAN_POINT ( 'NONE',  ( 0.000000000000000000, 0.000000000000000000, 0.000000000000000000 ) ) ;
#362 = FILL_AREA_STYLE_COLOUR ( '', #97 ) ;
#363 = EDGE_CURVE ( 'NONE', #17, #288, #29, .T. ) ;
#364 = CYLINDRICAL_SURFACE ( 'NONE', #366, 2.999999999999993783 ) ;
#365 = DIRECTION ( 'NONE',  ( 1.000000000000000000, 0.000000000000000000, -1.224646799147353207E-16 ) ) ;
#366 = AXIS2_PLACEMENT_3D ( 'NONE', #225, #333, #26 ) ;
#367 = ORIENTED_EDGE ( 'NONE', *, *, #211, .T. ) ;
#368 = DIRECTION ( 'NONE',  ( -1.203932746194552959E-16, 1.000000000000000000, 0.000000000000000000 ) ) ;
#369 = EDGE_LOOP ( 'NONE', ( #121, #239, #47, #125 ) ) ;
#370 =( GEOMETRIC_REPRESENTATION_CONTEXT ( 3 ) GLOBAL_UNCERTAINTY_ASSIGNED_CONTEXT ( ( #14 ) ) GLOBAL_UNIT_ASSIGNED_CONTEXT ( ( #77, #136, #76 ) ) REPRESENTATION_CONTEXT ( 'NONE', 'WORKASPACE' ) );
ENDSEC;
END-ISO-10303-21;
