ISO-10303-21;
HEADER;
FILE_DESCRIPTION (( 'STEP AP214' ),
    '1' );
FILE_NAME ('Micro_BEMM-080-2.STEP',
    '2021-09-03T13:28:52',
    ( '' ),
    ( '' ),
    'SwSTEP 2.0',
    'SolidWorks 2020',
    '' );
FILE_SCHEMA (( 'AUTOMOTIVE_DESIGN' ));
ENDSEC;

DATA;
#1 = MECHANICAL_DESIGN_GEOMETRIC_PRESENTATION_REPRESENTATION (  '', ( #133 ), #65 ) ;
#2 = DIRECTION ( 'NONE',  ( 1.224646799147353207E-16, 0.0000000000000000000, 1.000000000000000000 ) ) ;
#3 = DIRECTION ( 'NONE',  ( -1.000000000000000000, 0.0000000000000000000, 1.224646799147353454E-16 ) ) ;
#4 = CARTESIAN_POINT ( 'NONE',  ( 0.0000000000000000000, 0.0000000000000000000, 2.465314999999999923 ) ) ;
#5 = AXIS2_PLACEMENT_3D ( 'NONE', #128, #276, #229 ) ;
#6 = SURFACE_STYLE_FILL_AREA ( #184 ) ;
#7 = ORIENTED_EDGE ( 'NONE', *, *, #81, .T. ) ;
#8 = LINE ( 'NONE', #109, #30 ) ;
#9 = FACE_OUTER_BOUND ( 'NONE', #69, .T. ) ;
#10 = CARTESIAN_POINT ( 'NONE',  ( 0.1424804999999990940, 1.836731392595189962E-17, 2.480315000000000047 ) ) ;
#11 = ORIENTED_EDGE ( 'NONE', *, *, #76, .F. ) ;
#12 = CARTESIAN_POINT ( 'NONE',  ( 2.889976983943074940E-17, 0.0000000000000000000, 0.0000000000000000000 ) ) ;
#13 = CARTESIAN_POINT ( 'NONE',  ( -0.1573230194999999665, 0.0000000000000000000, 0.1573230195000000220 ) ) ;
#14 = CARTESIAN_POINT ( 'NONE',  ( 1.060718027907086782E-16, 0.0000000000000000000, 0.8661419999999999675 ) ) ;
#15 = CIRCLE ( 'NONE', #37, 0.1574804999999999955 ) ;
#16 = CIRCLE ( 'NONE', #91, 0.1424804999999990940 ) ;
#17 = VERTEX_POINT ( 'NONE', #10 ) ;
#18 = DIRECTION ( 'NONE',  ( 0.0000000000000000000, 0.0000000000000000000, 1.000000000000000000 ) ) ;
#19 = ADVANCED_FACE ( 'NONE', ( #164 ), #264, .T. ) ;
#20 = CLOSED_SHELL ( 'NONE', ( #176, #221, #39, #123, #19, #271, #62, #146, #28, #305, #289 ) ) ;
#21 = CONICAL_SURFACE ( 'NONE', #122, 0.1424804999999990940, 0.7853981633974699283 ) ;
#22 = DIRECTION ( 'NONE',  ( -1.224646799147353207E-16, -0.0000000000000000000, -1.000000000000000000 ) ) ;
#23 = CARTESIAN_POINT ( 'NONE',  ( -0.1574804999999999955, 0.0000000000000000000, 2.480315000000000047 ) ) ;
#24 = EDGE_LOOP ( 'NONE', ( #325, #310, #207, #185 ) ) ;
#25 = ORIENTED_EDGE ( 'NONE', *, *, #88, .T. ) ;
#26 = CARTESIAN_POINT ( 'NONE',  ( 0.0000000000000000000, 0.0000000000000000000, 2.480315000000000047 ) ) ;
#27 = DIRECTION ( 'NONE',  ( -1.000000000000000000, 0.0000000000000000000, 0.0000000000000000000 ) ) ;
#28 = ADVANCED_FACE ( 'NONE', ( #75 ), #180, .T. ) ;
#29 = PLANE ( 'NONE',  #72 ) ;
#30 = VECTOR ( 'NONE', #210, 39.37007874015748854 ) ;
#31 = DIRECTION ( 'NONE',  ( -0.0000000000000000000, -0.0000000000000000000, -1.000000000000000000 ) ) ;
#32 = CARTESIAN_POINT ( 'NONE',  ( 1.061811779920977231E-16, 0.0000000000000000000, 0.8670351162965941327 ) ) ;
#33 = AXIS2_PLACEMENT_3D ( 'NONE', #26, #31, #83 ) ;
#34 = DIRECTION ( 'NONE',  ( -1.224646799147353207E-16, -0.0000000000000000000, -1.000000000000000000 ) ) ;
#35 = DIRECTION ( 'NONE',  ( 0.1736481776669312471, 0.0000000000000000000, 0.9848077530122077983 ) ) ;
#36 = SURFACE_STYLE_FILL_AREA ( #121 ) ;
#37 = AXIS2_PLACEMENT_3D ( 'NONE', #32, #118, #299 ) ;
#38 = AXIS2_PLACEMENT_3D ( 'NONE', #255, #101, #42 ) ;
#39 = ADVANCED_FACE ( 'NONE', ( #9 ), #104, .T. ) ;
#40 = CARTESIAN_POINT ( 'NONE',  ( -0.1574804999999999955, 0.0000000000000000000, 2.465314999999999923 ) ) ;
#41 = ORIENTED_EDGE ( 'NONE', *, *, #260, .T. ) ;
#42 = DIRECTION ( 'NONE',  ( -1.000000000000000000, 1.224646799147353454E-16, 0.0000000000000000000 ) ) ;
#43 = PRODUCT ( 'Micro_BEMM-080-2', 'Micro_BEMM-080-2', '', ( #209 ) ) ;
#44 = FACE_OUTER_BOUND ( 'NONE', #52, .T. ) ;
#45 = ORIENTED_EDGE ( 'NONE', *, *, #211, .T. ) ;
#46 = ORIENTED_EDGE ( 'NONE', *, *, #76, .T. ) ;
#47 = PRODUCT_DEFINITION_SHAPE ( 'NONE', 'NONE',  #79 ) ;
#48 = VERTEX_POINT ( 'NONE', #239 ) ;
#49 = CARTESIAN_POINT ( 'NONE',  ( 0.0000000000000000000, 0.0000000000000000000, 0.0000000000000000000 ) ) ;
#50 = VECTOR ( 'NONE', #214, 39.37007874015748143 ) ;
#51 = ORIENTED_EDGE ( 'NONE', *, *, #171, .T. ) ;
#52 = EDGE_LOOP ( 'NONE', ( #135, #156, #192, #71 ) ) ;
#53 =( NAMED_UNIT ( * ) PLANE_ANGLE_UNIT ( ) SI_UNIT ( $, .RADIAN. ) );
#54 = ORIENTED_EDGE ( 'NONE', *, *, #183, .T. ) ;
#55 = APPLICATION_PROTOCOL_DEFINITION ( 'draft international standard', 'automotive_design', 1998, #159 ) ;
#56 = EDGE_LOOP ( 'NONE', ( #132, #190, #291 ) ) ;
#57 = EDGE_CURVE ( 'NONE', #231, #48, #212, .T. ) ;
#58 = CIRCLE ( 'NONE', #236, 0.1573230194999999942 ) ;
#59 = CARTESIAN_POINT ( 'NONE',  ( 0.1574805000000000788, 1.928579902531248645E-17, 0.8670351162965941327 ) ) ;
#60 = DIRECTION ( 'NONE',  ( 1.000000000000000000, 0.0000000000000000000, 0.0000000000000000000 ) ) ;
#61 = PRESENTATION_STYLE_ASSIGNMENT (( #93 ) ) ;
#62 = ADVANCED_FACE ( 'NONE', ( #113 ), #29, .T. ) ;
#63 = CARTESIAN_POINT ( 'NONE',  ( 1.926651322628716627E-17, 0.0000000000000000000, 0.1573230194999999942 ) ) ;
#64 =( LENGTH_UNIT ( ) NAMED_UNIT ( * ) SI_UNIT ( $, .METRE. ) );
#65 =( GEOMETRIC_REPRESENTATION_CONTEXT ( 3 ) GLOBAL_UNCERTAINTY_ASSIGNED_CONTEXT ( ( #215 ) ) GLOBAL_UNIT_ASSIGNED_CONTEXT ( ( #220, #273, #144 ) ) REPRESENTATION_CONTEXT ( 'NONE', 'WORKASPACE' ) );
#66 = DIRECTION ( 'NONE',  ( -0.1736481776669310251, 2.126576849575781468E-17, 0.9848077530122080203 ) ) ;
#67 = EDGE_LOOP ( 'NONE', ( #228, #157, #41, #11 ) ) ;
#68 = LINE ( 'NONE', #23, #200 ) ;
#69 = EDGE_LOOP ( 'NONE', ( #285, #95, #45, #233 ) ) ;
#70 = CARTESIAN_POINT ( 'NONE',  ( 1.926651322628716627E-17, 0.0000000000000000000, 0.1573230194999999942 ) ) ;
#71 = ORIENTED_EDGE ( 'NONE', *, *, #183, .F. ) ;
#72 = AXIS2_PLACEMENT_3D ( 'NONE', #141, #140, #112 ) ;
#73 = CARTESIAN_POINT ( 'NONE',  ( 0.1573230195000000220, 1.926651322628716627E-17, 0.1573230194999999665 ) ) ;
#74 =( LENGTH_UNIT ( ) NAMED_UNIT ( * ) SI_UNIT ( $, .METRE. ) );
#75 = FACE_OUTER_BOUND ( 'NONE', #217, .T. ) ;
#76 = EDGE_CURVE ( 'NONE', #160, #178, #318, .T. ) ;
#77 = COLOUR_RGB ( '',0.7921568627450980005, 0.8196078431372548767, 0.9333333333333333481 ) ;
#78 = CARTESIAN_POINT ( 'NONE',  ( 1.926651322628716627E-17, 0.0000000000000000000, 0.1573230194999999942 ) ) ;
#79 = PRODUCT_DEFINITION ( 'UNKNOWN', '', #134, #129 ) ;
#80 = VERTEX_POINT ( 'NONE', #59 ) ;
#81 = EDGE_CURVE ( 'NONE', #17, #48, #316, .T. ) ;
#82 = CARTESIAN_POINT ( 'NONE',  ( 0.1424804999999990940, 1.744882882659133128E-17, 2.480315000000000047 ) ) ;
#83 = DIRECTION ( 'NONE',  ( -1.000000000000000000, 0.0000000000000000000, 0.0000000000000000000 ) ) ;
#84 = AXIS2_PLACEMENT_3D ( 'NONE', #274, #87, #294 ) ;
#85 = PRESENTATION_LAYER_ASSIGNMENT (  '', '', ( #139 ) ) ;
#86 = CYLINDRICAL_SURFACE ( 'NONE', #249, 0.1573230194999999942 ) ;
#87 = DIRECTION ( 'NONE',  ( 0.0000000000000000000, 0.0000000000000000000, 1.000000000000000000 ) ) ;
#88 = EDGE_CURVE ( 'NONE', #178, #279, #96, .T. ) ;
#89 = CARTESIAN_POINT ( 'NONE',  ( 0.0000000000000000000, 0.0000000000000000000, 2.480315000000000047 ) ) ;
#90 = AXIS2_PLACEMENT_3D ( 'NONE', #14, #199, #170 ) ;
#91 = AXIS2_PLACEMENT_3D ( 'NONE', #155, #18, #177 ) ;
#92 = CARTESIAN_POINT ( 'NONE',  ( 0.1574804999999999955, 1.928579902531247412E-17, 2.480315000000000047 ) ) ;
#93 = SURFACE_STYLE_USAGE ( .BOTH. , #323 ) ;
#94 = SPHERICAL_SURFACE ( 'NONE', #148, 0.1573230194999999942 ) ;
#95 = ORIENTED_EDGE ( 'NONE', *, *, #234, .T. ) ;
#96 = CIRCLE ( 'NONE', #115, 0.1573230194999999942 ) ;
#97 =( CONVERSION_BASED_UNIT ( 'INCH', #307 ) LENGTH_UNIT ( ) NAMED_UNIT ( #225 ) );
#98 = EDGE_LOOP ( 'NONE', ( #268, #152, #216, #319 ) ) ;
#99 = APPLICATION_CONTEXT ( 'automotive_design' ) ;
#100 = DIMENSIONAL_EXPONENTS ( 1.000000000000000000, 0.0000000000000000000, 0.0000000000000000000, 0.0000000000000000000, 0.0000000000000000000, 0.0000000000000000000, 0.0000000000000000000 ) ;
#101 = DIRECTION ( 'NONE',  ( 1.224646799147353207E-16, 1.000000000000000000, -0.0000000000000000000 ) ) ;
#102 = ORIENTED_EDGE ( 'NONE', *, *, #165, .F. ) ;
#103 = DIRECTION ( 'NONE',  ( -0.0000000000000000000, -0.0000000000000000000, -1.000000000000000000 ) ) ;
#104 = CONICAL_SURFACE ( 'NONE', #222, 0.1573230194999999942, 0.1745329251994337527 ) ;
#105 = EDGE_LOOP ( 'NONE', ( #124, #201, #163 ) ) ;
#106 = ADVANCED_BREP_SHAPE_REPRESENTATION ( 'Micro_BEMM-080-2', ( #204, #309 ), #315 ) ;
#107 = DIRECTION ( 'NONE',  ( 1.224646799147353207E-16, 0.0000000000000000000, 1.000000000000000000 ) ) ;
#108 = EDGE_CURVE ( 'NONE', #263, #231, #8, .T. ) ;
#109 = CARTESIAN_POINT ( 'NONE',  ( -0.1424804999999990940, 0.0000000000000000000, 2.480315000000000047 ) ) ;
#110 = PRODUCT_RELATED_PRODUCT_CATEGORY ( 'part', '', ( #43 ) ) ;
#111 = COLOUR_RGB ( '',0.7921568627450980005, 0.8196078431372548767, 0.9333333333333333481 ) ;
#112 = DIRECTION ( 'NONE',  ( 1.000000000000000000, 0.0000000000000000000, -0.0000000000000000000 ) ) ;
#113 = FACE_OUTER_BOUND ( 'NONE', #303, .T. ) ;
#114 = CARTESIAN_POINT ( 'NONE',  ( 1.060718027907086782E-16, 0.0000000000000000000, 0.8661419999999999675 ) ) ;
#115 = AXIS2_PLACEMENT_3D ( 'NONE', #78, #107, #311 ) ;
#116 = CARTESIAN_POINT ( 'NONE',  ( 1.061811779920977231E-16, 0.0000000000000000000, 0.8670351162965941327 ) ) ;
#117 = CIRCLE ( 'NONE', #244, 0.1574804999999999955 ) ;
#118 = DIRECTION ( 'NONE',  ( -1.224646799147353207E-16, -0.0000000000000000000, -1.000000000000000000 ) ) ;
#119 = EDGE_CURVE ( 'NONE', #160, #202, #143, .T. ) ;
#120 =( LENGTH_UNIT ( ) NAMED_UNIT ( * ) SI_UNIT ( $, .METRE. ) );
#121 = FILL_AREA_STYLE ('',( #269 ) ) ;
#122 = AXIS2_PLACEMENT_3D ( 'NONE', #89, #195, #223 ) ;
#123 = ADVANCED_FACE ( 'NONE', ( #272 ), #21, .T. ) ;
#124 = ORIENTED_EDGE ( 'NONE', *, *, #247, .F. ) ;
#125 = DIRECTION ( 'NONE',  ( -1.224646799147353207E-16, -0.0000000000000000000, -1.000000000000000000 ) ) ;
#126 = ORIENTED_EDGE ( 'NONE', *, *, #197, .T. ) ;
#127 = AXIS2_PLACEMENT_3D ( 'NONE', #114, #288, #208 ) ;
#128 = CARTESIAN_POINT ( 'NONE',  ( 1.926651322628716627E-17, 0.0000000000000000000, 0.1573230194999999942 ) ) ;
#129 = PRODUCT_DEFINITION_CONTEXT ( 'detailed design', #159, 'design' ) ;
#130 = CARTESIAN_POINT ( 'NONE',  ( 0.0000000000000000000, 0.0000000000000000000, 0.0000000000000000000 ) ) ;
#131 = CARTESIAN_POINT ( 'NONE',  ( -0.1424804999999990940, 0.0000000000000000000, 2.480315000000000047 ) ) ;
#132 = ORIENTED_EDGE ( 'NONE', *, *, #317, .F. ) ;
#133 = STYLED_ITEM ( 'NONE', ( #61 ), #204 ) ;
#134 = PRODUCT_DEFINITION_FORMATION_WITH_SPECIFIED_SOURCE ( 'ANY', '', #43, .NOT_KNOWN. ) ;
#135 = ORIENTED_EDGE ( 'NONE', *, *, #142, .F. ) ;
#136 = SURFACE_SIDE_STYLE ('',( #6 ) ) ;
#137 = VERTEX_POINT ( 'NONE', #12 ) ;
#138 = ORIENTED_EDGE ( 'NONE', *, *, #108, .F. ) ;
#139 = STYLED_ITEM ( 'NONE', ( #242 ), #106 ) ;
#140 = DIRECTION ( 'NONE',  ( 0.0000000000000000000, 0.0000000000000000000, 1.000000000000000000 ) ) ;
#141 = CARTESIAN_POINT ( 'NONE',  ( 0.0000000000000000000, 0.0000000000000000000, 2.480315000000000047 ) ) ;
#142 = EDGE_CURVE ( 'NONE', #48, #80, #298, .T. ) ;
#143 = CIRCLE ( 'NONE', #292, 0.1573230194999999942 ) ;
#144 =( NAMED_UNIT ( * ) SI_UNIT ( $, .STERADIAN. ) SOLID_ANGLE_UNIT ( ) );
#145 = LENGTH_MEASURE_WITH_UNIT ( LENGTH_MEASURE( 0.02539999999999999897 ), #120 );
#146 = ADVANCED_FACE ( 'NONE', ( #252 ), #301, .T. ) ;
#147 = LINE ( 'NONE', #324, #297 ) ;
#148 = AXIS2_PLACEMENT_3D ( 'NONE', #70, #257, #278 ) ;
#149 = CYLINDRICAL_SURFACE ( 'NONE', #196, 0.1573230194999999942 ) ;
#150 = DIRECTION ( 'NONE',  ( -0.0000000000000000000, -0.0000000000000000000, -1.000000000000000000 ) ) ;
#151 = DIMENSIONAL_EXPONENTS ( 1.000000000000000000, 0.0000000000000000000, 0.0000000000000000000, 0.0000000000000000000, 0.0000000000000000000, 0.0000000000000000000, 0.0000000000000000000 ) ;
#152 = ORIENTED_EDGE ( 'NONE', *, *, #142, .T. ) ;
#153 = DIRECTION ( 'NONE',  ( -1.000000000000000000, 0.0000000000000000000, 1.224646799147353454E-16 ) ) ;
#154 = EDGE_CURVE ( 'NONE', #17, #263, #281, .T. ) ;
#155 = CARTESIAN_POINT ( 'NONE',  ( 0.0000000000000000000, 0.0000000000000000000, 2.480315000000000047 ) ) ;
#156 = ORIENTED_EDGE ( 'NONE', *, *, #240, .T. ) ;
#157 = ORIENTED_EDGE ( 'NONE', *, *, #165, .T. ) ;
#158 = AXIS2_PLACEMENT_3D ( 'NONE', #63, #300, #194 ) ;
#159 = APPLICATION_CONTEXT ( 'automotive_design' ) ;
#160 = VERTEX_POINT ( 'NONE', #251 ) ;
#161 = UNCERTAINTY_MEASURE_WITH_UNIT (LENGTH_MEASURE( 1.000000000000000082E-05 ), #97, 'distance_accuracy_value', 'NONE');
#162 = DIRECTION ( 'NONE',  ( 0.0000000000000000000, 0.0000000000000000000, 1.000000000000000000 ) ) ;
#163 = ORIENTED_EDGE ( 'NONE', *, *, #88, .F. ) ;
#164 = FACE_OUTER_BOUND ( 'NONE', #98, .T. ) ;
#165 = EDGE_CURVE ( 'NONE', #202, #279, #198, .T. ) ;
#166 = VECTOR ( 'NONE', #296, 39.37007874015748143 ) ;
#167 = DIRECTION ( 'NONE',  ( 0.0000000000000000000, 0.0000000000000000000, -1.000000000000000000 ) ) ;
#168 = DIRECTION ( 'NONE',  ( 0.0000000000000000000, 0.0000000000000000000, -1.000000000000000000 ) ) ;
#169 = VECTOR ( 'NONE', #248, 39.37007874015748854 ) ;
#170 = DIRECTION ( 'NONE',  ( -1.000000000000000000, 0.0000000000000000000, 0.0000000000000000000 ) ) ;
#171 = EDGE_CURVE ( 'NONE', #202, #80, #147, .T. ) ;
#172 = DIRECTION ( 'NONE',  ( -1.000000000000000000, 0.0000000000000000000, 0.0000000000000000000 ) ) ;
#173 = CARTESIAN_POINT ( 'NONE',  ( -0.1574804999999998845, 0.0000000000000000000, 0.8670351162965941327 ) ) ;
#174 = CARTESIAN_POINT ( 'NONE',  ( 1.926651322628716627E-17, 0.0000000000000000000, 0.1573230194999999942 ) ) ;
#175 = ORIENTED_EDGE ( 'NONE', *, *, #234, .F. ) ;
#176 = ADVANCED_FACE ( 'NONE', ( #322 ), #253, .T. ) ;
#177 = DIRECTION ( 'NONE',  ( 1.000000000000000000, 0.0000000000000000000, 0.0000000000000000000 ) ) ;
#178 = VERTEX_POINT ( 'NONE', #13 ) ;
#179 = CARTESIAN_POINT ( 'NONE',  ( 0.0000000000000000000, 0.0000000000000000000, 2.480315000000000047 ) ) ;
#180 = CONICAL_SURFACE ( 'NONE', #127, 0.1573230194999999942, 0.1745329251994337527 ) ;
#181 = FACE_OUTER_BOUND ( 'NONE', #105, .T. ) ;
#182 = EDGE_LOOP ( 'NONE', ( #283, #7, #262, #138 ) ) ;
#183 = EDGE_CURVE ( 'NONE', #80, #237, #15, .T. ) ;
#184 = FILL_AREA_STYLE ('',( #267 ) ) ;
#185 = ORIENTED_EDGE ( 'NONE', *, *, #240, .F. ) ;
#186 = AXIS2_PLACEMENT_3D ( 'NONE', #4, #254, #206 ) ;
#187 = CARTESIAN_POINT ( 'NONE',  ( 1.060718027907086782E-16, 0.0000000000000000000, 0.8661419999999999675 ) ) ;
#188 =( NAMED_UNIT ( * ) SI_UNIT ( $, .STERADIAN. ) SOLID_ANGLE_UNIT ( ) );
#189 = ORIENTED_EDGE ( 'NONE', *, *, #154, .T. ) ;
#190 = ORIENTED_EDGE ( 'NONE', *, *, #247, .T. ) ;
#191 = MECHANICAL_DESIGN_GEOMETRIC_PRESENTATION_REPRESENTATION (  '', ( #139 ), #282 ) ;
#192 = ORIENTED_EDGE ( 'NONE', *, *, #227, .T. ) ;
#193 = CARTESIAN_POINT ( 'NONE',  ( 0.0000000000000000000, 0.0000000000000000000, 2.480315000000000047 ) ) ;
#194 = DIRECTION ( 'NONE',  ( 1.000000000000000000, 0.0000000000000000000, 0.0000000000000000000 ) ) ;
#195 = DIRECTION ( 'NONE',  ( 0.0000000000000000000, 0.0000000000000000000, -1.000000000000000000 ) ) ;
#196 = AXIS2_PLACEMENT_3D ( 'NONE', #130, #22, #153 ) ;
#197 = EDGE_CURVE ( 'NONE', #202, #160, #275, .T. ) ;
#198 = LINE ( 'NONE', #224, #308 ) ;
#199 = DIRECTION ( 'NONE',  ( -1.224646799147353207E-16, -0.0000000000000000000, -1.000000000000000000 ) ) ;
#200 = VECTOR ( 'NONE', #150, 39.37007874015748143 ) ;
#201 = ORIENTED_EDGE ( 'NONE', *, *, #317, .T. ) ;
#202 = VERTEX_POINT ( 'NONE', #219 ) ;
#203 = CYLINDRICAL_SURFACE ( 'NONE', #205, 0.1574804999999999955 ) ;
#204 = MANIFOLD_SOLID_BREP ( 'Fillet1', #20 ) ;
#205 = AXIS2_PLACEMENT_3D ( 'NONE', #179, #103, #280 ) ;
#206 = DIRECTION ( 'NONE',  ( 1.000000000000000000, 0.0000000000000000000, 0.0000000000000000000 ) ) ;
#207 = ORIENTED_EDGE ( 'NONE', *, *, #108, .T. ) ;
#208 = DIRECTION ( 'NONE',  ( 1.000000000000000000, 0.0000000000000000000, 0.0000000000000000000 ) ) ;
#209 = PRODUCT_CONTEXT ( 'NONE', #99, 'mechanical' ) ;
#210 = DIRECTION ( 'NONE',  ( -0.7071067811865627828, 0.0000000000000000000, -0.7071067811865321406 ) ) ;
#211 = EDGE_CURVE ( 'NONE', #237, #80, #117, .T. ) ;
#212 = CIRCLE ( 'NONE', #270, 0.1574804999999999955 ) ;
#213 =( CONVERSION_BASED_UNIT ( 'INCH', #238 ) LENGTH_UNIT ( ) NAMED_UNIT ( #151 ) );
#214 = DIRECTION ( 'NONE',  ( -1.224646799147353207E-16, -0.0000000000000000000, -1.000000000000000000 ) ) ;
#215 = UNCERTAINTY_MEASURE_WITH_UNIT (LENGTH_MEASURE( 1.000000000000000082E-05 ), #220, 'distance_accuracy_value', 'NONE');
#216 = ORIENTED_EDGE ( 'NONE', *, *, #211, .F. ) ;
#217 = EDGE_LOOP ( 'NONE', ( #175, #277, #51, #54 ) ) ;
#218 = DIRECTION ( 'NONE',  ( -1.224646799147353207E-16, -0.0000000000000000000, -1.000000000000000000 ) ) ;
#219 = CARTESIAN_POINT ( 'NONE',  ( 0.1573230195000001053, 0.0000000000000000000, 0.8661419999999999675 ) ) ;
#220 =( CONVERSION_BASED_UNIT ( 'INCH', #145 ) LENGTH_UNIT ( ) NAMED_UNIT ( #100 ) );
#221 = ADVANCED_FACE ( 'NONE', ( #321 ), #86, .T. ) ;
#222 = AXIS2_PLACEMENT_3D ( 'NONE', #266, #313, #293 ) ;
#223 = DIRECTION ( 'NONE',  ( -1.000000000000000000, 0.0000000000000000000, 0.0000000000000000000 ) ) ;
#224 = CARTESIAN_POINT ( 'NONE',  ( 0.1573230194999999942, 1.926651322628716627E-17, -1.926651322628716627E-17 ) ) ;
#225 = DIMENSIONAL_EXPONENTS ( 1.000000000000000000, 0.0000000000000000000, 0.0000000000000000000, 0.0000000000000000000, 0.0000000000000000000, 0.0000000000000000000, 0.0000000000000000000 ) ;
#226 = APPLICATION_PROTOCOL_DEFINITION ( 'draft international standard', 'automotive_design', 1998, #99 ) ;
#227 = EDGE_CURVE ( 'NONE', #231, #237, #68, .T. ) ;
#228 = ORIENTED_EDGE ( 'NONE', *, *, #119, .T. ) ;
#229 = DIRECTION ( 'NONE',  ( 0.0000000000000000000, 0.0000000000000000000, -1.000000000000000000 ) ) ;
#230 = AXIS2_PLACEMENT_3D ( 'NONE', #193, #168, #172 ) ;
#231 = VERTEX_POINT ( 'NONE', #40 ) ;
#232 = CARTESIAN_POINT ( 'NONE',  ( -0.1573230194999999110, 1.926651322628716627E-17, 0.8661419999999999675 ) ) ;
#233 = ORIENTED_EDGE ( 'NONE', *, *, #171, .F. ) ;
#234 = EDGE_CURVE ( 'NONE', #160, #237, #259, .T. ) ;
#235 =( NAMED_UNIT ( * ) SI_UNIT ( $, .STERADIAN. ) SOLID_ANGLE_UNIT ( ) );
#236 = AXIS2_PLACEMENT_3D ( 'NONE', #174, #2, #302 ) ;
#237 = VERTEX_POINT ( 'NONE', #173 ) ;
#238 = LENGTH_MEASURE_WITH_UNIT ( LENGTH_MEASURE( 0.02539999999999999897 ), #74 );
#239 = CARTESIAN_POINT ( 'NONE',  ( 0.1574804999999999955, 1.928579902531247412E-17, 2.465314999999999923 ) ) ;
#240 = EDGE_CURVE ( 'NONE', #48, #231, #314, .T. ) ;
#241 = UNCERTAINTY_MEASURE_WITH_UNIT (LENGTH_MEASURE( 1.000000000000000082E-05 ), #213, 'distance_accuracy_value', 'NONE');
#242 = PRESENTATION_STYLE_ASSIGNMENT (( #284 ) ) ;
#243 = DIRECTION ( 'NONE',  ( 1.000000000000000000, 0.0000000000000000000, 0.0000000000000000000 ) ) ;
#244 = AXIS2_PLACEMENT_3D ( 'NONE', #116, #218, #60 ) ;
#245 = CIRCLE ( 'NONE', #5, 0.1573230194999999942 ) ;
#246 = CARTESIAN_POINT ( 'NONE',  ( -0.1573230194999999942, 0.0000000000000000000, 1.926651322628716627E-17 ) ) ;
#247 = EDGE_CURVE ( 'NONE', #137, #178, #258, .T. ) ;
#248 = DIRECTION ( 'NONE',  ( 0.7071067811865627828, 8.659560562355118980E-17, -0.7071067811865321406 ) ) ;
#249 = AXIS2_PLACEMENT_3D ( 'NONE', #250, #125, #3 ) ;
#250 = CARTESIAN_POINT ( 'NONE',  ( 0.0000000000000000000, 0.0000000000000000000, 0.0000000000000000000 ) ) ;
#251 = CARTESIAN_POINT ( 'NONE',  ( -0.1573230194999999110, 1.927615612579982019E-17, 0.8661419999999999675 ) ) ;
#252 = FACE_OUTER_BOUND ( 'NONE', #24, .T. ) ;
#253 = SPHERICAL_SURFACE ( 'NONE', #158, 0.1573230194999999942 ) ;
#254 = DIRECTION ( 'NONE',  ( 0.0000000000000000000, 0.0000000000000000000, -1.000000000000000000 ) ) ;
#255 = CARTESIAN_POINT ( 'NONE',  ( 1.926651322628716627E-17, 0.0000000000000000000, 0.1573230194999999942 ) ) ;
#256 = ORIENTED_EDGE ( 'NONE', *, *, #295, .T. ) ;
#257 = DIRECTION ( 'NONE',  ( 0.0000000000000000000, 1.000000000000000000, 0.0000000000000000000 ) ) ;
#258 = CIRCLE ( 'NONE', #38, 0.1573230194999999942 ) ;
#259 = LINE ( 'NONE', #232, #286 ) ;
#260 = EDGE_CURVE ( 'NONE', #279, #178, #58, .T. ) ;
#261 =( NAMED_UNIT ( * ) PLANE_ANGLE_UNIT ( ) SI_UNIT ( $, .RADIAN. ) );
#262 = ORIENTED_EDGE ( 'NONE', *, *, #57, .F. ) ;
#263 = VERTEX_POINT ( 'NONE', #131 ) ;
#264 = CYLINDRICAL_SURFACE ( 'NONE', #33, 0.1574804999999999955 ) ;
#265 = DIRECTION ( 'NONE',  ( -1.224646799147353207E-16, -0.0000000000000000000, -1.000000000000000000 ) ) ;
#266 = CARTESIAN_POINT ( 'NONE',  ( 1.060718027907086782E-16, 0.0000000000000000000, 0.8661419999999999675 ) ) ;
#267 = FILL_AREA_STYLE_COLOUR ( '', #111 ) ;
#268 = ORIENTED_EDGE ( 'NONE', *, *, #57, .T. ) ;
#269 = FILL_AREA_STYLE_COLOUR ( '', #77 ) ;
#270 = AXIS2_PLACEMENT_3D ( 'NONE', #290, #167, #243 ) ;
#271 = ADVANCED_FACE ( 'NONE', ( #44 ), #203, .T. ) ;
#272 = FACE_OUTER_BOUND ( 'NONE', #182, .T. ) ;
#273 =( NAMED_UNIT ( * ) PLANE_ANGLE_UNIT ( ) SI_UNIT ( $, .RADIAN. ) );
#274 = CARTESIAN_POINT ( 'NONE',  ( 0.0000000000000000000, 0.0000000000000000000, 2.480315000000000047 ) ) ;
#275 = CIRCLE ( 'NONE', #90, 0.1573230194999999942 ) ;
#276 = DIRECTION ( 'NONE',  ( 0.0000000000000000000, -1.000000000000000000, 0.0000000000000000000 ) ) ;
#277 = ORIENTED_EDGE ( 'NONE', *, *, #197, .F. ) ;
#278 = DIRECTION ( 'NONE',  ( 1.000000000000000000, 0.0000000000000000000, 0.0000000000000000000 ) ) ;
#279 = VERTEX_POINT ( 'NONE', #73 ) ;
#280 = DIRECTION ( 'NONE',  ( -1.000000000000000000, 0.0000000000000000000, 0.0000000000000000000 ) ) ;
#281 = CIRCLE ( 'NONE', #84, 0.1424804999999990940 ) ;
#282 =( GEOMETRIC_REPRESENTATION_CONTEXT ( 3 ) GLOBAL_UNCERTAINTY_ASSIGNED_CONTEXT ( ( #241 ) ) GLOBAL_UNIT_ASSIGNED_CONTEXT ( ( #213, #53, #188 ) ) REPRESENTATION_CONTEXT ( 'NONE', 'WORKASPACE' ) );
#283 = ORIENTED_EDGE ( 'NONE', *, *, #154, .F. ) ;
#284 = SURFACE_STYLE_USAGE ( .BOTH. , #136 ) ;
#285 = ORIENTED_EDGE ( 'NONE', *, *, #119, .F. ) ;
#286 = VECTOR ( 'NONE', #66, 39.37007874015748854 ) ;
#287 = SHAPE_DEFINITION_REPRESENTATION ( #47, #106 ) ;
#288 = DIRECTION ( 'NONE',  ( 1.224646799147353207E-16, 0.0000000000000000000, 1.000000000000000000 ) ) ;
#289 = ADVANCED_FACE ( 'NONE', ( #181 ), #94, .T. ) ;
#290 = CARTESIAN_POINT ( 'NONE',  ( 0.0000000000000000000, 0.0000000000000000000, 2.465314999999999923 ) ) ;
#291 = ORIENTED_EDGE ( 'NONE', *, *, #260, .F. ) ;
#292 = AXIS2_PLACEMENT_3D ( 'NONE', #187, #265, #27 ) ;
#293 = DIRECTION ( 'NONE',  ( 1.000000000000000000, 0.0000000000000000000, 0.0000000000000000000 ) ) ;
#294 = DIRECTION ( 'NONE',  ( 1.000000000000000000, 0.0000000000000000000, 0.0000000000000000000 ) ) ;
#295 = EDGE_CURVE ( 'NONE', #263, #17, #16, .T. ) ;
#296 = DIRECTION ( 'NONE',  ( -0.0000000000000000000, -0.0000000000000000000, -1.000000000000000000 ) ) ;
#297 = VECTOR ( 'NONE', #35, 39.37007874015748143 ) ;
#298 = LINE ( 'NONE', #92, #166 ) ;
#299 = DIRECTION ( 'NONE',  ( 1.000000000000000000, 0.0000000000000000000, 0.0000000000000000000 ) ) ;
#300 = DIRECTION ( 'NONE',  ( 0.0000000000000000000, 1.000000000000000000, 0.0000000000000000000 ) ) ;
#301 = CONICAL_SURFACE ( 'NONE', #230, 0.1424804999999990940, 0.7853981633974699283 ) ;
#302 = DIRECTION ( 'NONE',  ( -1.000000000000000000, 0.0000000000000000000, 2.170572369468365833E-16 ) ) ;
#303 = EDGE_LOOP ( 'NONE', ( #256, #189 ) ) ;
#304 = EDGE_LOOP ( 'NONE', ( #102, #126, #46, #25 ) ) ;
#305 = ADVANCED_FACE ( 'NONE', ( #306 ), #149, .T. ) ;
#306 = FACE_OUTER_BOUND ( 'NONE', #304, .T. ) ;
#307 = LENGTH_MEASURE_WITH_UNIT ( LENGTH_MEASURE( 0.02539999999999999897 ), #64 );
#308 = VECTOR ( 'NONE', #34, 39.37007874015748143 ) ;
#309 = AXIS2_PLACEMENT_3D ( 'NONE', #49, #162, #312 ) ;
#310 = ORIENTED_EDGE ( 'NONE', *, *, #295, .F. ) ;
#311 = DIRECTION ( 'NONE',  ( -1.000000000000000000, 0.0000000000000000000, 2.170572369468365833E-16 ) ) ;
#312 = DIRECTION ( 'NONE',  ( 1.000000000000000000, 0.0000000000000000000, 0.0000000000000000000 ) ) ;
#313 = DIRECTION ( 'NONE',  ( 1.224646799147353207E-16, 0.0000000000000000000, 1.000000000000000000 ) ) ;
#314 = CIRCLE ( 'NONE', #186, 0.1574804999999999955 ) ;
#315 =( GEOMETRIC_REPRESENTATION_CONTEXT ( 3 ) GLOBAL_UNCERTAINTY_ASSIGNED_CONTEXT ( ( #161 ) ) GLOBAL_UNIT_ASSIGNED_CONTEXT ( ( #97, #261, #235 ) ) REPRESENTATION_CONTEXT ( 'NONE', 'WORKASPACE' ) );
#316 = LINE ( 'NONE', #82, #169 ) ;
#317 = EDGE_CURVE ( 'NONE', #137, #279, #245, .T. ) ;
#318 = LINE ( 'NONE', #246, #50 ) ;
#319 = ORIENTED_EDGE ( 'NONE', *, *, #227, .F. ) ;
#320 = PRESENTATION_LAYER_ASSIGNMENT (  '', '', ( #133 ) ) ;
#321 = FACE_OUTER_BOUND ( 'NONE', #67, .T. ) ;
#322 = FACE_OUTER_BOUND ( 'NONE', #56, .T. ) ;
#323 = SURFACE_SIDE_STYLE ('',( #36 ) ) ;
#324 = CARTESIAN_POINT ( 'NONE',  ( 0.1573230195000001053, 0.0000000000000000000, 0.8661419999999999675 ) ) ;
#325 = ORIENTED_EDGE ( 'NONE', *, *, #81, .F. ) ;
ENDSEC;
END-ISO-10303-21;
