ISO-10303-21;
HEADER;
FILE_DESCRIPTION (( 'STEP AP214' ),
    '1' );
FILE_NAME ('83844.STEP',
    '2023-07-05T16:17:42',
    ( '' ),
    ( '' ),
    'SwSTEP 2.0',
    'SolidWorks 2023',
    '' );
FILE_SCHEMA (( 'AUTOMOTIVE_DESIGN' ));
ENDSEC;

DATA;
#1 = DIRECTION ( 'NONE',  ( -1.252875704100928464E-16, 1.000000000000000000, -0.000000000000000000 ) ) ;
#2 = MECHANICAL_DESIGN_GEOMETRIC_PRESENTATION_REPRESENTATION (  '', ( #202 ), #28 ) ;
#3 = CARTESIAN_POINT ( 'NONE',  ( 0.000000000000000000, 0.000000000000000000, 0.000000000000000000 ) ) ;
#4 = PRODUCT ( '83844', '83844', '', ( #32 ) ) ;
#5 = CARTESIAN_POINT ( 'NONE',  ( -6.123233995736770966E-17, 3.000000000000000444, 0.000000000000000000 ) ) ;
#6 =( GEOMETRIC_REPRESENTATION_CONTEXT ( 3 ) GLOBAL_UNCERTAINTY_ASSIGNED_CONTEXT ( ( #170 ) ) GLOBAL_UNIT_ASSIGNED_CONTEXT ( ( #177, #159, #241 ) ) REPRESENTATION_CONTEXT ( 'NONE', 'WORKASPACE' ) );
#7 =( NAMED_UNIT ( * ) PLANE_ANGLE_UNIT ( ) SI_UNIT ( $, .RADIAN. ) );
#8 = EDGE_CURVE ( 'NONE', #264, #259, #91, .T. ) ;
#9 = CARTESIAN_POINT ( 'NONE',  ( -0.2499999999999999167, 3.000000000000000444, 0.000000000000000000 ) ) ;
#10 = MECHANICAL_DESIGN_GEOMETRIC_PRESENTATION_REPRESENTATION (  '', ( #130 ), #72 ) ;
#11 = DIRECTION ( 'NONE',  ( -0.5000000000000009992, 0.8660254037844380415, 0.000000000000000000 ) ) ;
#12 = UNCERTAINTY_MEASURE_WITH_UNIT (LENGTH_MEASURE( 1.000000000000000082E-05 ), #228, 'distance_accuracy_value', 'NONE');
#13 = EDGE_LOOP ( 'NONE', ( #230, #191 ) ) ;
#14 = ORIENTED_EDGE ( 'NONE', *, *, #244, .T. ) ;
#15 = PRESENTATION_LAYER_ASSIGNMENT (  '', '', ( #210 ) ) ;
#16 = EDGE_LOOP ( 'NONE', ( #173, #211 ) ) ;
#17 = ORIENTED_EDGE ( 'NONE', *, *, #8, .F. ) ;
#18 = PRODUCT_DEFINITION_CONTEXT ( 'detailed design', #234, 'design' ) ;
#19 =( NAMED_UNIT ( * ) PLANE_ANGLE_UNIT ( ) SI_UNIT ( $, .RADIAN. ) );
#20 = SURFACE_STYLE_FILL_AREA ( #243 ) ;
#21 = DIRECTION ( 'NONE',  ( -1.252875704100928464E-16, 1.000000000000000000, -0.000000000000000000 ) ) ;
#22 = CIRCLE ( 'NONE', #65, 0.2499999999999997224 ) ;
#23 =( LENGTH_UNIT ( ) NAMED_UNIT ( * ) SI_UNIT ( $, .METRE. ) );
#24 =( LENGTH_UNIT ( ) NAMED_UNIT ( * ) SI_UNIT ( $, .METRE. ) );
#25 = UNCERTAINTY_MEASURE_WITH_UNIT (LENGTH_MEASURE( 1.000000000000000082E-05 ), #105, 'distance_accuracy_value', 'NONE');
#26 = FILL_AREA_STYLE ('',( #194 ) ) ;
#27 = CARTESIAN_POINT ( 'NONE',  ( 0.000000000000000000, 0.000000000000000000, 0.000000000000000000 ) ) ;
#28 =( GEOMETRIC_REPRESENTATION_CONTEXT ( 3 ) GLOBAL_UNCERTAINTY_ASSIGNED_CONTEXT ( ( #12 ) ) GLOBAL_UNIT_ASSIGNED_CONTEXT ( ( #228, #7, #251 ) ) REPRESENTATION_CONTEXT ( 'NONE', 'WORKASPACE' ) );
#29 = EDGE_CURVE ( 'NONE', #57, #33, #168, .T. ) ;
#30 = ORIENTED_EDGE ( 'NONE', *, *, #244, .F. ) ;
#31 = CARTESIAN_POINT ( 'NONE',  ( -0.2499999999999999722, 0.4330127018922180770, 0.000000000000000000 ) ) ;
#32 = PRODUCT_CONTEXT ( 'NONE', #61, 'mechanical' ) ;
#33 = VERTEX_POINT ( 'NONE', #236 ) ;
#34 = COLOUR_RGB ( '',1.000000000000000000, 0.000000000000000000, 0.000000000000000000 ) ;
#35 = CARTESIAN_POINT ( 'NONE',  ( 2.603792618961250418E-16, 0.4330127018922179105, 0.000000000000000000 ) ) ;
#36 = LENGTH_MEASURE_WITH_UNIT ( LENGTH_MEASURE( 0.02539999999999999897 ), #218 );
#37 = VECTOR ( 'NONE', #133, 39.37007874015748143 ) ;
#38 = COLOUR_RGB ( '',0.7921568627450980005, 0.8196078431372548767, 0.9333333333333333481 ) ;
#39 = CARTESIAN_POINT ( 'NONE',  ( 2.603792618961250418E-16, 0.4330127018922179105, 0.000000000000000000 ) ) ;
#40 = FACE_OUTER_BOUND ( 'NONE', #96, .T. ) ;
#41 = DIRECTION ( 'NONE',  ( 1.000000000000000000, 1.252875704100928464E-16, 0.000000000000000000 ) ) ;
#42 = EDGE_CURVE ( 'NONE', #171, #57, #127, .T. ) ;
#43 = SURFACE_STYLE_USAGE ( .BOTH. , #253 ) ;
#44 = PRESENTATION_LAYER_ASSIGNMENT (  '', '', ( #137 ) ) ;
#45 = CARTESIAN_POINT ( 'NONE',  ( 0.2500000000000000000, 0.4330127018922179105, 3.061616997868383018E-17 ) ) ;
#46 = EDGE_LOOP ( 'NONE', ( #131, #100, #17, #30 ) ) ;
#47 = EDGE_CURVE ( 'NONE', #171, #33, #153, .T. ) ;
#48 =( LENGTH_UNIT ( ) NAMED_UNIT ( * ) SI_UNIT ( $, .METRE. ) );
#49 = ORIENTED_EDGE ( 'NONE', *, *, #47, .T. ) ;
#50 = CLOSED_SHELL ( 'NONE', ( #62, #97, #240, #232 ) ) ;
#51 = VECTOR ( 'NONE', #207, 39.37007874015748143 ) ;
#52 = ORIENTED_EDGE ( 'NONE', *, *, #54, .F. ) ;
#53 = LENGTH_MEASURE_WITH_UNIT ( LENGTH_MEASURE( 0.02539999999999999897 ), #132 );
#54 = EDGE_CURVE ( 'NONE', #195, #259, #129, .T. ) ;
#55 = DIRECTION ( 'NONE',  ( -1.252875704100928464E-16, 1.000000000000000000, -0.000000000000000000 ) ) ;
#56 = APPLICATION_PROTOCOL_DEFINITION ( 'draft international standard', 'automotive_design', 1998, #61 ) ;
#57 = VERTEX_POINT ( 'NONE', #31 ) ;
#58 = PRODUCT_DEFINITION_FORMATION_WITH_SPECIFIED_SOURCE ( 'ANY', '', #4, .NOT_KNOWN. ) ;
#59 = AXIS2_PLACEMENT_3D ( 'NONE', #190, #95, #90 ) ;
#60 = CARTESIAN_POINT ( 'NONE',  ( 7.870206804039944582E-19, 0.4330127018922180770, 0.000000000000000000 ) ) ;
#61 = APPLICATION_CONTEXT ( 'automotive_design' ) ;
#62 = ADVANCED_FACE ( 'NONE', ( #113 ), #192, .T. ) ;
#63 = ADVANCED_BREP_SHAPE_REPRESENTATION ( '83844', ( #256, #252, #59 ), #217 ) ;
#64 = AXIS2_PLACEMENT_3D ( 'NONE', #98, #172, #77 ) ;
#65 = AXIS2_PLACEMENT_3D ( 'NONE', #39, #1, #84 ) ;
#66 = DIRECTION ( 'NONE',  ( -1.000000000000000000, 1.817546406756199756E-18, 0.000000000000000000 ) ) ;
#67 = FACE_OUTER_BOUND ( 'NONE', #16, .T. ) ;
#68 = SURFACE_SIDE_STYLE ('',( #182 ) ) ;
#69 = DIRECTION ( 'NONE',  ( -1.000000000000000000, 0.000000000000000000, 0.000000000000000000 ) ) ;
#70 = CARTESIAN_POINT ( 'NONE',  ( 0.2499999999999999722, 3.000000000000000444, 0.000000000000000000 ) ) ;
#71 = AXIS2_PLACEMENT_3D ( 'NONE', #35, #21, #220 ) ;
#72 =( GEOMETRIC_REPRESENTATION_CONTEXT ( 3 ) GLOBAL_UNCERTAINTY_ASSIGNED_CONTEXT ( ( #151 ) ) GLOBAL_UNIT_ASSIGNED_CONTEXT ( ( #261, #187, #134 ) ) REPRESENTATION_CONTEXT ( 'NONE', 'WORKASPACE' ) );
#73 = SHAPE_DEFINITION_REPRESENTATION ( #144, #63 ) ;
#74 = ORIENTED_EDGE ( 'NONE', *, *, #47, .F. ) ;
#75 = CARTESIAN_POINT ( 'NONE',  ( -6.123233995736770966E-17, 3.000000000000000444, 0.000000000000000000 ) ) ;
#76 = EDGE_LOOP ( 'NONE', ( #52, #94, #14, #135 ) ) ;
#77 = DIRECTION ( 'NONE',  ( -1.000000000000000000, 0.000000000000000000, 0.000000000000000000 ) ) ;
#78 =( NAMED_UNIT ( * ) SI_UNIT ( $, .STERADIAN. ) SOLID_ANGLE_UNIT ( ) );
#79 = ORIENTED_EDGE ( 'NONE', *, *, #42, .F. ) ;
#80 = UNCERTAINTY_MEASURE_WITH_UNIT (LENGTH_MEASURE( 1.000000000000000082E-05 ), #93, 'distance_accuracy_value', 'NONE');
#81 = PRESENTATION_STYLE_ASSIGNMENT (( #265 ) ) ;
#82 = FILL_AREA_STYLE_COLOUR ( '', #215 ) ;
#83 = AXIS2_PLACEMENT_3D ( 'NONE', #186, #226, #69 ) ;
#84 = DIRECTION ( 'NONE',  ( -1.000000000000000000, 0.000000000000000000, 0.000000000000000000 ) ) ;
#85 = FILL_AREA_STYLE ('',( #123 ) ) ;
#86 = FACE_OUTER_BOUND ( 'NONE', #13, .T. ) ;
#87 =( NAMED_UNIT ( * ) PLANE_ANGLE_UNIT ( ) SI_UNIT ( $, .RADIAN. ) );
#88 = VECTOR ( 'NONE', #213, 39.37007874015748143 ) ;
#89 = CARTESIAN_POINT ( 'NONE',  ( -0.2500000000000001110, 3.000000000000000444, 0.000000000000000000 ) ) ;
#90 = DIRECTION ( 'NONE',  ( 1.000000000000000000, 0.000000000000000000, 0.000000000000000000 ) ) ;
#91 = CIRCLE ( 'NONE', #149, 0.2500000000000000555 ) ;
#92 = PRESENTATION_LAYER_ASSIGNMENT (  '', '', ( #158 ) ) ;
#93 =( CONVERSION_BASED_UNIT ( 'INCH', #128 ) LENGTH_UNIT ( ) NAMED_UNIT ( #178 ) );
#94 = ORIENTED_EDGE ( 'NONE', *, *, #116, .T. ) ;
#95 = DIRECTION ( 'NONE',  ( 0.000000000000000000, 0.000000000000000000, 1.000000000000000000 ) ) ;
#96 = EDGE_LOOP ( 'NONE', ( #74, #216, #174 ) ) ;
#97 = ADVANCED_FACE ( 'NONE', ( #157 ), #237, .F. ) ;
#98 = CARTESIAN_POINT ( 'NONE',  ( -6.123233995736772199E-17, 3.000000000000000444, 0.000000000000000000 ) ) ;
#99 = AXIS2_PLACEMENT_3D ( 'NONE', #245, #104, #66 ) ;
#100 = ORIENTED_EDGE ( 'NONE', *, *, #54, .T. ) ;
#101 = EDGE_LOOP ( 'NONE', ( #169, #262 ) ) ;
#102 = DIRECTION ( 'NONE',  ( 1.817546406756199756E-18, 1.000000000000000000, 0.000000000000000000 ) ) ;
#103 = COLOUR_RGB ( '',1.000000000000000000, 0.000000000000000000, 0.000000000000000000 ) ;
#104 = DIRECTION ( 'NONE',  ( 1.817546406756199756E-18, 1.000000000000000000, 0.000000000000000000 ) ) ;
#105 =( CONVERSION_BASED_UNIT ( 'INCH', #36 ) LENGTH_UNIT ( ) NAMED_UNIT ( #222 ) );
#106 = DIRECTION ( 'NONE',  ( -1.252875704100928464E-16, 1.000000000000000000, -0.000000000000000000 ) ) ;
#107 = EDGE_CURVE ( 'NONE', #33, #57, #260, .T. ) ;
#108 = SURFACE_STYLE_USAGE ( .BOTH. , #68 ) ;
#109 = MECHANICAL_DESIGN_GEOMETRIC_PRESENTATION_REPRESENTATION (  '', ( #210 ), #6 ) ;
#110 = DIRECTION ( 'NONE',  ( 1.252875704100928464E-16, -1.000000000000000000, 0.000000000000000000 ) ) ;
#111 = ORIENTED_EDGE ( 'NONE', *, *, #107, .T. ) ;
#112 = CARTESIAN_POINT ( 'NONE',  ( 0.2499999999999998057, 3.000000000000000444, 3.061616997868381785E-17 ) ) ;
#113 = FACE_OUTER_BOUND ( 'NONE', #46, .T. ) ;
#114 = CARTESIAN_POINT ( 'NONE',  ( 2.603792618961250911E-16, 0.4330127018922180770, 0.000000000000000000 ) ) ;
#115 = CARTESIAN_POINT ( 'NONE',  ( 7.870206804039944582E-19, 0.4330127018922180770, 0.000000000000000000 ) ) ;
#116 = EDGE_CURVE ( 'NONE', #195, #258, #120, .T. ) ;
#117 = CARTESIAN_POINT ( 'NONE',  ( 7.155694514788188035E-17, 39.37007874015748143, 0.000000000000000000 ) ) ;
#118 = DIRECTION ( 'NONE',  ( 1.000000000000000000, 0.000000000000000000, 0.000000000000000000 ) ) ;
#119 = PRODUCT_DEFINITION ( 'UNKNOWN', '', #58, #18 ) ;
#120 = CIRCLE ( 'NONE', #71, 0.2499999999999997224 ) ;
#121 = LINE ( 'NONE', #9, #51 ) ;
#122 = LENGTH_MEASURE_WITH_UNIT ( LENGTH_MEASURE( 0.02539999999999999897 ), #24 );
#123 = FILL_AREA_STYLE_COLOUR ( '', #103 ) ;
#124 = MECHANICAL_DESIGN_GEOMETRIC_PRESENTATION_REPRESENTATION (  '', ( #137 ), #180 ) ;
#125 = DIRECTION ( 'NONE',  ( 1.817546406756199756E-18, 1.000000000000000000, 0.000000000000000000 ) ) ;
#126 = UNCERTAINTY_MEASURE_WITH_UNIT (LENGTH_MEASURE( 1.000000000000000082E-05 ), #147, 'distance_accuracy_value', 'NONE');
#127 = LINE ( 'NONE', #27, #199 ) ;
#128 = LENGTH_MEASURE_WITH_UNIT ( LENGTH_MEASURE( 0.02539999999999999897 ), #48 );
#129 = LINE ( 'NONE', #112, #37 ) ;
#130 = STYLED_ITEM ( 'NONE', ( #152 ), #256 ) ;
#131 = ORIENTED_EDGE ( 'NONE', *, *, #154, .T. ) ;
#132 =( LENGTH_UNIT ( ) NAMED_UNIT ( * ) SI_UNIT ( $, .METRE. ) );
#133 = DIRECTION ( 'NONE',  ( -1.252875704100928464E-16, 1.000000000000000000, -0.000000000000000000 ) ) ;
#134 =( NAMED_UNIT ( * ) SI_UNIT ( $, .STERADIAN. ) SOLID_ANGLE_UNIT ( ) );
#135 = ORIENTED_EDGE ( 'NONE', *, *, #193, .F. ) ;
#136 = ADVANCED_FACE ( 'NONE', ( #40 ), #143, .T. ) ;
#137 = STYLED_ITEM ( 'NONE', ( #206 ), #212 ) ;
#138 = SURFACE_SIDE_STYLE ('',( #161 ) ) ;
#139 =( LENGTH_UNIT ( ) NAMED_UNIT ( * ) SI_UNIT ( $, .METRE. ) );
#140 = DIMENSIONAL_EXPONENTS ( 1.000000000000000000, 0.000000000000000000, 0.000000000000000000, 0.000000000000000000, 0.000000000000000000, 0.000000000000000000, 0.000000000000000000 ) ;
#141 = LENGTH_MEASURE_WITH_UNIT ( LENGTH_MEASURE( 0.02539999999999999897 ), #139 );
#142 = DIMENSIONAL_EXPONENTS ( 1.000000000000000000, 0.000000000000000000, 0.000000000000000000, 0.000000000000000000, 0.000000000000000000, 0.000000000000000000, 0.000000000000000000 ) ;
#143 = CONICAL_SURFACE ( 'NONE', #254, 22.73032555864674364, 0.5235987755983000369 ) ;
#144 = PRODUCT_DEFINITION_SHAPE ( 'NONE', 'NONE',  #119 ) ;
#145 = FACE_OUTER_BOUND ( 'NONE', #76, .T. ) ;
#146 = ADVANCED_FACE ( 'NONE', ( #67 ), #201, .T. ) ;
#147 =( CONVERSION_BASED_UNIT ( 'INCH', #122 ) LENGTH_UNIT ( ) NAMED_UNIT ( #142 ) );
#148 = LENGTH_MEASURE_WITH_UNIT ( LENGTH_MEASURE( 0.02539999999999999897 ), #23 );
#149 = AXIS2_PLACEMENT_3D ( 'NONE', #75, #55, #156 ) ;
#150 = EDGE_LOOP ( 'NONE', ( #79, #49, #111 ) ) ;
#151 = UNCERTAINTY_MEASURE_WITH_UNIT (LENGTH_MEASURE( 1.000000000000000082E-05 ), #261, 'distance_accuracy_value', 'NONE');
#152 = PRESENTATION_STYLE_ASSIGNMENT (( #263 ) ) ;
#153 = LINE ( 'NONE', #231, #88 ) ;
#154 = EDGE_CURVE ( 'NONE', #258, #195, #22, .T. ) ;
#155 = SURFACE_SIDE_STYLE ('',( #209 ) ) ;
#156 = DIRECTION ( 'NONE',  ( -1.000000000000000000, 0.000000000000000000, 0.000000000000000000 ) ) ;
#157 = FACE_OUTER_BOUND ( 'NONE', #101, .T. ) ;
#158 = STYLED_ITEM ( 'NONE', ( #247 ), #136 ) ;
#159 =( NAMED_UNIT ( * ) PLANE_ANGLE_UNIT ( ) SI_UNIT ( $, .RADIAN. ) );
#160 = DIMENSIONAL_EXPONENTS ( 1.000000000000000000, 0.000000000000000000, 0.000000000000000000, 0.000000000000000000, 0.000000000000000000, 0.000000000000000000, 0.000000000000000000 ) ;
#161 = SURFACE_STYLE_FILL_AREA ( #162 ) ;
#162 = FILL_AREA_STYLE ('',( #82 ) ) ;
#163 = AXIS2_PLACEMENT_3D ( 'NONE', #115, #208, #189 ) ;
#164 = DIRECTION ( 'NONE',  ( -1.000000000000000000, -1.252875704100928464E-16, 0.000000000000000000 ) ) ;
#165 = DIRECTION ( 'NONE',  ( -1.000000000000000000, 0.000000000000000000, 0.000000000000000000 ) ) ;
#166 = CARTESIAN_POINT ( 'NONE',  ( 7.155694514788188035E-17, 39.37007874015748143, 0.000000000000000000 ) ) ;
#167 = FILL_AREA_STYLE ('',( #203 ) ) ;
#168 = CIRCLE ( 'NONE', #163, 0.2499999999999999722 ) ;
#169 = ORIENTED_EDGE ( 'NONE', *, *, #154, .F. ) ;
#170 = UNCERTAINTY_MEASURE_WITH_UNIT (LENGTH_MEASURE( 1.000000000000000082E-05 ), #177, 'distance_accuracy_value', 'NONE');
#171 = VERTEX_POINT ( 'NONE', #3 ) ;
#172 = DIRECTION ( 'NONE',  ( -1.252875704100928464E-16, 1.000000000000000000, -0.000000000000000000 ) ) ;
#173 = ORIENTED_EDGE ( 'NONE', *, *, #29, .F. ) ;
#174 = ORIENTED_EDGE ( 'NONE', *, *, #29, .T. ) ;
#175 = SURFACE_SIDE_STYLE ('',( #20 ) ) ;
#176 = AXIS2_PLACEMENT_3D ( 'NONE', #5, #106, #249 ) ;
#177 =( CONVERSION_BASED_UNIT ( 'INCH', #141 ) LENGTH_UNIT ( ) NAMED_UNIT ( #242 ) );
#178 = DIMENSIONAL_EXPONENTS ( 1.000000000000000000, 0.000000000000000000, 0.000000000000000000, 0.000000000000000000, 0.000000000000000000, 0.000000000000000000, 0.000000000000000000 ) ;
#179 = SURFACE_STYLE_USAGE ( .BOTH. , #138 ) ;
#180 =( GEOMETRIC_REPRESENTATION_CONTEXT ( 3 ) GLOBAL_UNCERTAINTY_ASSIGNED_CONTEXT ( ( #126 ) ) GLOBAL_UNIT_ASSIGNED_CONTEXT ( ( #147, #87, #183 ) ) REPRESENTATION_CONTEXT ( 'NONE', 'WORKASPACE' ) );
#181 = SURFACE_STYLE_FILL_AREA ( #167 ) ;
#182 = SURFACE_STYLE_FILL_AREA ( #85 ) ;
#183 =( NAMED_UNIT ( * ) SI_UNIT ( $, .STERADIAN. ) SOLID_ANGLE_UNIT ( ) );
#184 = AXIS2_PLACEMENT_3D ( 'NONE', #114, #239, #164 ) ;
#185 = CONICAL_SURFACE ( 'NONE', #235, 22.73032555864674364, 0.5235987755983000369 ) ;
#186 = CARTESIAN_POINT ( 'NONE',  ( -6.123233995736772199E-17, 3.000000000000000444, 0.000000000000000000 ) ) ;
#187 =( NAMED_UNIT ( * ) PLANE_ANGLE_UNIT ( ) SI_UNIT ( $, .RADIAN. ) );
#188 = MECHANICAL_DESIGN_GEOMETRIC_PRESENTATION_REPRESENTATION (  '', ( #158 ), #238 ) ;
#189 = DIRECTION ( 'NONE',  ( 1.000000000000000000, 0.000000000000000000, 0.000000000000000000 ) ) ;
#190 = CARTESIAN_POINT ( 'NONE',  ( 0.000000000000000000, 0.000000000000000000, 0.000000000000000000 ) ) ;
#191 = ORIENTED_EDGE ( 'NONE', *, *, #193, .T. ) ;
#192 = CYLINDRICAL_SURFACE ( 'NONE', #64, 0.2499999999999998612 ) ;
#193 = EDGE_CURVE ( 'NONE', #259, #264, #246, .T. ) ;
#194 = FILL_AREA_STYLE_COLOUR ( '', #38 ) ;
#195 = VERTEX_POINT ( 'NONE', #45 ) ;
#196 = COLOUR_RGB ( '',0.7921568627450980005, 0.8196078431372548767, 0.9333333333333333481 ) ;
#197 = DIRECTION ( 'NONE',  ( -1.000000000000000000, 0.000000000000000000, 0.000000000000000000 ) ) ;
#198 = FILL_AREA_STYLE_COLOUR ( '', #34 ) ;
#199 = VECTOR ( 'NONE', #11, 39.37007874015748143 ) ;
#200 = PRESENTATION_LAYER_ASSIGNMENT (  '', '', ( #130 ) ) ;
#201 = PLANE ( 'NONE',  #99 ) ;
#202 = STYLED_ITEM ( 'NONE', ( #248 ), #252 ) ;
#203 = FILL_AREA_STYLE_COLOUR ( '', #196 ) ;
#204 = AXIS2_PLACEMENT_3D ( 'NONE', #60, #224, #118 ) ;
#205 = AXIS2_PLACEMENT_3D ( 'NONE', #70, #110, #41 ) ;
#206 = PRESENTATION_STYLE_ASSIGNMENT (( #108 ) ) ;
#207 = DIRECTION ( 'NONE',  ( -1.252875704100928464E-16, 1.000000000000000000, -0.000000000000000000 ) ) ;
#208 = DIRECTION ( 'NONE',  ( -1.817546406756199756E-18, -1.000000000000000000, -0.000000000000000000 ) ) ;
#209 = SURFACE_STYLE_FILL_AREA ( #26 ) ;
#210 = STYLED_ITEM ( 'NONE', ( #81 ), #146 ) ;
#211 = ORIENTED_EDGE ( 'NONE', *, *, #107, .F. ) ;
#212 = ADVANCED_FACE ( 'NONE', ( #225 ), #185, .T. ) ;
#213 = DIRECTION ( 'NONE',  ( 0.5000000000000009992, 0.8660254037844380415, 6.123233995736778362E-17 ) ) ;
#214 =( NAMED_UNIT ( * ) PLANE_ANGLE_UNIT ( ) SI_UNIT ( $, .RADIAN. ) );
#215 = COLOUR_RGB ( '',1.000000000000000000, 0.000000000000000000, 0.000000000000000000 ) ;
#216 = ORIENTED_EDGE ( 'NONE', *, *, #42, .T. ) ;
#217 =( GEOMETRIC_REPRESENTATION_CONTEXT ( 3 ) GLOBAL_UNCERTAINTY_ASSIGNED_CONTEXT ( ( #80 ) ) GLOBAL_UNIT_ASSIGNED_CONTEXT ( ( #93, #214, #78 ) ) REPRESENTATION_CONTEXT ( 'NONE', 'WORKASPACE' ) );
#218 =( LENGTH_UNIT ( ) NAMED_UNIT ( * ) SI_UNIT ( $, .METRE. ) );
#219 = PRODUCT_RELATED_PRODUCT_CATEGORY ( 'part', '', ( #4 ) ) ;
#220 = DIRECTION ( 'NONE',  ( -1.000000000000000000, 0.000000000000000000, 0.000000000000000000 ) ) ;
#221 = PRESENTATION_LAYER_ASSIGNMENT (  '', '', ( #202 ) ) ;
#222 = DIMENSIONAL_EXPONENTS ( 1.000000000000000000, 0.000000000000000000, 0.000000000000000000, 0.000000000000000000, 0.000000000000000000, 0.000000000000000000, 0.000000000000000000 ) ;
#223 =( NAMED_UNIT ( * ) SI_UNIT ( $, .STERADIAN. ) SOLID_ANGLE_UNIT ( ) );
#224 = DIRECTION ( 'NONE',  ( -1.817546406756199756E-18, -1.000000000000000000, -0.000000000000000000 ) ) ;
#225 = FACE_OUTER_BOUND ( 'NONE', #150, .T. ) ;
#226 = DIRECTION ( 'NONE',  ( -1.252875704100928464E-16, 1.000000000000000000, -0.000000000000000000 ) ) ;
#227 = CYLINDRICAL_SURFACE ( 'NONE', #83, 0.2499999999999998612 ) ;
#228 =( CONVERSION_BASED_UNIT ( 'INCH', #148 ) LENGTH_UNIT ( ) NAMED_UNIT ( #140 ) );
#229 = CARTESIAN_POINT ( 'NONE',  ( -0.2499999999999994449, 0.4330127018922179105, 0.000000000000000000 ) ) ;
#230 = ORIENTED_EDGE ( 'NONE', *, *, #8, .T. ) ;
#231 = CARTESIAN_POINT ( 'NONE',  ( 0.000000000000000000, 0.000000000000000000, 0.000000000000000000 ) ) ;
#232 = ADVANCED_FACE ( 'NONE', ( #86 ), #250, .F. ) ;
#233 = CLOSED_SHELL ( 'NONE', ( #212, #146, #136 ) ) ;
#234 = APPLICATION_CONTEXT ( 'automotive_design' ) ;
#235 = AXIS2_PLACEMENT_3D ( 'NONE', #166, #125, #165 ) ;
#236 = CARTESIAN_POINT ( 'NONE',  ( 0.2499999999999999722, 0.4330127018922180770, 3.061616997868382402E-17 ) ) ;
#237 = PLANE ( 'NONE',  #184 ) ;
#238 =( GEOMETRIC_REPRESENTATION_CONTEXT ( 3 ) GLOBAL_UNCERTAINTY_ASSIGNED_CONTEXT ( ( #25 ) ) GLOBAL_UNIT_ASSIGNED_CONTEXT ( ( #105, #19, #223 ) ) REPRESENTATION_CONTEXT ( 'NONE', 'WORKASPACE' ) );
#239 = DIRECTION ( 'NONE',  ( -1.252875704100928464E-16, 1.000000000000000000, 0.000000000000000000 ) ) ;
#240 = ADVANCED_FACE ( 'NONE', ( #145 ), #227, .T. ) ;
#241 =( NAMED_UNIT ( * ) SI_UNIT ( $, .STERADIAN. ) SOLID_ANGLE_UNIT ( ) );
#242 = DIMENSIONAL_EXPONENTS ( 1.000000000000000000, 0.000000000000000000, 0.000000000000000000, 0.000000000000000000, 0.000000000000000000, 0.000000000000000000, 0.000000000000000000 ) ;
#243 = FILL_AREA_STYLE ('',( #198 ) ) ;
#244 = EDGE_CURVE ( 'NONE', #258, #264, #121, .T. ) ;
#245 = CARTESIAN_POINT ( 'NONE',  ( 7.870206804039943619E-19, 0.4330127018922180770, 0.000000000000000000 ) ) ;
#246 = CIRCLE ( 'NONE', #176, 0.2500000000000000555 ) ;
#247 = PRESENTATION_STYLE_ASSIGNMENT (( #179 ) ) ;
#248 = PRESENTATION_STYLE_ASSIGNMENT (( #43 ) ) ;
#249 = DIRECTION ( 'NONE',  ( -1.000000000000000000, 0.000000000000000000, 0.000000000000000000 ) ) ;
#250 = PLANE ( 'NONE',  #205 ) ;
#251 =( NAMED_UNIT ( * ) SI_UNIT ( $, .STERADIAN. ) SOLID_ANGLE_UNIT ( ) );
#252 = MANIFOLD_SOLID_BREP ( 'Revolve - Tool Body (Pointed)', #50 ) ;
#253 = SURFACE_SIDE_STYLE ('',( #181 ) ) ;
#254 = AXIS2_PLACEMENT_3D ( 'NONE', #117, #102, #197 ) ;
#255 = APPLICATION_PROTOCOL_DEFINITION ( 'draft international standard', 'automotive_design', 1998, #234 ) ;
#256 = MANIFOLD_SOLID_BREP ( 'Revolve - Cutting Edge', #233 ) ;
#257 = CARTESIAN_POINT ( 'NONE',  ( 0.2499999999999999722, 3.000000000000000444, 3.061616997868383018E-17 ) ) ;
#258 = VERTEX_POINT ( 'NONE', #229 ) ;
#259 = VERTEX_POINT ( 'NONE', #257 ) ;
#260 = CIRCLE ( 'NONE', #204, 0.2499999999999999722 ) ;
#261 =( CONVERSION_BASED_UNIT ( 'INCH', #53 ) LENGTH_UNIT ( ) NAMED_UNIT ( #160 ) );
#262 = ORIENTED_EDGE ( 'NONE', *, *, #116, .F. ) ;
#263 = SURFACE_STYLE_USAGE ( .BOTH. , #155 ) ;
#264 = VERTEX_POINT ( 'NONE', #89 ) ;
#265 = SURFACE_STYLE_USAGE ( .BOTH. , #175 ) ;
ENDSEC;
END-ISO-10303-21;
