ISO-10303-21;
HEADER;
FILE_DESCRIPTION (( 'STEP AP214' ),
    '1' );
FILE_NAME ('Micro_RNC-250-1.STEP',
    '2021-09-03T17:34:50',
    ( '' ),
    ( '' ),
    'SwSTEP 2.0',
    'SolidWorks 2020',
    '' );
FILE_SCHEMA (( 'AUTOMOTIVE_DESIGN' ));
ENDSEC;

DATA;
#1 = DIRECTION ( 'NONE',  ( -0.0000000000000000000, -0.0000000000000000000, -1.000000000000000000 ) ) ;
#2 = FILL_AREA_STYLE_COLOUR ( '', #69 ) ;
#3 = EDGE_CURVE ( 'NONE', #199, #243, #249, .T. ) ;
#4 = VECTOR ( 'NONE', #52, 39.37007874015748143 ) ;
#5 = CIRCLE ( 'NONE', #91, 0.1100000000000001948 ) ;
#6 = FACE_OUTER_BOUND ( 'NONE', #66, .T. ) ;
#7 = ORIENTED_EDGE ( 'NONE', *, *, #144, .T. ) ;
#8 = ADVANCED_BREP_SHAPE_REPRESENTATION ( 'Micro_RNC-250-1', ( #176, #171 ), #125 ) ;
#9 = EDGE_LOOP ( 'NONE', ( #146, #99, #22, #135 ) ) ;
#10 = AXIS2_PLACEMENT_3D ( 'NONE', #113, #175, #214 ) ;
#11 = CARTESIAN_POINT ( 'NONE',  ( -0.004000000000000000083, 7.898971854500427644E-18, 0.0000000000000000000 ) ) ;
#12 = VERTEX_POINT ( 'NONE', #30 ) ;
#13 = UNCERTAINTY_MEASURE_WITH_UNIT (LENGTH_MEASURE( 1.000000000000000082E-05 ), #77, 'distance_accuracy_value', 'NONE');
#14 = ORIENTED_EDGE ( 'NONE', *, *, #173, .T. ) ;
#15 = EDGE_CURVE ( 'NONE', #114, #25, #227, .T. ) ;
#16 = LINE ( 'NONE', #84, #4 ) ;
#17 = DIRECTION ( 'NONE',  ( 0.0000000000000000000, 0.0000000000000000000, 1.000000000000000000 ) ) ;
#18 = CARTESIAN_POINT ( 'NONE',  ( -0.1100000000000001948, 0.0000000000000000000, 2.500000000000000000 ) ) ;
#19 = CARTESIAN_POINT ( 'NONE',  ( 0.1100000000000001948, 1.438959988998141146E-17, 2.500000000000000000 ) ) ;
#20 =( GEOMETRIC_REPRESENTATION_CONTEXT ( 3 ) GLOBAL_UNCERTAINTY_ASSIGNED_CONTEXT ( ( #143 ) ) GLOBAL_UNIT_ASSIGNED_CONTEXT ( ( #80, #220, #239 ) ) REPRESENTATION_CONTEXT ( 'NONE', 'WORKASPACE' ) );
#21 = DIRECTION ( 'NONE',  ( -0.0000000000000000000, -0.0000000000000000000, -1.000000000000000000 ) ) ;
#22 = ORIENTED_EDGE ( 'NONE', *, *, #180, .T. ) ;
#23 = DIRECTION ( 'NONE',  ( 0.0000000000000000000, 0.0000000000000000000, -1.000000000000000000 ) ) ;
#24 = VECTOR ( 'NONE', #117, 39.37007874015748143 ) ;
#25 = VERTEX_POINT ( 'NONE', #219 ) ;
#26 = DIRECTION ( 'NONE',  ( 0.7071067811865487940, 0.0000000000000000000, 0.7071067811865462405 ) ) ;
#27 = AXIS2_PLACEMENT_3D ( 'NONE', #29, #51, #104 ) ;
#28 = ORIENTED_EDGE ( 'NONE', *, *, #15, .T. ) ;
#29 = CARTESIAN_POINT ( 'NONE',  ( 0.0000000000000000000, 0.0000000000000000000, 0.1209999999999995385 ) ) ;
#30 = CARTESIAN_POINT ( 'NONE',  ( 0.004000000000000000083, 0.0000000000000000000, 0.0000000000000000000 ) ) ;
#31 = AXIS2_PLACEMENT_3D ( 'NONE', #190, #17, #86 ) ;
#32 = SURFACE_STYLE_USAGE ( .BOTH. , #170 ) ;
#33 = FILL_AREA_STYLE ('',( #2 ) ) ;
#34 =( NAMED_UNIT ( * ) PLANE_ANGLE_UNIT ( ) SI_UNIT ( $, .RADIAN. ) );
#35 = DIRECTION ( 'NONE',  ( -1.000000000000000000, 0.0000000000000000000, 0.0000000000000000000 ) ) ;
#36 = CARTESIAN_POINT ( 'NONE',  ( -0.1250000000000000000, 0.0000000000000000000, 2.500000000000000000 ) ) ;
#37 = DIMENSIONAL_EXPONENTS ( 1.000000000000000000, 0.0000000000000000000, 0.0000000000000000000, 0.0000000000000000000, 0.0000000000000000000, 0.0000000000000000000, 0.0000000000000000000 ) ;
#38 = LENGTH_MEASURE_WITH_UNIT ( LENGTH_MEASURE( 0.02539999999999999897 ), #181 );
#39 = SURFACE_SIDE_STYLE ('',( #216 ) ) ;
#40 = EDGE_LOOP ( 'NONE', ( #156, #73, #165, #81 ) ) ;
#41 = AXIS2_PLACEMENT_3D ( 'NONE', #71, #151, #90 ) ;
#42 = EDGE_LOOP ( 'NONE', ( #205, #28, #179, #244 ) ) ;
#43 = DIRECTION ( 'NONE',  ( 1.000000000000000000, 0.0000000000000000000, -0.0000000000000000000 ) ) ;
#44 = SURFACE_STYLE_USAGE ( .BOTH. , #39 ) ;
#45 = PRODUCT_DEFINITION_CONTEXT ( 'detailed design', #101, 'design' ) ;
#46 = CARTESIAN_POINT ( 'NONE',  ( 0.004000000000000000083, 0.0000000000000000000, 0.0000000000000000000 ) ) ;
#47 = APPLICATION_PROTOCOL_DEFINITION ( 'draft international standard', 'automotive_design', 1998, #89 ) ;
#48 = STYLED_ITEM ( 'NONE', ( #130 ), #176 ) ;
#49 = ADVANCED_FACE ( 'NONE', ( #188 ), #65, .T. ) ;
#50 = DIRECTION ( 'NONE',  ( 0.0000000000000000000, 0.0000000000000000000, 1.000000000000000000 ) ) ;
#51 = DIRECTION ( 'NONE',  ( -0.0000000000000000000, -0.0000000000000000000, -1.000000000000000000 ) ) ;
#52 = DIRECTION ( 'NONE',  ( 0.7071067811865499042, 8.659560562354961208E-17, -0.7071067811865451302 ) ) ;
#53 = EDGE_CURVE ( 'NONE', #25, #201, #138, .T. ) ;
#54 = CONICAL_SURFACE ( 'NONE', #230, 0.1100000000000001948, 0.7853981633974517207 ) ;
#55 = DIRECTION ( 'NONE',  ( 1.000000000000000000, 0.0000000000000000000, 0.0000000000000000000 ) ) ;
#56 = PRODUCT_RELATED_PRODUCT_CATEGORY ( 'part', '', ( #63 ) ) ;
#57 = CARTESIAN_POINT ( 'NONE',  ( 0.0000000000000000000, 0.0000000000000000000, 2.500000000000000000 ) ) ;
#58 = DIRECTION ( 'NONE',  ( 0.0000000000000000000, 0.0000000000000000000, -1.000000000000000000 ) ) ;
#59 = DIRECTION ( 'NONE',  ( 0.0000000000000000000, 0.0000000000000000000, 1.000000000000000000 ) ) ;
#60 = ORIENTED_EDGE ( 'NONE', *, *, #234, .F. ) ;
#61 = EDGE_CURVE ( 'NONE', #243, #199, #68, .T. ) ;
#62 = CYLINDRICAL_SURFACE ( 'NONE', #131, 0.1250000000000000000 ) ;
#63 = PRODUCT ( 'Micro_RNC-250-1', 'Micro_RNC-250-1', '', ( #96 ) ) ;
#64 = FILL_AREA_STYLE_COLOUR ( '', #129 ) ;
#65 = PLANE ( 'NONE',  #94 ) ;
#66 = EDGE_LOOP ( 'NONE', ( #78, #60, #148, #7 ) ) ;
#67 = CARTESIAN_POINT ( 'NONE',  ( -0.004000000000000000083, 4.898587196589413537E-19, 0.0000000000000000000 ) ) ;
#68 = CIRCLE ( 'NONE', #245, 0.1250000000000000000 ) ;
#69 = COLOUR_RGB ( '',0.7921568627450980005, 0.8196078431372548767, 0.9333333333333333481 ) ;
#70 = FACE_OUTER_BOUND ( 'NONE', #9, .T. ) ;
#71 = CARTESIAN_POINT ( 'NONE',  ( 0.0000000000000000000, 0.0000000000000000000, 2.500000000000000000 ) ) ;
#72 = FACE_OUTER_BOUND ( 'NONE', #97, .T. ) ;
#73 = ORIENTED_EDGE ( 'NONE', *, *, #61, .T. ) ;
#74 = AXIS2_PLACEMENT_3D ( 'NONE', #166, #121, #82 ) ;
#75 = ADVANCED_FACE ( 'NONE', ( #76 ), #62, .T. ) ;
#76 = FACE_OUTER_BOUND ( 'NONE', #194, .T. ) ;
#77 =( CONVERSION_BASED_UNIT ( 'INCH', #38 ) LENGTH_UNIT ( ) NAMED_UNIT ( #215 ) );
#78 = ORIENTED_EDGE ( 'NONE', *, *, #15, .F. ) ;
#79 =( GEOMETRIC_REPRESENTATION_CONTEXT ( 3 ) GLOBAL_UNCERTAINTY_ASSIGNED_CONTEXT ( ( #174 ) ) GLOBAL_UNIT_ASSIGNED_CONTEXT ( ( #231, #34, #229 ) ) REPRESENTATION_CONTEXT ( 'NONE', 'WORKASPACE' ) );
#80 =( CONVERSION_BASED_UNIT ( 'INCH', #93 ) LENGTH_UNIT ( ) NAMED_UNIT ( #37 ) );
#81 = ORIENTED_EDGE ( 'NONE', *, *, #144, .F. ) ;
#82 = DIRECTION ( 'NONE',  ( 1.000000000000000000, 0.0000000000000000000, 0.0000000000000000000 ) ) ;
#83 = ORIENTED_EDGE ( 'NONE', *, *, #234, .T. ) ;
#84 = CARTESIAN_POINT ( 'NONE',  ( 0.1100000000000001948, 1.347111479062090784E-17, 2.500000000000000000 ) ) ;
#85 = PRODUCT_DEFINITION ( 'UNKNOWN', '', #167, #45 ) ;
#86 = DIRECTION ( 'NONE',  ( 1.000000000000000000, 0.0000000000000000000, -0.0000000000000000000 ) ) ;
#87 = SHAPE_DEFINITION_REPRESENTATION ( #210, #8 ) ;
#88 = FACE_OUTER_BOUND ( 'NONE', #42, .T. ) ;
#89 = APPLICATION_CONTEXT ( 'automotive_design' ) ;
#90 = DIRECTION ( 'NONE',  ( 1.000000000000000000, 0.0000000000000000000, 0.0000000000000000000 ) ) ;
#91 = AXIS2_PLACEMENT_3D ( 'NONE', #242, #224, #55 ) ;
#92 = LINE ( 'NONE', #36, #120 ) ;
#93 = LENGTH_MEASURE_WITH_UNIT ( LENGTH_MEASURE( 0.02539999999999999897 ), #182 );
#94 = AXIS2_PLACEMENT_3D ( 'NONE', #100, #50, #43 ) ;
#95 = EDGE_CURVE ( 'NONE', #243, #201, #237, .T. ) ;
#96 = PRODUCT_CONTEXT ( 'NONE', #89, 'mechanical' ) ;
#97 = EDGE_LOOP ( 'NONE', ( #204, #178, #186, #119 ) ) ;
#98 = DIRECTION ( 'NONE',  ( -1.000000000000000000, 0.0000000000000000000, 0.0000000000000000000 ) ) ;
#99 = ORIENTED_EDGE ( 'NONE', *, *, #123, .F. ) ;
#100 = CARTESIAN_POINT ( 'NONE',  ( 0.0000000000000000000, 0.0000000000000000000, 2.500000000000000000 ) ) ;
#101 = APPLICATION_CONTEXT ( 'automotive_design' ) ;
#102 = DIRECTION ( 'NONE',  ( -1.000000000000000000, 0.0000000000000000000, 0.0000000000000000000 ) ) ;
#103 = APPLICATION_PROTOCOL_DEFINITION ( 'draft international standard', 'automotive_design', 1998, #101 ) ;
#104 = DIRECTION ( 'NONE',  ( -1.000000000000000000, 0.0000000000000000000, 0.0000000000000000000 ) ) ;
#105 = EDGE_CURVE ( 'NONE', #12, #201, #145, .T. ) ;
#106 = DIRECTION ( 'NONE',  ( -0.7071067811865487940, 8.659560562354948882E-17, 0.7071067811865462405 ) ) ;
#107 = PLANE ( 'NONE',  #31 ) ;
#108 = FACE_OUTER_BOUND ( 'NONE', #40, .T. ) ;
#109 = LINE ( 'NONE', #18, #207 ) ;
#110 = CARTESIAN_POINT ( 'NONE',  ( -0.1250000000000000000, 0.0000000000000000000, 2.485000000000000320 ) ) ;
#111 = CARTESIAN_POINT ( 'NONE',  ( 0.0000000000000000000, 0.0000000000000000000, 2.500000000000000000 ) ) ;
#112 = CARTESIAN_POINT ( 'NONE',  ( 0.0000000000000000000, 0.0000000000000000000, 0.0000000000000000000 ) ) ;
#113 = CARTESIAN_POINT ( 'NONE',  ( 0.0000000000000000000, 0.0000000000000000000, 0.0000000000000000000 ) ) ;
#114 = VERTEX_POINT ( 'NONE', #11 ) ;
#115 = CIRCLE ( 'NONE', #116, 0.1250000000000000000 ) ;
#116 = AXIS2_PLACEMENT_3D ( 'NONE', #168, #21, #127 ) ;
#117 = DIRECTION ( 'NONE',  ( -0.0000000000000000000, -0.0000000000000000000, -1.000000000000000000 ) ) ;
#118 = CARTESIAN_POINT ( 'NONE',  ( 0.0000000000000000000, 0.0000000000000000000, 2.485000000000000320 ) ) ;
#119 = ORIENTED_EDGE ( 'NONE', *, *, #180, .F. ) ;
#120 = VECTOR ( 'NONE', #246, 39.37007874015748143 ) ;
#121 = DIRECTION ( 'NONE',  ( 0.0000000000000000000, 0.0000000000000000000, -1.000000000000000000 ) ) ;
#122 = VERTEX_POINT ( 'NONE', #164 ) ;
#123 = EDGE_CURVE ( 'NONE', #122, #158, #5, .T. ) ;
#124 = DIRECTION ( 'NONE',  ( -0.0000000000000000000, -0.0000000000000000000, -1.000000000000000000 ) ) ;
#125 =( GEOMETRIC_REPRESENTATION_CONTEXT ( 3 ) GLOBAL_UNCERTAINTY_ASSIGNED_CONTEXT ( ( #13 ) ) GLOBAL_UNIT_ASSIGNED_CONTEXT ( ( #77, #157, #196 ) ) REPRESENTATION_CONTEXT ( 'NONE', 'WORKASPACE' ) );
#126 = VECTOR ( 'NONE', #106, 39.37007874015748143 ) ;
#127 = DIRECTION ( 'NONE',  ( -1.000000000000000000, 0.0000000000000000000, 0.0000000000000000000 ) ) ;
#128 = DIRECTION ( 'NONE',  ( -0.7071067811865499042, 0.0000000000000000000, -0.7071067811865451302 ) ) ;
#129 = COLOUR_RGB ( '',0.7921568627450980005, 0.8196078431372548767, 0.9333333333333333481 ) ;
#130 = PRESENTATION_STYLE_ASSIGNMENT (( #32 ) ) ;
#131 = AXIS2_PLACEMENT_3D ( 'NONE', #160, #200, #102 ) ;
#132 = EDGE_CURVE ( 'NONE', #199, #25, #92, .T. ) ;
#133 = CARTESIAN_POINT ( 'NONE',  ( 0.0000000000000000000, 0.0000000000000000000, 2.500000000000000000 ) ) ;
#134 = ADVANCED_FACE ( 'NONE', ( #88 ), #155, .T. ) ;
#135 = ORIENTED_EDGE ( 'NONE', *, *, #61, .F. ) ;
#136 = DIRECTION ( 'NONE',  ( 1.000000000000000000, 0.0000000000000000000, 0.0000000000000000000 ) ) ;
#137 = FILL_AREA_STYLE ('',( #64 ) ) ;
#138 = CIRCLE ( 'NONE', #27, 0.1250000000000000000 ) ;
#139 = ORIENTED_EDGE ( 'NONE', *, *, #132, .F. ) ;
#140 = CONICAL_SURFACE ( 'NONE', #10, 0.004000000000000000083, 0.7853981633974501664 ) ;
#141 = CARTESIAN_POINT ( 'NONE',  ( 0.1250000000000000000, 1.530808498934191509E-17, 2.500000000000000000 ) ) ;
#142 = AXIS2_PLACEMENT_3D ( 'NONE', #153, #232, #193 ) ;
#143 = UNCERTAINTY_MEASURE_WITH_UNIT (LENGTH_MEASURE( 1.000000000000000082E-05 ), #80, 'distance_accuracy_value', 'NONE');
#144 = EDGE_CURVE ( 'NONE', #201, #25, #115, .T. ) ;
#145 = LINE ( 'NONE', #46, #202 ) ;
#146 = ORIENTED_EDGE ( 'NONE', *, *, #212, .F. ) ;
#147 = DIRECTION ( 'NONE',  ( 1.000000000000000000, 0.0000000000000000000, 0.0000000000000000000 ) ) ;
#148 = ORIENTED_EDGE ( 'NONE', *, *, #105, .T. ) ;
#149 = DIRECTION ( 'NONE',  ( -1.000000000000000000, 0.0000000000000000000, 0.0000000000000000000 ) ) ;
#150 = LENGTH_MEASURE_WITH_UNIT ( LENGTH_MEASURE( 0.02539999999999999897 ), #191 );
#151 = DIRECTION ( 'NONE',  ( 0.0000000000000000000, 0.0000000000000000000, 1.000000000000000000 ) ) ;
#152 = EDGE_CURVE ( 'NONE', #114, #12, #203, .T. ) ;
#153 = CARTESIAN_POINT ( 'NONE',  ( 0.0000000000000000000, 0.0000000000000000000, 0.0000000000000000000 ) ) ;
#154 = AXIS2_PLACEMENT_3D ( 'NONE', #111, #1, #35 ) ;
#155 = CONICAL_SURFACE ( 'NONE', #142, 0.004000000000000000083, 0.7853981633974501664 ) ;
#156 = ORIENTED_EDGE ( 'NONE', *, *, #95, .F. ) ;
#157 =( NAMED_UNIT ( * ) PLANE_ANGLE_UNIT ( ) SI_UNIT ( $, .RADIAN. ) );
#158 = VERTEX_POINT ( 'NONE', #19 ) ;
#159 = CIRCLE ( 'NONE', #41, 0.1100000000000001948 ) ;
#160 = CARTESIAN_POINT ( 'NONE',  ( 0.0000000000000000000, 0.0000000000000000000, 2.500000000000000000 ) ) ;
#161 = DIRECTION ( 'NONE',  ( -1.000000000000000000, 0.0000000000000000000, 0.0000000000000000000 ) ) ;
#162 = STYLED_ITEM ( 'NONE', ( #223 ), #8 ) ;
#163 = ORIENTED_EDGE ( 'NONE', *, *, #152, .T. ) ;
#164 = CARTESIAN_POINT ( 'NONE',  ( -0.1100000000000001948, 0.0000000000000000000, 2.500000000000000000 ) ) ;
#165 = ORIENTED_EDGE ( 'NONE', *, *, #132, .T. ) ;
#166 = CARTESIAN_POINT ( 'NONE',  ( 0.0000000000000000000, 0.0000000000000000000, 2.485000000000000320 ) ) ;
#167 = PRODUCT_DEFINITION_FORMATION_WITH_SPECIFIED_SOURCE ( 'ANY', '', #63, .NOT_KNOWN. ) ;
#168 = CARTESIAN_POINT ( 'NONE',  ( 0.0000000000000000000, 0.0000000000000000000, 0.1209999999999995385 ) ) ;
#169 = ADVANCED_FACE ( 'NONE', ( #70 ), #240, .T. ) ;
#170 = SURFACE_SIDE_STYLE ('',( #172 ) ) ;
#171 = AXIS2_PLACEMENT_3D ( 'NONE', #235, #59, #136 ) ;
#172 = SURFACE_STYLE_FILL_AREA ( #33 ) ;
#173 = EDGE_CURVE ( 'NONE', #158, #122, #159, .T. ) ;
#174 = UNCERTAINTY_MEASURE_WITH_UNIT (LENGTH_MEASURE( 1.000000000000000082E-05 ), #231, 'distance_accuracy_value', 'NONE');
#175 = DIRECTION ( 'NONE',  ( 0.0000000000000000000, 0.0000000000000000000, 1.000000000000000000 ) ) ;
#176 = MANIFOLD_SOLID_BREP ( 'Cut-Revolve1', #208 ) ;
#177 = DIRECTION ( 'NONE',  ( -0.0000000000000000000, -0.0000000000000000000, -1.000000000000000000 ) ) ;
#178 = ORIENTED_EDGE ( 'NONE', *, *, #212, .T. ) ;
#179 = ORIENTED_EDGE ( 'NONE', *, *, #53, .T. ) ;
#180 = EDGE_CURVE ( 'NONE', #122, #199, #109, .T. ) ;
#181 =( LENGTH_UNIT ( ) NAMED_UNIT ( * ) SI_UNIT ( $, .METRE. ) );
#182 =( LENGTH_UNIT ( ) NAMED_UNIT ( * ) SI_UNIT ( $, .METRE. ) );
#183 = PRESENTATION_LAYER_ASSIGNMENT (  '', '', ( #162 ) ) ;
#184 = ORIENTED_EDGE ( 'NONE', *, *, #123, .T. ) ;
#185 = ORIENTED_EDGE ( 'NONE', *, *, #3, .T. ) ;
#186 = ORIENTED_EDGE ( 'NONE', *, *, #3, .F. ) ;
#187 = PRESENTATION_LAYER_ASSIGNMENT (  '', '', ( #48 ) ) ;
#188 = FACE_OUTER_BOUND ( 'NONE', #217, .T. ) ;
#189 = CIRCLE ( 'NONE', #195, 0.004000000000000000083 ) ;
#190 = CARTESIAN_POINT ( 'NONE',  ( 0.0000000000000000000, 0.0000000000000000000, 0.0000000000000000000 ) ) ;
#191 =( LENGTH_UNIT ( ) NAMED_UNIT ( * ) SI_UNIT ( $, .METRE. ) );
#192 = CARTESIAN_POINT ( 'NONE',  ( 0.0000000000000000000, 0.0000000000000000000, 0.0000000000000000000 ) ) ;
#193 = DIRECTION ( 'NONE',  ( 1.000000000000000000, 0.0000000000000000000, 0.0000000000000000000 ) ) ;
#194 = EDGE_LOOP ( 'NONE', ( #185, #236, #222, #139 ) ) ;
#195 = AXIS2_PLACEMENT_3D ( 'NONE', #112, #177, #161 ) ;
#196 =( NAMED_UNIT ( * ) SI_UNIT ( $, .STERADIAN. ) SOLID_ANGLE_UNIT ( ) );
#197 = CARTESIAN_POINT ( 'NONE',  ( 0.1250000000000000000, 1.530808498934191509E-17, 2.485000000000000320 ) ) ;
#198 = ADVANCED_FACE ( 'NONE', ( #108 ), #209, .T. ) ;
#199 = VERTEX_POINT ( 'NONE', #110 ) ;
#200 = DIRECTION ( 'NONE',  ( -0.0000000000000000000, -0.0000000000000000000, -1.000000000000000000 ) ) ;
#201 = VERTEX_POINT ( 'NONE', #211 ) ;
#202 = VECTOR ( 'NONE', #26, 39.37007874015748143 ) ;
#203 = CIRCLE ( 'NONE', #241, 0.004000000000000000083 ) ;
#204 = ORIENTED_EDGE ( 'NONE', *, *, #173, .F. ) ;
#205 = ORIENTED_EDGE ( 'NONE', *, *, #152, .F. ) ;
#206 = FACE_OUTER_BOUND ( 'NONE', #225, .T. ) ;
#207 = VECTOR ( 'NONE', #128, 39.37007874015748143 ) ;
#208 = CLOSED_SHELL ( 'NONE', ( #134, #248, #75, #198, #49, #169, #228, #226 ) ) ;
#209 = CYLINDRICAL_SURFACE ( 'NONE', #154, 0.1250000000000000000 ) ;
#210 = PRODUCT_DEFINITION_SHAPE ( 'NONE', 'NONE',  #85 ) ;
#211 = CARTESIAN_POINT ( 'NONE',  ( 0.1250000000000000000, 1.530808498934191509E-17, 0.1209999999999995385 ) ) ;
#212 = EDGE_CURVE ( 'NONE', #158, #243, #16, .T. ) ;
#213 = DIMENSIONAL_EXPONENTS ( 1.000000000000000000, 0.0000000000000000000, 0.0000000000000000000, 0.0000000000000000000, 0.0000000000000000000, 0.0000000000000000000, 0.0000000000000000000 ) ;
#214 = DIRECTION ( 'NONE',  ( 1.000000000000000000, 0.0000000000000000000, 0.0000000000000000000 ) ) ;
#215 = DIMENSIONAL_EXPONENTS ( 1.000000000000000000, 0.0000000000000000000, 0.0000000000000000000, 0.0000000000000000000, 0.0000000000000000000, 0.0000000000000000000, 0.0000000000000000000 ) ;
#216 = SURFACE_STYLE_FILL_AREA ( #137 ) ;
#217 = EDGE_LOOP ( 'NONE', ( #184, #14 ) ) ;
#218 = MECHANICAL_DESIGN_GEOMETRIC_PRESENTATION_REPRESENTATION (  '', ( #48 ), #79 ) ;
#219 = CARTESIAN_POINT ( 'NONE',  ( -0.1250000000000000000, 0.0000000000000000000, 0.1209999999999995385 ) ) ;
#220 =( NAMED_UNIT ( * ) PLANE_ANGLE_UNIT ( ) SI_UNIT ( $, .RADIAN. ) );
#221 = AXIS2_PLACEMENT_3D ( 'NONE', #57, #58, #247 ) ;
#222 = ORIENTED_EDGE ( 'NONE', *, *, #53, .F. ) ;
#223 = PRESENTATION_STYLE_ASSIGNMENT (( #44 ) ) ;
#224 = DIRECTION ( 'NONE',  ( 0.0000000000000000000, 0.0000000000000000000, 1.000000000000000000 ) ) ;
#225 = EDGE_LOOP ( 'NONE', ( #83, #163 ) ) ;
#226 = ADVANCED_FACE ( 'NONE', ( #206 ), #107, .F. ) ;
#227 = LINE ( 'NONE', #67, #126 ) ;
#228 = ADVANCED_FACE ( 'NONE', ( #6 ), #140, .T. ) ;
#229 =( NAMED_UNIT ( * ) SI_UNIT ( $, .STERADIAN. ) SOLID_ANGLE_UNIT ( ) );
#230 = AXIS2_PLACEMENT_3D ( 'NONE', #133, #23, #98 ) ;
#231 =( CONVERSION_BASED_UNIT ( 'INCH', #150 ) LENGTH_UNIT ( ) NAMED_UNIT ( #213 ) );
#232 = DIRECTION ( 'NONE',  ( 0.0000000000000000000, 0.0000000000000000000, 1.000000000000000000 ) ) ;
#233 = MECHANICAL_DESIGN_GEOMETRIC_PRESENTATION_REPRESENTATION (  '', ( #162 ), #20 ) ;
#234 = EDGE_CURVE ( 'NONE', #12, #114, #189, .T. ) ;
#235 = CARTESIAN_POINT ( 'NONE',  ( 0.0000000000000000000, 0.0000000000000000000, 0.0000000000000000000 ) ) ;
#236 = ORIENTED_EDGE ( 'NONE', *, *, #95, .T. ) ;
#237 = LINE ( 'NONE', #141, #24 ) ;
#238 = DIRECTION ( 'NONE',  ( 0.0000000000000000000, 0.0000000000000000000, -1.000000000000000000 ) ) ;
#239 =( NAMED_UNIT ( * ) SI_UNIT ( $, .STERADIAN. ) SOLID_ANGLE_UNIT ( ) );
#240 = CONICAL_SURFACE ( 'NONE', #221, 0.1100000000000001948, 0.7853981633974517207 ) ;
#241 = AXIS2_PLACEMENT_3D ( 'NONE', #192, #124, #149 ) ;
#242 = CARTESIAN_POINT ( 'NONE',  ( 0.0000000000000000000, 0.0000000000000000000, 2.500000000000000000 ) ) ;
#243 = VERTEX_POINT ( 'NONE', #197 ) ;
#244 = ORIENTED_EDGE ( 'NONE', *, *, #105, .F. ) ;
#245 = AXIS2_PLACEMENT_3D ( 'NONE', #118, #238, #147 ) ;
#246 = DIRECTION ( 'NONE',  ( -0.0000000000000000000, -0.0000000000000000000, -1.000000000000000000 ) ) ;
#247 = DIRECTION ( 'NONE',  ( -1.000000000000000000, 0.0000000000000000000, 0.0000000000000000000 ) ) ;
#248 = ADVANCED_FACE ( 'NONE', ( #72 ), #54, .T. ) ;
#249 = CIRCLE ( 'NONE', #74, 0.1250000000000000000 ) ;
ENDSEC;
END-ISO-10303-21;
