ISO-10303-21;
HEADER;
FILE_DESCRIPTION (( 'STEP AP214' ),
    '1' );
FILE_NAME ('49061.STEP',
    '2023-06-30T21:56:37',
    ( '' ),
    ( '' ),
    'SwSTEP 2.0',
    'SolidWorks 2023',
    '' );
FILE_SCHEMA (( 'AUTOMOTIVE_DESIGN' ));
ENDSEC;

DATA;
#1 = DIRECTION ( 'NONE',  ( 0.000000000000000000, 0.000000000000000000, -1.000000000000000000 ) ) ;
#2 = COLOUR_RGB ( '',1.000000000000000000, 0.000000000000000000, 0.000000000000000000 ) ;
#3 = PRESENTATION_LAYER_ASSIGNMENT (  '', '', ( #67 ) ) ;
#4 = FILL_AREA_STYLE_COLOUR ( '', #112 ) ;
#5 = VECTOR ( 'NONE', #58, 39.37007874015748143 ) ;
#6 = LENGTH_MEASURE_WITH_UNIT ( LENGTH_MEASURE( 0.02539999999999999897 ), #292 );
#7 = FACE_OUTER_BOUND ( 'NONE', #192, .T. ) ;
#8 = CARTESIAN_POINT ( 'NONE',  ( 0.000000000000000000, 0.7500000000000001110, 0.000000000000000000 ) ) ;
#9 = AXIS2_PLACEMENT_3D ( 'NONE', #81, #254, #222 ) ;
#10 =( CONVERSION_BASED_UNIT ( 'INCH', #151 ) LENGTH_UNIT ( ) NAMED_UNIT ( #166 ) );
#11 = ORIENTED_EDGE ( 'NONE', *, *, #211, .T. ) ;
#12 = APPLICATION_CONTEXT ( 'automotive_design' ) ;
#13 = SURFACE_STYLE_USAGE ( .BOTH. , #20 ) ;
#14 = FILL_AREA_STYLE ('',( #118 ) ) ;
#15 = ORIENTED_EDGE ( 'NONE', *, *, #101, .F. ) ;
#16 = FACE_OUTER_BOUND ( 'NONE', #75, .T. ) ;
#17 = ORIENTED_EDGE ( 'NONE', *, *, #175, .T. ) ;
#18 = CIRCLE ( 'NONE', #33, 0.09374999999999998612 ) ;
#19 = COLOUR_RGB ( '',1.000000000000000000, 0.000000000000000000, 0.000000000000000000 ) ;
#20 = SURFACE_SIDE_STYLE ('',( #330 ) ) ;
#21 =( GEOMETRIC_REPRESENTATION_CONTEXT ( 3 ) GLOBAL_UNCERTAINTY_ASSIGNED_CONTEXT ( ( #66 ) ) GLOBAL_UNIT_ASSIGNED_CONTEXT ( ( #10, #95, #200 ) ) REPRESENTATION_CONTEXT ( 'NONE', 'WORKASPACE' ) );
#22 = ORIENTED_EDGE ( 'NONE', *, *, #41, .T. ) ;
#23 = SURFACE_SIDE_STYLE ('',( #131 ) ) ;
#24 = EDGE_LOOP ( 'NONE', ( #219, #11, #15, #189 ) ) ;
#25 =( LENGTH_UNIT ( ) NAMED_UNIT ( * ) SI_UNIT ( $, .METRE. ) );
#26 = ADVANCED_FACE ( 'NONE', ( #78 ), #165, .T. ) ;
#27 = AXIS2_PLACEMENT_3D ( 'NONE', #257, #309, #1 ) ;
#28 = DIRECTION ( 'NONE',  ( -1.224646799147352961E-16, 1.000000000000000000, -0.000000000000000000 ) ) ;
#29 = DIMENSIONAL_EXPONENTS ( 1.000000000000000000, 0.000000000000000000, 0.000000000000000000, 0.000000000000000000, 0.000000000000000000, 0.000000000000000000, 0.000000000000000000 ) ;
#30 = DIRECTION ( 'NONE',  ( -1.224646799147352961E-16, 1.000000000000000000, -0.000000000000000000 ) ) ;
#31 = EDGE_CURVE ( 'NONE', #183, #119, #361, .T. ) ;
#32 = CARTESIAN_POINT ( 'NONE',  ( 0.000000000000000000, 0.09375000000000004163, 0.000000000000000000 ) ) ;
#33 = AXIS2_PLACEMENT_3D ( 'NONE', #100, #127, #269 ) ;
#34 = SURFACE_STYLE_FILL_AREA ( #115 ) ;
#35 = LINE ( 'NONE', #371, #262 ) ;
#36 = MECHANICAL_DESIGN_GEOMETRIC_PRESENTATION_REPRESENTATION (  '', ( #288 ), #343 ) ;
#37 = SURFACE_STYLE_FILL_AREA ( #230 ) ;
#38 = APPLICATION_CONTEXT ( 'automotive_design' ) ;
#39 =( NAMED_UNIT ( * ) SI_UNIT ( $, .STERADIAN. ) SOLID_ANGLE_UNIT ( ) );
#40 = STYLED_ITEM ( 'NONE', ( #84 ), #261 ) ;
#41 = EDGE_CURVE ( 'NONE', #119, #183, #172, .T. ) ;
#42 = AXIS2_PLACEMENT_3D ( 'NONE', #132, #30, #170 ) ;
#43 = DIRECTION ( 'NONE',  ( 1.000000000000000000, 1.224646799147352961E-16, 0.000000000000000000 ) ) ;
#44 = FACE_OUTER_BOUND ( 'NONE', #161, .T. ) ;
#45 = AXIS2_PLACEMENT_3D ( 'NONE', #62, #250, #171 ) ;
#46 = UNCERTAINTY_MEASURE_WITH_UNIT (LENGTH_MEASURE( 1.000000000000000082E-05 ), #198, 'distance_accuracy_value', 'NONE');
#47 = ORIENTED_EDGE ( 'NONE', *, *, #86, .F. ) ;
#48 = EDGE_LOOP ( 'NONE', ( #278, #22 ) ) ;
#49 =( NAMED_UNIT ( * ) SI_UNIT ( $, .STERADIAN. ) SOLID_ANGLE_UNIT ( ) );
#50 = AXIS2_PLACEMENT_3D ( 'NONE', #327, #182, #43 ) ;
#51 = MECHANICAL_DESIGN_GEOMETRIC_PRESENTATION_REPRESENTATION (  '', ( #227 ), #358 ) ;
#52 = DIRECTION ( 'NONE',  ( -1.224646799147352961E-16, 1.000000000000000000, -0.000000000000000000 ) ) ;
#53 = ORIENTED_EDGE ( 'NONE', *, *, #157, .T. ) ;
#54 = CARTESIAN_POINT ( 'NONE',  ( 0.000000000000000000, 0.000000000000000000, 0.000000000000000000 ) ) ;
#55 = LENGTH_MEASURE_WITH_UNIT ( LENGTH_MEASURE( 0.02539999999999999897 ), #129 );
#56 = MECHANICAL_DESIGN_GEOMETRIC_PRESENTATION_REPRESENTATION (  '', ( #196 ), #275 ) ;
#57 = CIRCLE ( 'NONE', #243, 0.09374999999999998612 ) ;
#58 = DIRECTION ( 'NONE',  ( -0.000000000000000000, -1.000000000000000000, -0.000000000000000000 ) ) ;
#59 = DIRECTION ( 'NONE',  ( 1.000000000000000000, 0.000000000000000000, 0.000000000000000000 ) ) ;
#60 = DIRECTION ( 'NONE',  ( 0.000000000000000000, 0.000000000000000000, 1.000000000000000000 ) ) ;
#61 = PLANE ( 'NONE',  #173 ) ;
#62 = CARTESIAN_POINT ( 'NONE',  ( 1.530808498934191078E-16, 0.7499999999999998890, 0.000000000000000000 ) ) ;
#63 = SURFACE_STYLE_USAGE ( .BOTH. , #263 ) ;
#64 = EDGE_CURVE ( 'NONE', #155, #360, #282, .T. ) ;
#65 =( CONVERSION_BASED_UNIT ( 'INCH', #176 ) LENGTH_UNIT ( ) NAMED_UNIT ( #319 ) );
#66 = UNCERTAINTY_MEASURE_WITH_UNIT (LENGTH_MEASURE( 1.000000000000000082E-05 ), #10, 'distance_accuracy_value', 'NONE');
#67 = STYLED_ITEM ( 'NONE', ( #232 ), #265 ) ;
#68 = VECTOR ( 'NONE', #344, 39.37007874015748143 ) ;
#69 = PRESENTATION_LAYER_ASSIGNMENT (  '', '', ( #227 ) ) ;
#70 = PRODUCT_DEFINITION_CONTEXT ( 'detailed design', #38, 'design' ) ;
#71 = CARTESIAN_POINT ( 'NONE',  ( 1.530808498934191078E-16, 0.7499999999999998890, 0.000000000000000000 ) ) ;
#72 = ORIENTED_EDGE ( 'NONE', *, *, #169, .F. ) ;
#73 = LENGTH_MEASURE_WITH_UNIT ( LENGTH_MEASURE( 0.02539999999999999897 ), #120 );
#74 = ORIENTED_EDGE ( 'NONE', *, *, #144, .F. ) ;
#75 = EDGE_LOOP ( 'NONE', ( #210, #96, #72, #128, #239 ) ) ;
#76 =( LENGTH_UNIT ( ) NAMED_UNIT ( * ) SI_UNIT ( $, .METRE. ) );
#77 = VERTEX_POINT ( 'NONE', #283 ) ;
#78 = FACE_OUTER_BOUND ( 'NONE', #153, .T. ) ;
#79 = CLOSED_SHELL ( 'NONE', ( #167, #238, #226, #332 ) ) ;
#80 = AXIS2_PLACEMENT_3D ( 'NONE', #320, #289, #178 ) ;
#81 = CARTESIAN_POINT ( 'NONE',  ( -1.148106374200644017E-17, 0.09375000000000002776, 0.000000000000000000 ) ) ;
#82 = SURFACE_STYLE_USAGE ( .BOTH. , #23 ) ;
#83 = CARTESIAN_POINT ( 'NONE',  ( 0.000000000000000000, 0.7500000000000001110, 0.000000000000000000 ) ) ;
#84 = PRESENTATION_STYLE_ASSIGNMENT (( #82 ) ) ;
#85 =( NAMED_UNIT ( * ) SI_UNIT ( $, .STERADIAN. ) SOLID_ANGLE_UNIT ( ) );
#86 = EDGE_CURVE ( 'NONE', #363, #271, #147, .T. ) ;
#87 = DIRECTION ( 'NONE',  ( -0.000000000000000000, -1.000000000000000000, -0.000000000000000000 ) ) ;
#88 = SURFACE_SIDE_STYLE ('',( #181 ) ) ;
#89 = SURFACE_SIDE_STYLE ('',( #37 ) ) ;
#90 = EDGE_CURVE ( 'NONE', #360, #303, #185, .T. ) ;
#91 = EDGE_CURVE ( 'NONE', #363, #183, #109, .T. ) ;
#92 = DIRECTION ( 'NONE',  ( -0.000000000000000000, -1.000000000000000000, -0.000000000000000000 ) ) ;
#93 = PRODUCT_DEFINITION_FORMATION_WITH_SPECIFIED_SOURCE ( 'ANY', '', #315, .NOT_KNOWN. ) ;
#94 = EDGE_LOOP ( 'NONE', ( #276, #17, #300, #336 ) ) ;
#95 =( NAMED_UNIT ( * ) PLANE_ANGLE_UNIT ( ) SI_UNIT ( $, .RADIAN. ) );
#96 = ORIENTED_EDGE ( 'NONE', *, *, #144, .T. ) ;
#97 = EDGE_CURVE ( 'NONE', #77, #360, #57, .T. ) ;
#98 =( GEOMETRIC_REPRESENTATION_CONTEXT ( 3 ) GLOBAL_UNCERTAINTY_ASSIGNED_CONTEXT ( ( #46 ) ) GLOBAL_UNIT_ASSIGNED_CONTEXT ( ( #198, #201, #314 ) ) REPRESENTATION_CONTEXT ( 'NONE', 'WORKASPACE' ) );
#99 = ORIENTED_EDGE ( 'NONE', *, *, #64, .T. ) ;
#100 = CARTESIAN_POINT ( 'NONE',  ( 0.000000000000000000, 0.09375000000000004163, 0.000000000000000000 ) ) ;
#101 = EDGE_CURVE ( 'NONE', #303, #121, #367, .T. ) ;
#102 = CARTESIAN_POINT ( 'NONE',  ( 1.148106374200643555E-17, 0.09375000000000004163, 0.09374999999999998612 ) ) ;
#103 = ORIENTED_EDGE ( 'NONE', *, *, #175, .F. ) ;
#104 = CARTESIAN_POINT ( 'NONE',  ( -1.148106374200644017E-17, 0.09375000000000002776, 0.000000000000000000 ) ) ;
#105 = AXIS2_PLACEMENT_3D ( 'NONE', #104, #60, #312 ) ;
#106 =( CONVERSION_BASED_UNIT ( 'INCH', #252 ) LENGTH_UNIT ( ) NAMED_UNIT ( #29 ) );
#107 = CARTESIAN_POINT ( 'NONE',  ( 0.09374999999999979183, 2.500000000000000000, 1.148106374200641860E-17 ) ) ;
#108 = APPLICATION_PROTOCOL_DEFINITION ( 'draft international standard', 'automotive_design', 1998, #38 ) ;
#109 = LINE ( 'NONE', #286, #191 ) ;
#110 = CARTESIAN_POINT ( 'NONE',  ( 1.530808498934191571E-16, 0.7500000000000001110, 0.000000000000000000 ) ) ;
#111 = DIRECTION ( 'NONE',  ( -0.000000000000000000, -1.000000000000000000, -0.000000000000000000 ) ) ;
#112 = COLOUR_RGB ( '',0.7921568627450980005, 0.8196078431372548767, 0.9333333333333333481 ) ;
#113 = STYLED_ITEM ( 'NONE', ( #137 ), #190 ) ;
#114 = CARTESIAN_POINT ( 'NONE',  ( 0.000000000000000000, 0.000000000000000000, -0.09374999999999995837 ) ) ;
#115 = FILL_AREA_STYLE ('',( #324 ) ) ;
#116 = DIRECTION ( 'NONE',  ( -0.000000000000000000, -1.000000000000000000, -0.000000000000000000 ) ) ;
#117 = EDGE_CURVE ( 'NONE', #155, #333, #180, .T. ) ;
#118 = FILL_AREA_STYLE_COLOUR ( '', #287 ) ;
#119 = VERTEX_POINT ( 'NONE', #203 ) ;
#120 =( LENGTH_UNIT ( ) NAMED_UNIT ( * ) SI_UNIT ( $, .METRE. ) );
#121 = VERTEX_POINT ( 'NONE', #138 ) ;
#122 = COLOUR_RGB ( '',0.7921568627450980005, 0.8196078431372548767, 0.9333333333333333481 ) ;
#123 = CARTESIAN_POINT ( 'NONE',  ( 0.000000000000000000, 0.000000000000000000, 0.000000000000000000 ) ) ;
#124 = STYLED_ITEM ( 'NONE', ( #366 ), #26 ) ;
#125 = ORIENTED_EDGE ( 'NONE', *, *, #91, .F. ) ;
#126 = FILL_AREA_STYLE ('',( #209 ) ) ;
#127 = DIRECTION ( 'NONE',  ( -0.000000000000000000, -1.000000000000000000, -0.000000000000000000 ) ) ;
#128 = ORIENTED_EDGE ( 'NONE', *, *, #90, .F. ) ;
#129 =( LENGTH_UNIT ( ) NAMED_UNIT ( * ) SI_UNIT ( $, .METRE. ) );
#130 = DIMENSIONAL_EXPONENTS ( 1.000000000000000000, 0.000000000000000000, 0.000000000000000000, 0.000000000000000000, 0.000000000000000000, 0.000000000000000000, 0.000000000000000000 ) ;
#131 = SURFACE_STYLE_FILL_AREA ( #277 ) ;
#132 = CARTESIAN_POINT ( 'NONE',  ( -6.123233995736766036E-17, 2.500000000000000000, 0.000000000000000000 ) ) ;
#133 = CLOSED_SHELL ( 'NONE', ( #281, #323, #290, #190, #26 ) ) ;
#134 = AXIS2_PLACEMENT_3D ( 'NONE', #83, #116, #295 ) ;
#135 = PLANE ( 'NONE',  #152 ) ;
#136 = DIRECTION ( 'NONE',  ( 0.000000000000000000, 0.000000000000000000, -1.000000000000000000 ) ) ;
#137 = PRESENTATION_STYLE_ASSIGNMENT (( #372 ) ) ;
#138 = CARTESIAN_POINT ( 'NONE',  ( -5.740531871003220085E-18, 0.000000000000000000, 0.000000000000000000 ) ) ;
#139 = DIRECTION ( 'NONE',  ( -1.000000000000000000, 0.000000000000000000, 0.000000000000000000 ) ) ;
#140 = DIRECTION ( 'NONE',  ( -0.000000000000000000, -1.000000000000000000, -0.000000000000000000 ) ) ;
#141 = PRESENTATION_LAYER_ASSIGNMENT (  '', '', ( #124 ) ) ;
#142 = PRESENTATION_STYLE_ASSIGNMENT (( #63 ) ) ;
#143 = SURFACE_STYLE_USAGE ( .BOTH. , #89 ) ;
#144 = EDGE_CURVE ( 'NONE', #333, #186, #35, .T. ) ;
#145 = FACE_OUTER_BOUND ( 'NONE', #340, .T. ) ;
#146 =( GEOMETRIC_REPRESENTATION_CONTEXT ( 3 ) GLOBAL_UNCERTAINTY_ASSIGNED_CONTEXT ( ( #294 ) ) GLOBAL_UNIT_ASSIGNED_CONTEXT ( ( #247, #197, #342 ) ) REPRESENTATION_CONTEXT ( 'NONE', 'WORKASPACE' ) );
#147 = CIRCLE ( 'NONE', #45, 0.09374999999999975020 ) ;
#148 =( NAMED_UNIT ( * ) PLANE_ANGLE_UNIT ( ) SI_UNIT ( $, .RADIAN. ) );
#149 = EDGE_CURVE ( 'NONE', #271, #119, #306, .T. ) ;
#150 = CARTESIAN_POINT ( 'NONE',  ( 1.148106374200642938E-17, 0.7500000000000001110, 0.09374999999999990286 ) ) ;
#151 = LENGTH_MEASURE_WITH_UNIT ( LENGTH_MEASURE( 0.02539999999999999897 ), #268 );
#152 = AXIS2_PLACEMENT_3D ( 'NONE', #110, #368, #228 ) ;
#153 = EDGE_LOOP ( 'NONE', ( #212, #328, #159, #302 ) ) ;
#154 = LENGTH_MEASURE_WITH_UNIT ( LENGTH_MEASURE( 0.02539999999999999897 ), #76 );
#155 = VERTEX_POINT ( 'NONE', #162 ) ;
#156 = CARTESIAN_POINT ( 'NONE',  ( 0.09374999999999998612, 0.09375000000000004163, 0.000000000000000000 ) ) ;
#157 = EDGE_CURVE ( 'NONE', #333, #155, #311, .T. ) ;
#158 = MECHANICAL_DESIGN_GEOMETRIC_PRESENTATION_REPRESENTATION (  '', ( #113 ), #258 ) ;
#159 = ORIENTED_EDGE ( 'NONE', *, *, #90, .T. ) ;
#160 = FILL_AREA_STYLE_COLOUR ( '', #122 ) ;
#161 = EDGE_LOOP ( 'NONE', ( #74, #53, #99, #365, #241 ) ) ;
#162 = CARTESIAN_POINT ( 'NONE',  ( 0.000000000000000000, 0.7500000000000001110, -0.09374999999999990286 ) ) ;
#163 = PRODUCT_CONTEXT ( 'NONE', #12, 'mechanical' ) ;
#164 = PRESENTATION_LAYER_ASSIGNMENT (  '', '', ( #196 ) ) ;
#165 = SPHERICAL_SURFACE ( 'NONE', #105, 0.09375000000000002776 ) ;
#166 = DIMENSIONAL_EXPONENTS ( 1.000000000000000000, 0.000000000000000000, 0.000000000000000000, 0.000000000000000000, 0.000000000000000000, 0.000000000000000000, 0.000000000000000000 ) ;
#167 = ADVANCED_FACE ( 'NONE', ( #7 ), #353, .T. ) ;
#168 = DIRECTION ( 'NONE',  ( -1.000000000000000000, 0.000000000000000000, 0.000000000000000000 ) ) ;
#169 = EDGE_CURVE ( 'NONE', #303, #186, #18, .T. ) ;
#170 = DIRECTION ( 'NONE',  ( -1.000000000000000000, 0.000000000000000000, 0.000000000000000000 ) ) ;
#171 = DIRECTION ( 'NONE',  ( -1.000000000000000000, 0.000000000000000000, 0.000000000000000000 ) ) ;
#172 = CIRCLE ( 'NONE', #42, 0.09374999999999997224 ) ;
#173 = AXIS2_PLACEMENT_3D ( 'NONE', #8, #188, #273 ) ;
#174 = FILL_AREA_STYLE_COLOUR ( '', #2 ) ;
#175 = EDGE_CURVE ( 'NONE', #271, #363, #220, .T. ) ;
#176 = LENGTH_MEASURE_WITH_UNIT ( LENGTH_MEASURE( 0.02539999999999999897 ), #291 );
#177 = UNCERTAINTY_MEASURE_WITH_UNIT (LENGTH_MEASURE( 1.000000000000000082E-05 ), #359, 'distance_accuracy_value', 'NONE');
#178 = DIRECTION ( 'NONE',  ( 1.000000000000000000, 0.000000000000000000, 0.000000000000000000 ) ) ;
#179 = AXIS2_PLACEMENT_3D ( 'NONE', #370, #52, #139 ) ;
#180 = CIRCLE ( 'NONE', #27, 0.09374999999999990286 ) ;
#181 = SURFACE_STYLE_FILL_AREA ( #352 ) ;
#182 = DIRECTION ( 'NONE',  ( 1.224646799147352961E-16, -1.000000000000000000, 0.000000000000000000 ) ) ;
#183 = VERTEX_POINT ( 'NONE', #364 ) ;
#184 =( CONVERSION_BASED_UNIT ( 'INCH', #154 ) LENGTH_UNIT ( ) NAMED_UNIT ( #308 ) );
#185 = CIRCLE ( 'NONE', #199, 0.09374999999999998612 ) ;
#186 = VERTEX_POINT ( 'NONE', #102 ) ;
#187 = ORIENTED_EDGE ( 'NONE', *, *, #86, .T. ) ;
#188 = DIRECTION ( 'NONE',  ( 0.000000000000000000, 1.000000000000000000, 0.000000000000000000 ) ) ;
#189 = ORIENTED_EDGE ( 'NONE', *, *, #169, .T. ) ;
#190 = ADVANCED_FACE ( 'NONE', ( #44 ), #339, .T. ) ;
#191 = VECTOR ( 'NONE', #28, 39.37007874015748143 ) ;
#192 = EDGE_LOOP ( 'NONE', ( #187, #338, #270, #125 ) ) ;
#193 = DIRECTION ( 'NONE',  ( 0.000000000000000000, 0.000000000000000000, -1.000000000000000000 ) ) ;
#194 = DIRECTION ( 'NONE',  ( 0.000000000000000000, 0.000000000000000000, -1.000000000000000000 ) ) ;
#195 = DIRECTION ( 'NONE',  ( 0.000000000000000000, 0.000000000000000000, -1.000000000000000000 ) ) ;
#196 = STYLED_ITEM ( 'NONE', ( #142 ), #281 ) ;
#197 =( NAMED_UNIT ( * ) PLANE_ANGLE_UNIT ( ) SI_UNIT ( $, .RADIAN. ) );
#198 =( CONVERSION_BASED_UNIT ( 'INCH', #346 ) LENGTH_UNIT ( ) NAMED_UNIT ( #259 ) );
#199 = AXIS2_PLACEMENT_3D ( 'NONE', #32, #140, #195 ) ;
#200 =( NAMED_UNIT ( * ) SI_UNIT ( $, .STERADIAN. ) SOLID_ANGLE_UNIT ( ) );
#201 =( NAMED_UNIT ( * ) PLANE_ANGLE_UNIT ( ) SI_UNIT ( $, .RADIAN. ) );
#202 =( CONVERSION_BASED_UNIT ( 'INCH', #6 ) LENGTH_UNIT ( ) NAMED_UNIT ( #305 ) );
#203 = CARTESIAN_POINT ( 'NONE',  ( 0.09374999999999988898, 2.500000000000000000, 1.148106374200642476E-17 ) ) ;
#204 = AXIS2_PLACEMENT_3D ( 'NONE', #249, #345, #194 ) ;
#205 = AXIS2_PLACEMENT_3D ( 'NONE', #54, #307, #59 ) ;
#206 =( NAMED_UNIT ( * ) PLANE_ANGLE_UNIT ( ) SI_UNIT ( $, .RADIAN. ) );
#207 = FACE_OUTER_BOUND ( 'NONE', #48, .T. ) ;
#208 = ADVANCED_BREP_SHAPE_REPRESENTATION ( '49061', ( #265, #261, #205 ), #21 ) ;
#209 = FILL_AREA_STYLE_COLOUR ( '', #19 ) ;
#210 = ORIENTED_EDGE ( 'NONE', *, *, #117, .T. ) ;
#211 = EDGE_CURVE ( 'NONE', #77, #121, #321, .T. ) ;
#212 = ORIENTED_EDGE ( 'NONE', *, *, #211, .F. ) ;
#213 = PRESENTATION_LAYER_ASSIGNMENT (  '', '', ( #40 ) ) ;
#214 = SURFACE_SIDE_STYLE ('',( #240 ) ) ;
#215 = ORIENTED_EDGE ( 'NONE', *, *, #117, .F. ) ;
#216 = DIRECTION ( 'NONE',  ( 0.000000000000000000, 0.000000000000000000, -1.000000000000000000 ) ) ;
#217 = ORIENTED_EDGE ( 'NONE', *, *, #157, .F. ) ;
#218 = DIRECTION ( 'NONE',  ( -1.224646799147352961E-16, 1.000000000000000000, -0.000000000000000000 ) ) ;
#219 = ORIENTED_EDGE ( 'NONE', *, *, #251, .T. ) ;
#220 = CIRCLE ( 'NONE', #274, 0.09374999999999975020 ) ;
#221 = CARTESIAN_POINT ( 'NONE',  ( 0.000000000000000000, 0.09375000000000004163, 0.000000000000000000 ) ) ;
#222 = DIRECTION ( 'NONE',  ( 1.000000000000000000, 0.000000000000000000, -1.224646799147353207E-16 ) ) ;
#223 =( NAMED_UNIT ( * ) PLANE_ANGLE_UNIT ( ) SI_UNIT ( $, .RADIAN. ) );
#224 = FILL_AREA_STYLE ('',( #297 ) ) ;
#225 = CARTESIAN_POINT ( 'NONE',  ( 0.000000000000000000, 0.09375000000000004163, 0.000000000000000000 ) ) ;
#226 = ADVANCED_FACE ( 'NONE', ( #304 ), #348, .T. ) ;
#227 = STYLED_ITEM ( 'NONE', ( #299 ), #323 ) ;
#228 = DIRECTION ( 'NONE',  ( -1.000000000000000000, -1.224646799147352961E-16, 0.000000000000000000 ) ) ;
#229 = SURFACE_SIDE_STYLE ('',( #349 ) ) ;
#230 = FILL_AREA_STYLE ('',( #174 ) ) ;
#231 = AXIS2_PLACEMENT_3D ( 'NONE', #255, #280, #318 ) ;
#232 = PRESENTATION_STYLE_ASSIGNMENT (( #233 ) ) ;
#233 = SURFACE_STYLE_USAGE ( .BOTH. , #88 ) ;
#234 = PRODUCT_DEFINITION_SHAPE ( 'NONE', 'NONE',  #316 ) ;
#235 = PRESENTATION_LAYER_ASSIGNMENT (  '', '', ( #288 ) ) ;
#236 = DIRECTION ( 'NONE',  ( -1.000000000000000000, 0.000000000000000000, 0.000000000000000000 ) ) ;
#237 = UNCERTAINTY_MEASURE_WITH_UNIT (LENGTH_MEASURE( 1.000000000000000082E-05 ), #202, 'distance_accuracy_value', 'NONE');
#238 = ADVANCED_FACE ( 'NONE', ( #313 ), #135, .F. ) ;
#239 = ORIENTED_EDGE ( 'NONE', *, *, #64, .F. ) ;
#240 = SURFACE_STYLE_FILL_AREA ( #14 ) ;
#241 = ORIENTED_EDGE ( 'NONE', *, *, #251, .F. ) ;
#242 = MECHANICAL_DESIGN_GEOMETRIC_PRESENTATION_REPRESENTATION (  '', ( #40 ), #146 ) ;
#243 = AXIS2_PLACEMENT_3D ( 'NONE', #221, #87, #136 ) ;
#244 = EDGE_LOOP ( 'NONE', ( #47, #103 ) ) ;
#245 = CYLINDRICAL_SURFACE ( 'NONE', #373, 0.09374999999999995837 ) ;
#246 = DIRECTION ( 'NONE',  ( -1.000000000000000000, 0.000000000000000000, 0.000000000000000000 ) ) ;
#247 =( CONVERSION_BASED_UNIT ( 'INCH', #55 ) LENGTH_UNIT ( ) NAMED_UNIT ( #130 ) );
#248 = SURFACE_STYLE_USAGE ( .BOTH. , #229 ) ;
#249 = CARTESIAN_POINT ( 'NONE',  ( 0.000000000000000000, 0.000000000000000000, 0.000000000000000000 ) ) ;
#250 = DIRECTION ( 'NONE',  ( -1.224646799147352961E-16, 1.000000000000000000, -0.000000000000000000 ) ) ;
#251 = EDGE_CURVE ( 'NONE', #186, #77, #272, .T. ) ;
#252 = LENGTH_MEASURE_WITH_UNIT ( LENGTH_MEASURE( 0.02539999999999999897 ), #25 );
#253 = SHAPE_DEFINITION_REPRESENTATION ( #234, #208 ) ;
#254 = DIRECTION ( 'NONE',  ( 1.224646799147353207E-16, -0.000000000000000000, 1.000000000000000000 ) ) ;
#255 = CARTESIAN_POINT ( 'NONE',  ( -6.123233995736766036E-17, 2.500000000000000000, 0.000000000000000000 ) ) ;
#256 = DIRECTION ( 'NONE',  ( -0.000000000000000000, -1.000000000000000000, -0.000000000000000000 ) ) ;
#257 = CARTESIAN_POINT ( 'NONE',  ( 0.000000000000000000, 0.7500000000000001110, 0.000000000000000000 ) ) ;
#258 =( GEOMETRIC_REPRESENTATION_CONTEXT ( 3 ) GLOBAL_UNCERTAINTY_ASSIGNED_CONTEXT ( ( #266 ) ) GLOBAL_UNIT_ASSIGNED_CONTEXT ( ( #106, #223, #85 ) ) REPRESENTATION_CONTEXT ( 'NONE', 'WORKASPACE' ) );
#259 = DIMENSIONAL_EXPONENTS ( 1.000000000000000000, 0.000000000000000000, 0.000000000000000000, 0.000000000000000000, 0.000000000000000000, 0.000000000000000000, 0.000000000000000000 ) ;
#260 = PRESENTATION_STYLE_ASSIGNMENT (( #143 ) ) ;
#261 = MANIFOLD_SOLID_BREP ( 'Revolve - Tool Body (Straight Shanked)', #79 ) ;
#262 = VECTOR ( 'NONE', #111, 39.37007874015748143 ) ;
#263 = SURFACE_SIDE_STYLE ('',( #34 ) ) ;
#264 =( NAMED_UNIT ( * ) SI_UNIT ( $, .STERADIAN. ) SOLID_ANGLE_UNIT ( ) );
#265 = MANIFOLD_SOLID_BREP ( 'Revolve - Cutting Edge', #133 ) ;
#266 = UNCERTAINTY_MEASURE_WITH_UNIT (LENGTH_MEASURE( 1.000000000000000082E-05 ), #106, 'distance_accuracy_value', 'NONE');
#267 = CARTESIAN_POINT ( 'NONE',  ( -0.09374999999999959754, 0.7499999999999998890, 0.000000000000000000 ) ) ;
#268 =( LENGTH_UNIT ( ) NAMED_UNIT ( * ) SI_UNIT ( $, .METRE. ) );
#269 = DIRECTION ( 'NONE',  ( 0.000000000000000000, 0.000000000000000000, -1.000000000000000000 ) ) ;
#270 = ORIENTED_EDGE ( 'NONE', *, *, #31, .F. ) ;
#271 = VERTEX_POINT ( 'NONE', #354 ) ;
#272 = CIRCLE ( 'NONE', #347, 0.09374999999999998612 ) ;
#273 = DIRECTION ( 'NONE',  ( 0.000000000000000000, -0.000000000000000000, 1.000000000000000000 ) ) ;
#274 = AXIS2_PLACEMENT_3D ( 'NONE', #71, #218, #246 ) ;
#275 =( GEOMETRIC_REPRESENTATION_CONTEXT ( 3 ) GLOBAL_UNCERTAINTY_ASSIGNED_CONTEXT ( ( #329 ) ) GLOBAL_UNIT_ASSIGNED_CONTEXT ( ( #65, #206, #264 ) ) REPRESENTATION_CONTEXT ( 'NONE', 'WORKASPACE' ) );
#276 = ORIENTED_EDGE ( 'NONE', *, *, #149, .F. ) ;
#277 = FILL_AREA_STYLE ('',( #160 ) ) ;
#278 = ORIENTED_EDGE ( 'NONE', *, *, #31, .T. ) ;
#279 = APPLICATION_PROTOCOL_DEFINITION ( 'draft international standard', 'automotive_design', 1998, #12 ) ;
#280 = DIRECTION ( 'NONE',  ( -1.224646799147352961E-16, 1.000000000000000000, -0.000000000000000000 ) ) ;
#281 = ADVANCED_FACE ( 'NONE', ( #317 ), #284, .T. ) ;
#282 = LINE ( 'NONE', #114, #5 ) ;
#283 = CARTESIAN_POINT ( 'NONE',  ( -0.09375000000000002776, 0.09375000000000004163, 1.148106374200643555E-17 ) ) ;
#284 = SPHERICAL_SURFACE ( 'NONE', #80, 0.09375000000000002776 ) ;
#285 = PRODUCT_RELATED_PRODUCT_CATEGORY ( 'part', '', ( #315 ) ) ;
#286 = CARTESIAN_POINT ( 'NONE',  ( -0.09374999999999991673, 2.500000000000000000, 0.000000000000000000 ) ) ;
#287 = COLOUR_RGB ( '',1.000000000000000000, 0.000000000000000000, 0.000000000000000000 ) ;
#288 = STYLED_ITEM ( 'NONE', ( #260 ), #290 ) ;
#289 = DIRECTION ( 'NONE',  ( 0.000000000000000000, 0.000000000000000000, 1.000000000000000000 ) ) ;
#290 = ADVANCED_FACE ( 'NONE', ( #145 ), #61, .T. ) ;
#291 =( LENGTH_UNIT ( ) NAMED_UNIT ( * ) SI_UNIT ( $, .METRE. ) );
#292 =( LENGTH_UNIT ( ) NAMED_UNIT ( * ) SI_UNIT ( $, .METRE. ) );
#293 =( GEOMETRIC_REPRESENTATION_CONTEXT ( 3 ) GLOBAL_UNCERTAINTY_ASSIGNED_CONTEXT ( ( #237 ) ) GLOBAL_UNIT_ASSIGNED_CONTEXT ( ( #202, #148, #39 ) ) REPRESENTATION_CONTEXT ( 'NONE', 'WORKASPACE' ) );
#294 = UNCERTAINTY_MEASURE_WITH_UNIT (LENGTH_MEASURE( 1.000000000000000082E-05 ), #247, 'distance_accuracy_value', 'NONE');
#295 = DIRECTION ( 'NONE',  ( 0.000000000000000000, 0.000000000000000000, -1.000000000000000000 ) ) ;
#296 = CARTESIAN_POINT ( 'NONE',  ( 0.000000000000000000, 0.09375000000000004163, -0.09374999999999998612 ) ) ;
#297 = FILL_AREA_STYLE_COLOUR ( '', #298 ) ;
#298 = COLOUR_RGB ( '',1.000000000000000000, 0.000000000000000000, 0.000000000000000000 ) ;
#299 = PRESENTATION_STYLE_ASSIGNMENT (( #13 ) ) ;
#300 = ORIENTED_EDGE ( 'NONE', *, *, #91, .T. ) ;
#301 =( NAMED_UNIT ( * ) PLANE_ANGLE_UNIT ( ) SI_UNIT ( $, .RADIAN. ) );
#302 = ORIENTED_EDGE ( 'NONE', *, *, #101, .T. ) ;
#303 = VERTEX_POINT ( 'NONE', #156 ) ;
#304 = FACE_OUTER_BOUND ( 'NONE', #94, .T. ) ;
#305 = DIMENSIONAL_EXPONENTS ( 1.000000000000000000, 0.000000000000000000, 0.000000000000000000, 0.000000000000000000, 0.000000000000000000, 0.000000000000000000, 0.000000000000000000 ) ;
#306 = LINE ( 'NONE', #107, #68 ) ;
#307 = DIRECTION ( 'NONE',  ( 0.000000000000000000, 0.000000000000000000, 1.000000000000000000 ) ) ;
#308 = DIMENSIONAL_EXPONENTS ( 1.000000000000000000, 0.000000000000000000, 0.000000000000000000, 0.000000000000000000, 0.000000000000000000, 0.000000000000000000, 0.000000000000000000 ) ;
#309 = DIRECTION ( 'NONE',  ( -0.000000000000000000, -1.000000000000000000, -0.000000000000000000 ) ) ;
#310 = COLOUR_RGB ( '',1.000000000000000000, 0.000000000000000000, 0.000000000000000000 ) ;
#311 = CIRCLE ( 'NONE', #134, 0.09374999999999990286 ) ;
#312 = DIRECTION ( 'NONE',  ( 1.000000000000000000, 0.000000000000000000, 0.000000000000000000 ) ) ;
#313 = FACE_OUTER_BOUND ( 'NONE', #244, .T. ) ;
#314 =( NAMED_UNIT ( * ) SI_UNIT ( $, .STERADIAN. ) SOLID_ANGLE_UNIT ( ) );
#315 = PRODUCT ( '49061', '49061', '', ( #163 ) ) ;
#316 = PRODUCT_DEFINITION ( 'UNKNOWN', '', #93, #70 ) ;
#317 = FACE_OUTER_BOUND ( 'NONE', #24, .T. ) ;
#318 = DIRECTION ( 'NONE',  ( -1.000000000000000000, 0.000000000000000000, 0.000000000000000000 ) ) ;
#319 = DIMENSIONAL_EXPONENTS ( 1.000000000000000000, 0.000000000000000000, 0.000000000000000000, 0.000000000000000000, 0.000000000000000000, 0.000000000000000000, 0.000000000000000000 ) ;
#320 = CARTESIAN_POINT ( 'NONE',  ( -1.148106374200644017E-17, 0.09375000000000002776, 0.000000000000000000 ) ) ;
#321 = CIRCLE ( 'NONE', #9, 0.09375000000000002776 ) ;
#322 = DIRECTION ( 'NONE',  ( -1.224646799147352961E-16, 1.000000000000000000, -0.000000000000000000 ) ) ;
#323 = ADVANCED_FACE ( 'NONE', ( #16 ), #245, .T. ) ;
#324 = FILL_AREA_STYLE_COLOUR ( '', #310 ) ;
#325 = MECHANICAL_DESIGN_GEOMETRIC_PRESENTATION_REPRESENTATION (  '', ( #67 ), #293 ) ;
#326 = AXIS2_PLACEMENT_3D ( 'NONE', #369, #193, #168 ) ;
#327 = CARTESIAN_POINT ( 'NONE',  ( 0.09374999999999990286, 2.500000000000000000, 0.000000000000000000 ) ) ;
#328 = ORIENTED_EDGE ( 'NONE', *, *, #97, .T. ) ;
#329 = UNCERTAINTY_MEASURE_WITH_UNIT (LENGTH_MEASURE( 1.000000000000000082E-05 ), #65, 'distance_accuracy_value', 'NONE');
#330 = SURFACE_STYLE_FILL_AREA ( #126 ) ;
#331 = PRESENTATION_LAYER_ASSIGNMENT (  '', '', ( #113 ) ) ;
#332 = ADVANCED_FACE ( 'NONE', ( #207 ), #337, .F. ) ;
#333 = VERTEX_POINT ( 'NONE', #150 ) ;
#334 = MECHANICAL_DESIGN_GEOMETRIC_PRESENTATION_REPRESENTATION (  '', ( #124 ), #98 ) ;
#335 =( NAMED_UNIT ( * ) PLANE_ANGLE_UNIT ( ) SI_UNIT ( $, .RADIAN. ) );
#336 = ORIENTED_EDGE ( 'NONE', *, *, #41, .F. ) ;
#337 = PLANE ( 'NONE',  #50 ) ;
#338 = ORIENTED_EDGE ( 'NONE', *, *, #149, .T. ) ;
#339 = CYLINDRICAL_SURFACE ( 'NONE', #204, 0.09374999999999995837 ) ;
#340 = EDGE_LOOP ( 'NONE', ( #215, #217 ) ) ;
#341 = DIMENSIONAL_EXPONENTS ( 1.000000000000000000, 0.000000000000000000, 0.000000000000000000, 0.000000000000000000, 0.000000000000000000, 0.000000000000000000, 0.000000000000000000 ) ;
#342 =( NAMED_UNIT ( * ) SI_UNIT ( $, .STERADIAN. ) SOLID_ANGLE_UNIT ( ) );
#343 =( GEOMETRIC_REPRESENTATION_CONTEXT ( 3 ) GLOBAL_UNCERTAINTY_ASSIGNED_CONTEXT ( ( #357 ) ) GLOBAL_UNIT_ASSIGNED_CONTEXT ( ( #184, #335, #49 ) ) REPRESENTATION_CONTEXT ( 'NONE', 'WORKASPACE' ) );
#344 = DIRECTION ( 'NONE',  ( -1.224646799147352961E-16, 1.000000000000000000, -0.000000000000000000 ) ) ;
#345 = DIRECTION ( 'NONE',  ( -0.000000000000000000, -1.000000000000000000, -0.000000000000000000 ) ) ;
#346 = LENGTH_MEASURE_WITH_UNIT ( LENGTH_MEASURE( 0.02539999999999999897 ), #351 );
#347 = AXIS2_PLACEMENT_3D ( 'NONE', #225, #256, #350 ) ;
#348 = CYLINDRICAL_SURFACE ( 'NONE', #179, 0.09374999999999984734 ) ;
#349 = SURFACE_STYLE_FILL_AREA ( #224 ) ;
#350 = DIRECTION ( 'NONE',  ( 0.000000000000000000, 0.000000000000000000, -1.000000000000000000 ) ) ;
#351 =( LENGTH_UNIT ( ) NAMED_UNIT ( * ) SI_UNIT ( $, .METRE. ) );
#352 = FILL_AREA_STYLE ('',( #4 ) ) ;
#353 = CYLINDRICAL_SURFACE ( 'NONE', #356, 0.09374999999999984734 ) ;
#354 = CARTESIAN_POINT ( 'NONE',  ( 0.09374999999999988898, 0.7499999999999998890, 1.148106374200642476E-17 ) ) ;
#355 = CARTESIAN_POINT ( 'NONE',  ( -6.123233995736766036E-17, 2.500000000000000000, 0.000000000000000000 ) ) ;
#356 = AXIS2_PLACEMENT_3D ( 'NONE', #355, #322, #236 ) ;
#357 = UNCERTAINTY_MEASURE_WITH_UNIT (LENGTH_MEASURE( 1.000000000000000082E-05 ), #184, 'distance_accuracy_value', 'NONE');
#358 =( GEOMETRIC_REPRESENTATION_CONTEXT ( 3 ) GLOBAL_UNCERTAINTY_ASSIGNED_CONTEXT ( ( #177 ) ) GLOBAL_UNIT_ASSIGNED_CONTEXT ( ( #359, #301, #362 ) ) REPRESENTATION_CONTEXT ( 'NONE', 'WORKASPACE' ) );
#359 =( CONVERSION_BASED_UNIT ( 'INCH', #73 ) LENGTH_UNIT ( ) NAMED_UNIT ( #341 ) );
#360 = VERTEX_POINT ( 'NONE', #296 ) ;
#361 = CIRCLE ( 'NONE', #231, 0.09374999999999997224 ) ;
#362 =( NAMED_UNIT ( * ) SI_UNIT ( $, .STERADIAN. ) SOLID_ANGLE_UNIT ( ) );
#363 = VERTEX_POINT ( 'NONE', #267 ) ;
#364 = CARTESIAN_POINT ( 'NONE',  ( -0.09375000000000004163, 2.500000000000000000, 0.000000000000000000 ) ) ;
#365 = ORIENTED_EDGE ( 'NONE', *, *, #97, .F. ) ;
#366 = PRESENTATION_STYLE_ASSIGNMENT (( #248 ) ) ;
#367 = CIRCLE ( 'NONE', #326, 0.09375000000000002776 ) ;
#368 = DIRECTION ( 'NONE',  ( -1.224646799147352961E-16, 1.000000000000000000, 0.000000000000000000 ) ) ;
#369 = CARTESIAN_POINT ( 'NONE',  ( -1.148106374200644017E-17, 0.09375000000000002776, 0.000000000000000000 ) ) ;
#370 = CARTESIAN_POINT ( 'NONE',  ( -6.123233995736766036E-17, 2.500000000000000000, 0.000000000000000000 ) ) ;
#371 = CARTESIAN_POINT ( 'NONE',  ( 1.148106374200643092E-17, 0.000000000000000000, 0.09374999999999995837 ) ) ;
#372 = SURFACE_STYLE_USAGE ( .BOTH. , #214 ) ;
#373 = AXIS2_PLACEMENT_3D ( 'NONE', #123, #92, #216 ) ;
ENDSEC;
END-ISO-10303-21;
