ISO-10303-21;
HEADER;
FILE_DESCRIPTION (( 'STEP AP214' ),
    '1' );
FILE_NAME ('Micro_RNCM-050-2.STEP',
    '2021-09-03T17:41:15',
    ( '' ),
    ( '' ),
    'SwSTEP 2.0',
    'SolidWorks 2020',
    '' );
FILE_SCHEMA (( 'AUTOMOTIVE_DESIGN' ));
ENDSEC;

DATA;
#1 = PRODUCT ( 'Micro_RNCM-050-2', 'Micro_RNCM-050-2', '', ( #65 ) ) ;
#2 = COLOUR_RGB ( '',0.7921568627450980005, 0.8196078431372548767, 0.9333333333333333481 ) ;
#3 = EDGE_CURVE ( 'NONE', #148, #6, #141, .T. ) ;
#4 = CARTESIAN_POINT ( 'NONE',  ( 0.09842500000000001248, 1.205358612060782468E-17, 1.968503999999999809 ) ) ;
#5 = CARTESIAN_POINT ( 'NONE',  ( 0.0000000000000000000, 0.0000000000000000000, 1.874016000000000348 ) ) ;
#6 = VERTEX_POINT ( 'NONE', #113 ) ;
#7 = CIRCLE ( 'NONE', #182, 0.09842500000000001248 ) ;
#8 = CARTESIAN_POINT ( 'NONE',  ( 0.0000000000000000000, 0.0000000000000000000, 0.0000000000000000000 ) ) ;
#9 = SURFACE_STYLE_USAGE ( .BOTH. , #152 ) ;
#10 = ORIENTED_EDGE ( 'NONE', *, *, #204, .F. ) ;
#11 =( CONVERSION_BASED_UNIT ( 'INCH', #103 ) LENGTH_UNIT ( ) NAMED_UNIT ( #24 ) );
#12 = CARTESIAN_POINT ( 'NONE',  ( 0.003936999999999995191, 0.0000000000000000000, 0.0000000000000000000 ) ) ;
#13 = DIRECTION ( 'NONE',  ( -0.0000000000000000000, -0.0000000000000000000, -1.000000000000000000 ) ) ;
#14 = DIRECTION ( 'NONE',  ( -1.000000000000000000, 0.0000000000000000000, 0.0000000000000000000 ) ) ;
#15 = PRESENTATION_STYLE_ASSIGNMENT (( #9 ) ) ;
#16 = FACE_OUTER_BOUND ( 'NONE', #120, .T. ) ;
#17 = SURFACE_STYLE_FILL_AREA ( #199 ) ;
#18 = AXIS2_PLACEMENT_3D ( 'NONE', #29, #92, #167 ) ;
#19 = DIRECTION ( 'NONE',  ( -0.0000000000000000000, -0.0000000000000000000, -1.000000000000000000 ) ) ;
#20 =( NAMED_UNIT ( * ) PLANE_ANGLE_UNIT ( ) SI_UNIT ( $, .RADIAN. ) );
#21 =( NAMED_UNIT ( * ) PLANE_ANGLE_UNIT ( ) SI_UNIT ( $, .RADIAN. ) );
#22 =( CONVERSION_BASED_UNIT ( 'INCH', #234 ) LENGTH_UNIT ( ) NAMED_UNIT ( #64 ) );
#23 = FACE_OUTER_BOUND ( 'NONE', #225, .T. ) ;
#24 = DIMENSIONAL_EXPONENTS ( 1.000000000000000000, 0.0000000000000000000, 0.0000000000000000000, 0.0000000000000000000, 0.0000000000000000000, 0.0000000000000000000, 0.0000000000000000000 ) ;
#25 = EDGE_CURVE ( 'NONE', #207, #145, #62, .T. ) ;
#26 = SHAPE_DEFINITION_REPRESENTATION ( #249, #198 ) ;
#27 = DIRECTION ( 'NONE',  ( -1.000000000000000000, 0.0000000000000000000, 0.0000000000000000000 ) ) ;
#28 = AXIS2_PLACEMENT_3D ( 'NONE', #37, #132, #174 ) ;
#29 = CARTESIAN_POINT ( 'NONE',  ( 0.0000000000000000000, 0.0000000000000000000, 0.0000000000000000000 ) ) ;
#30 = ORIENTED_EDGE ( 'NONE', *, *, #3, .F. ) ;
#31 = DIRECTION ( 'NONE',  ( -1.000000000000000000, 0.0000000000000000000, 0.0000000000000000000 ) ) ;
#32 = PLANE ( 'NONE',  #56 ) ;
#33 = ORIENTED_EDGE ( 'NONE', *, *, #235, .T. ) ;
#34 = DIRECTION ( 'NONE',  ( 1.000000000000000000, 0.0000000000000000000, 0.0000000000000000000 ) ) ;
#35 = CIRCLE ( 'NONE', #179, 0.09842500000000001248 ) ;
#36 = AXIS2_PLACEMENT_3D ( 'NONE', #238, #69, #31 ) ;
#37 = CARTESIAN_POINT ( 'NONE',  ( 0.0000000000000000000, 0.0000000000000000000, 0.09448799999999960009 ) ) ;
#38 = LENGTH_MEASURE_WITH_UNIT ( LENGTH_MEASURE( 0.02539999999999999897 ), #135 );
#39 =( LENGTH_UNIT ( ) NAMED_UNIT ( * ) SI_UNIT ( $, .METRE. ) );
#40 = SURFACE_STYLE_USAGE ( .BOTH. , #180 ) ;
#41 = CARTESIAN_POINT ( 'NONE',  ( 0.0000000000000000000, 0.0000000000000000000, 1.968503999999999809 ) ) ;
#42 = PRODUCT_DEFINITION_FORMATION_WITH_SPECIFIED_SOURCE ( 'ANY', '', #1, .NOT_KNOWN. ) ;
#43 = UNCERTAINTY_MEASURE_WITH_UNIT (LENGTH_MEASURE( 1.000000000000000082E-05 ), #118, 'distance_accuracy_value', 'NONE');
#44 = CARTESIAN_POINT ( 'NONE',  ( 0.003936999999999995191, 0.0000000000000000000, 1.968503999999999809 ) ) ;
#45 = ORIENTED_EDGE ( 'NONE', *, *, #25, .F. ) ;
#46 = CARTESIAN_POINT ( 'NONE',  ( 0.0000000000000000000, 0.0000000000000000000, 1.968503999999999809 ) ) ;
#47 =( GEOMETRIC_REPRESENTATION_CONTEXT ( 3 ) GLOBAL_UNCERTAINTY_ASSIGNED_CONTEXT ( ( #104 ) ) GLOBAL_UNIT_ASSIGNED_CONTEXT ( ( #11, #20, #140 ) ) REPRESENTATION_CONTEXT ( 'NONE', 'WORKASPACE' ) );
#48 = ADVANCED_FACE ( 'NONE', ( #16 ), #171, .T. ) ;
#49 = DIRECTION ( 'NONE',  ( -1.000000000000000000, 0.0000000000000000000, 0.0000000000000000000 ) ) ;
#50 = DIRECTION ( 'NONE',  ( 0.0000000000000000000, 0.0000000000000000000, 1.000000000000000000 ) ) ;
#51 = CARTESIAN_POINT ( 'NONE',  ( -0.003936999999999995191, -6.267864782716068801E-18, 1.968503999999999809 ) ) ;
#52 = CARTESIAN_POINT ( 'NONE',  ( 0.0000000000000000000, 0.0000000000000000000, 1.968503999999999809 ) ) ;
#53 = SURFACE_STYLE_FILL_AREA ( #223 ) ;
#54 = EDGE_LOOP ( 'NONE', ( #185, #96, #89, #165 ) ) ;
#55 = ORIENTED_EDGE ( 'NONE', *, *, #78, .F. ) ;
#56 = AXIS2_PLACEMENT_3D ( 'NONE', #247, #150, #115 ) ;
#57 = PRODUCT_RELATED_PRODUCT_CATEGORY ( 'part', '', ( #1 ) ) ;
#58 = FILL_AREA_STYLE_COLOUR ( '', #139 ) ;
#59 = LINE ( 'NONE', #61, #112 ) ;
#60 = PRODUCT_DEFINITION_CONTEXT ( 'detailed design', #76, 'design' ) ;
#61 = CARTESIAN_POINT ( 'NONE',  ( -0.003936999999999995191, -4.821434448243123477E-19, 1.968503999999999809 ) ) ;
#62 = CIRCLE ( 'NONE', #97, 0.003936999999999995191 ) ;
#63 = APPLICATION_PROTOCOL_DEFINITION ( 'draft international standard', 'automotive_design', 1998, #76 ) ;
#64 = DIMENSIONAL_EXPONENTS ( 1.000000000000000000, 0.0000000000000000000, 0.0000000000000000000, 0.0000000000000000000, 0.0000000000000000000, 0.0000000000000000000, 0.0000000000000000000 ) ;
#65 = PRODUCT_CONTEXT ( 'NONE', #79, 'mechanical' ) ;
#66 = ORIENTED_EDGE ( 'NONE', *, *, #101, .T. ) ;
#67 = CARTESIAN_POINT ( 'NONE',  ( -0.09842500000000001248, 0.0000000000000000000, 0.09448799999999960009 ) ) ;
#68 = ORIENTED_EDGE ( 'NONE', *, *, #235, .F. ) ;
#69 = DIRECTION ( 'NONE',  ( 0.0000000000000000000, 0.0000000000000000000, -1.000000000000000000 ) ) ;
#70 = CARTESIAN_POINT ( 'NONE',  ( 0.0000000000000000000, 0.0000000000000000000, 0.0000000000000000000 ) ) ;
#71 = CONICAL_SURFACE ( 'NONE', #125, 0.003936999999999995191, 0.7853981633974504994 ) ;
#72 = DIRECTION ( 'NONE',  ( -1.000000000000000000, 0.0000000000000000000, 0.0000000000000000000 ) ) ;
#73 = ORIENTED_EDGE ( 'NONE', *, *, #110, .T. ) ;
#74 = DIRECTION ( 'NONE',  ( 0.7071067811865490160, 0.0000000000000000000, -0.7071067811865459074 ) ) ;
#75 = ORIENTED_EDGE ( 'NONE', *, *, #189, .F. ) ;
#76 = APPLICATION_CONTEXT ( 'automotive_design' ) ;
#77 = FACE_OUTER_BOUND ( 'NONE', #54, .T. ) ;
#78 = EDGE_CURVE ( 'NONE', #207, #109, #168, .T. ) ;
#79 = APPLICATION_CONTEXT ( 'automotive_design' ) ;
#80 = ADVANCED_FACE ( 'NONE', ( #241 ), #111, .T. ) ;
#81 = DIMENSIONAL_EXPONENTS ( 1.000000000000000000, 0.0000000000000000000, 0.0000000000000000000, 0.0000000000000000000, 0.0000000000000000000, 0.0000000000000000000, 0.0000000000000000000 ) ;
#82 = DIRECTION ( 'NONE',  ( -0.0000000000000000000, -0.0000000000000000000, -1.000000000000000000 ) ) ;
#83 = LINE ( 'NONE', #4, #231 ) ;
#84 = PRESENTATION_LAYER_ASSIGNMENT (  '', '', ( #194 ) ) ;
#85 = DIRECTION ( 'NONE',  ( 0.0000000000000000000, 0.0000000000000000000, -1.000000000000000000 ) ) ;
#86 = DIRECTION ( 'NONE',  ( 0.0000000000000000000, 0.0000000000000000000, -1.000000000000000000 ) ) ;
#87 = STYLED_ITEM ( 'NONE', ( #15 ), #95 ) ;
#88 = CIRCLE ( 'NONE', #36, 0.003936999999999995191 ) ;
#89 = ORIENTED_EDGE ( 'NONE', *, *, #91, .T. ) ;
#90 = DIRECTION ( 'NONE',  ( -0.0000000000000000000, -0.0000000000000000000, -1.000000000000000000 ) ) ;
#91 = EDGE_CURVE ( 'NONE', #148, #151, #245, .T. ) ;
#92 = DIRECTION ( 'NONE',  ( 0.0000000000000000000, 0.0000000000000000000, 1.000000000000000000 ) ) ;
#93 = DIRECTION ( 'NONE',  ( -1.000000000000000000, 0.0000000000000000000, 0.0000000000000000000 ) ) ;
#94 =( LENGTH_UNIT ( ) NAMED_UNIT ( * ) SI_UNIT ( $, .METRE. ) );
#95 = MANIFOLD_SOLID_BREP ( 'Mirror1', #122 ) ;
#96 = ORIENTED_EDGE ( 'NONE', *, *, #164, .T. ) ;
#97 = AXIS2_PLACEMENT_3D ( 'NONE', #227, #137, #210 ) ;
#98 = EDGE_LOOP ( 'NONE', ( #230, #222, #66, #55 ) ) ;
#99 =( GEOMETRIC_REPRESENTATION_CONTEXT ( 3 ) GLOBAL_UNCERTAINTY_ASSIGNED_CONTEXT ( ( #161 ) ) GLOBAL_UNIT_ASSIGNED_CONTEXT ( ( #22, #21, #107 ) ) REPRESENTATION_CONTEXT ( 'NONE', 'WORKASPACE' ) );
#100 = ORIENTED_EDGE ( 'NONE', *, *, #184, .T. ) ;
#101 = EDGE_CURVE ( 'NONE', #151, #109, #35, .T. ) ;
#102 = AXIS2_PLACEMENT_3D ( 'NONE', #8, #90, #49 ) ;
#103 = LENGTH_MEASURE_WITH_UNIT ( LENGTH_MEASURE( 0.02539999999999999897 ), #94 );
#104 = UNCERTAINTY_MEASURE_WITH_UNIT (LENGTH_MEASURE( 1.000000000000000082E-05 ), #11, 'distance_accuracy_value', 'NONE');
#105 = DIRECTION ( 'NONE',  ( 1.000000000000000000, 0.0000000000000000000, 0.0000000000000000000 ) ) ;
#106 = CONICAL_SURFACE ( 'NONE', #159, 0.003936999999999995191, 0.7853981633974504994 ) ;
#107 =( NAMED_UNIT ( * ) SI_UNIT ( $, .STERADIAN. ) SOLID_ANGLE_UNIT ( ) );
#108 = PRODUCT_DEFINITION ( 'UNKNOWN', '', #42, #60 ) ;
#109 = VERTEX_POINT ( 'NONE', #206 ) ;
#110 = EDGE_CURVE ( 'NONE', #109, #151, #158, .T. ) ;
#111 = CONICAL_SURFACE ( 'NONE', #127, 0.003936999999999995191, 0.7853981633974504994 ) ;
#112 = VECTOR ( 'NONE', #162, 39.37007874015748854 ) ;
#113 = CARTESIAN_POINT ( 'NONE',  ( 0.09842500000000001248, 1.205358612060782468E-17, 1.874016000000000348 ) ) ;
#114 = DIRECTION ( 'NONE',  ( 0.0000000000000000000, 0.0000000000000000000, -1.000000000000000000 ) ) ;
#115 = DIRECTION ( 'NONE',  ( 1.000000000000000000, 0.0000000000000000000, -0.0000000000000000000 ) ) ;
#116 = ORIENTED_EDGE ( 'NONE', *, *, #233, .T. ) ;
#117 = FACE_OUTER_BOUND ( 'NONE', #246, .T. ) ;
#118 =( CONVERSION_BASED_UNIT ( 'INCH', #38 ) LENGTH_UNIT ( ) NAMED_UNIT ( #81 ) );
#119 =( GEOMETRIC_REPRESENTATION_CONTEXT ( 3 ) GLOBAL_UNCERTAINTY_ASSIGNED_CONTEXT ( ( #43 ) ) GLOBAL_UNIT_ASSIGNED_CONTEXT ( ( #118, #248, #147 ) ) REPRESENTATION_CONTEXT ( 'NONE', 'WORKASPACE' ) );
#120 = EDGE_LOOP ( 'NONE', ( #129, #131, #195, #138 ) ) ;
#121 = AXIS2_PLACEMENT_3D ( 'NONE', #203, #143, #105 ) ;
#122 = CLOSED_SHELL ( 'NONE', ( #156, #178, #48, #136, #80, #124, #170, #149 ) ) ;
#123 = PRESENTATION_STYLE_ASSIGNMENT (( #40 ) ) ;
#124 = ADVANCED_FACE ( 'NONE', ( #208 ), #32, .F. ) ;
#125 = AXIS2_PLACEMENT_3D ( 'NONE', #41, #200, #221 ) ;
#126 = LINE ( 'NONE', #202, #212 ) ;
#127 = AXIS2_PLACEMENT_3D ( 'NONE', #70, #50, #34 ) ;
#128 = FACE_OUTER_BOUND ( 'NONE', #98, .T. ) ;
#129 = ORIENTED_EDGE ( 'NONE', *, *, #3, .T. ) ;
#130 = ORIENTED_EDGE ( 'NONE', *, *, #216, .T. ) ;
#131 = ORIENTED_EDGE ( 'NONE', *, *, #157, .T. ) ;
#132 = DIRECTION ( 'NONE',  ( -0.0000000000000000000, -0.0000000000000000000, -1.000000000000000000 ) ) ;
#133 = ORIENTED_EDGE ( 'NONE', *, *, #25, .T. ) ;
#134 = CARTESIAN_POINT ( 'NONE',  ( -0.09842500000000001248, 0.0000000000000000000, 1.874016000000000348 ) ) ;
#135 =( LENGTH_UNIT ( ) NAMED_UNIT ( * ) SI_UNIT ( $, .METRE. ) );
#136 = ADVANCED_FACE ( 'NONE', ( #77 ), #244, .T. ) ;
#137 = DIRECTION ( 'NONE',  ( -0.0000000000000000000, -0.0000000000000000000, -1.000000000000000000 ) ) ;
#138 = ORIENTED_EDGE ( 'NONE', *, *, #91, .F. ) ;
#139 = COLOUR_RGB ( '',0.7921568627450980005, 0.8196078431372548767, 0.9333333333333333481 ) ;
#140 =( NAMED_UNIT ( * ) SI_UNIT ( $, .STERADIAN. ) SOLID_ANGLE_UNIT ( ) );
#141 = CIRCLE ( 'NONE', #220, 0.09842500000000001248 ) ;
#142 = MECHANICAL_DESIGN_GEOMETRIC_PRESENTATION_REPRESENTATION (  '', ( #194 ), #99 ) ;
#143 = DIRECTION ( 'NONE',  ( 0.0000000000000000000, 0.0000000000000000000, 1.000000000000000000 ) ) ;
#144 = CARTESIAN_POINT ( 'NONE',  ( 0.0000000000000000000, 0.0000000000000000000, 1.968503999999999809 ) ) ;
#145 = VERTEX_POINT ( 'NONE', #154 ) ;
#146 = CARTESIAN_POINT ( 'NONE',  ( 0.003936999999999995191, 0.0000000000000000000, 0.0000000000000000000 ) ) ;
#147 =( NAMED_UNIT ( * ) SI_UNIT ( $, .STERADIAN. ) SOLID_ANGLE_UNIT ( ) );
#148 = VERTEX_POINT ( 'NONE', #134 ) ;
#149 = ADVANCED_FACE ( 'NONE', ( #117 ), #192, .T. ) ;
#150 = DIRECTION ( 'NONE',  ( 0.0000000000000000000, 0.0000000000000000000, 1.000000000000000000 ) ) ;
#151 = VERTEX_POINT ( 'NONE', #67 ) ;
#152 = SURFACE_SIDE_STYLE ('',( #53 ) ) ;
#153 = ORIENTED_EDGE ( 'NONE', *, *, #233, .F. ) ;
#154 = CARTESIAN_POINT ( 'NONE',  ( -0.003936999999999995191, 6.267864782716068801E-18, 0.0000000000000000000 ) ) ;
#155 = FILL_AREA_STYLE_COLOUR ( '', #2 ) ;
#156 = ADVANCED_FACE ( 'NONE', ( #213 ), #71, .T. ) ;
#157 = EDGE_CURVE ( 'NONE', #6, #109, #83, .T. ) ;
#158 = CIRCLE ( 'NONE', #28, 0.09842500000000001248 ) ;
#159 = AXIS2_PLACEMENT_3D ( 'NONE', #144, #85, #160 ) ;
#160 = DIRECTION ( 'NONE',  ( 1.000000000000000000, 0.0000000000000000000, 0.0000000000000000000 ) ) ;
#161 = UNCERTAINTY_MEASURE_WITH_UNIT (LENGTH_MEASURE( 1.000000000000000082E-05 ), #22, 'distance_accuracy_value', 'NONE');
#162 = DIRECTION ( 'NONE',  ( -0.7071067811865490160, -8.659560562354951347E-17, -0.7071067811865459074 ) ) ;
#163 = AXIS2_PLACEMENT_3D ( 'NONE', #46, #13, #93 ) ;
#164 = EDGE_CURVE ( 'NONE', #6, #148, #7, .T. ) ;
#165 = ORIENTED_EDGE ( 'NONE', *, *, #110, .F. ) ;
#166 = DIRECTION ( 'NONE',  ( 0.0000000000000000000, 0.0000000000000000000, -1.000000000000000000 ) ) ;
#167 = DIRECTION ( 'NONE',  ( 1.000000000000000000, 0.0000000000000000000, 0.0000000000000000000 ) ) ;
#168 = LINE ( 'NONE', #146, #232 ) ;
#169 = DIRECTION ( 'NONE',  ( 0.7071067811865490160, 0.0000000000000000000, 0.7071067811865459074 ) ) ;
#170 = ADVANCED_FACE ( 'NONE', ( #23 ), #106, .T. ) ;
#171 = CYLINDRICAL_SURFACE ( 'NONE', #163, 0.09842500000000001248 ) ;
#172 = CARTESIAN_POINT ( 'NONE',  ( 0.0000000000000000000, 0.0000000000000000000, 1.968503999999999809 ) ) ;
#173 = ORIENTED_EDGE ( 'NONE', *, *, #184, .F. ) ;
#174 = DIRECTION ( 'NONE',  ( -1.000000000000000000, 0.0000000000000000000, 0.0000000000000000000 ) ) ;
#175 = AXIS2_PLACEMENT_3D ( 'NONE', #196, #177, #215 ) ;
#176 = CIRCLE ( 'NONE', #102, 0.003936999999999995191 ) ;
#177 = DIRECTION ( 'NONE',  ( 0.0000000000000000000, 0.0000000000000000000, 1.000000000000000000 ) ) ;
#178 = ADVANCED_FACE ( 'NONE', ( #128 ), #217, .T. ) ;
#179 = AXIS2_PLACEMENT_3D ( 'NONE', #188, #226, #14 ) ;
#180 = SURFACE_SIDE_STYLE ('',( #17 ) ) ;
#181 = AXIS2_PLACEMENT_3D ( 'NONE', #52, #228, #72 ) ;
#182 = AXIS2_PLACEMENT_3D ( 'NONE', #5, #86, #218 ) ;
#183 = DIRECTION ( 'NONE',  ( -0.7071067811865490160, 8.659560562354951347E-17, 0.7071067811865459074 ) ) ;
#184 = EDGE_CURVE ( 'NONE', #209, #148, #59, .T. ) ;
#185 = ORIENTED_EDGE ( 'NONE', *, *, #157, .F. ) ;
#186 = PRESENTATION_LAYER_ASSIGNMENT (  '', '', ( #87 ) ) ;
#187 = VERTEX_POINT ( 'NONE', #44 ) ;
#188 = CARTESIAN_POINT ( 'NONE',  ( 0.0000000000000000000, 0.0000000000000000000, 0.09448799999999960009 ) ) ;
#189 = EDGE_CURVE ( 'NONE', #145, #151, #126, .T. ) ;
#190 = ORIENTED_EDGE ( 'NONE', *, *, #164, .F. ) ;
#191 = EDGE_LOOP ( 'NONE', ( #75, #45, #229, #73 ) ) ;
#192 = PLANE ( 'NONE',  #175 ) ;
#193 = VECTOR ( 'NONE', #82, 39.37007874015748143 ) ;
#194 = STYLED_ITEM ( 'NONE', ( #123 ), #198 ) ;
#195 = ORIENTED_EDGE ( 'NONE', *, *, #101, .F. ) ;
#196 = CARTESIAN_POINT ( 'NONE',  ( 0.0000000000000000000, 0.0000000000000000000, 1.968503999999999809 ) ) ;
#197 = VECTOR ( 'NONE', #74, 39.37007874015748854 ) ;
#198 = ADVANCED_BREP_SHAPE_REPRESENTATION ( 'Micro_RNCM-050-2', ( #95, #18 ), #47 ) ;
#199 = FILL_AREA_STYLE ('',( #58 ) ) ;
#200 = DIRECTION ( 'NONE',  ( 0.0000000000000000000, 0.0000000000000000000, -1.000000000000000000 ) ) ;
#201 = EDGE_LOOP ( 'NONE', ( #133, #130 ) ) ;
#202 = CARTESIAN_POINT ( 'NONE',  ( -0.003936999999999995191, 4.821434448243123477E-19, 0.0000000000000000000 ) ) ;
#203 = CARTESIAN_POINT ( 'NONE',  ( 0.0000000000000000000, 0.0000000000000000000, 0.0000000000000000000 ) ) ;
#204 = EDGE_CURVE ( 'NONE', #187, #6, #236, .T. ) ;
#205 = CARTESIAN_POINT ( 'NONE',  ( 0.0000000000000000000, 0.0000000000000000000, 1.874016000000000348 ) ) ;
#206 = CARTESIAN_POINT ( 'NONE',  ( 0.09842500000000001248, 1.205358612060782468E-17, 0.09448799999999960009 ) ) ;
#207 = VERTEX_POINT ( 'NONE', #12 ) ;
#208 = FACE_OUTER_BOUND ( 'NONE', #201, .T. ) ;
#209 = VERTEX_POINT ( 'NONE', #51 ) ;
#210 = DIRECTION ( 'NONE',  ( -1.000000000000000000, 0.0000000000000000000, 0.0000000000000000000 ) ) ;
#211 = MECHANICAL_DESIGN_GEOMETRIC_PRESENTATION_REPRESENTATION (  '', ( #87 ), #119 ) ;
#212 = VECTOR ( 'NONE', #183, 39.37007874015748854 ) ;
#213 = FACE_OUTER_BOUND ( 'NONE', #239, .T. ) ;
#214 = CARTESIAN_POINT ( 'NONE',  ( -0.09842500000000001248, 0.0000000000000000000, 1.968503999999999809 ) ) ;
#215 = DIRECTION ( 'NONE',  ( 1.000000000000000000, 0.0000000000000000000, -0.0000000000000000000 ) ) ;
#216 = EDGE_CURVE ( 'NONE', #145, #207, #176, .T. ) ;
#217 = CONICAL_SURFACE ( 'NONE', #121, 0.003936999999999995191, 0.7853981633974504994 ) ;
#218 = DIRECTION ( 'NONE',  ( -1.000000000000000000, 0.0000000000000000000, 0.0000000000000000000 ) ) ;
#219 = CARTESIAN_POINT ( 'NONE',  ( 0.003936999999999995191, 0.0000000000000000000, 1.968503999999999809 ) ) ;
#220 = AXIS2_PLACEMENT_3D ( 'NONE', #205, #114, #27 ) ;
#221 = DIRECTION ( 'NONE',  ( 1.000000000000000000, 0.0000000000000000000, 0.0000000000000000000 ) ) ;
#222 = ORIENTED_EDGE ( 'NONE', *, *, #189, .T. ) ;
#223 = FILL_AREA_STYLE ('',( #155 ) ) ;
#224 = APPLICATION_PROTOCOL_DEFINITION ( 'draft international standard', 'automotive_design', 1998, #79 ) ;
#225 = EDGE_LOOP ( 'NONE', ( #173, #33, #237, #30 ) ) ;
#226 = DIRECTION ( 'NONE',  ( -0.0000000000000000000, -0.0000000000000000000, -1.000000000000000000 ) ) ;
#227 = CARTESIAN_POINT ( 'NONE',  ( 0.0000000000000000000, 0.0000000000000000000, 0.0000000000000000000 ) ) ;
#228 = DIRECTION ( 'NONE',  ( -0.0000000000000000000, -0.0000000000000000000, -1.000000000000000000 ) ) ;
#229 = ORIENTED_EDGE ( 'NONE', *, *, #78, .T. ) ;
#230 = ORIENTED_EDGE ( 'NONE', *, *, #216, .F. ) ;
#231 = VECTOR ( 'NONE', #19, 39.37007874015748143 ) ;
#232 = VECTOR ( 'NONE', #169, 39.37007874015748854 ) ;
#233 = EDGE_CURVE ( 'NONE', #187, #209, #242, .T. ) ;
#234 = LENGTH_MEASURE_WITH_UNIT ( LENGTH_MEASURE( 0.02539999999999999897 ), #39 );
#235 = EDGE_CURVE ( 'NONE', #209, #187, #88, .T. ) ;
#236 = LINE ( 'NONE', #219, #197 ) ;
#237 = ORIENTED_EDGE ( 'NONE', *, *, #204, .T. ) ;
#238 = CARTESIAN_POINT ( 'NONE',  ( 0.0000000000000000000, 0.0000000000000000000, 1.968503999999999809 ) ) ;
#239 = EDGE_LOOP ( 'NONE', ( #116, #100, #190, #10 ) ) ;
#240 = DIRECTION ( 'NONE',  ( -1.000000000000000000, 0.0000000000000000000, 0.0000000000000000000 ) ) ;
#241 = FACE_OUTER_BOUND ( 'NONE', #191, .T. ) ;
#242 = CIRCLE ( 'NONE', #243, 0.003936999999999995191 ) ;
#243 = AXIS2_PLACEMENT_3D ( 'NONE', #172, #166, #240 ) ;
#244 = CYLINDRICAL_SURFACE ( 'NONE', #181, 0.09842500000000001248 ) ;
#245 = LINE ( 'NONE', #214, #193 ) ;
#246 = EDGE_LOOP ( 'NONE', ( #153, #68 ) ) ;
#247 = CARTESIAN_POINT ( 'NONE',  ( 0.0000000000000000000, 0.0000000000000000000, 0.0000000000000000000 ) ) ;
#248 =( NAMED_UNIT ( * ) PLANE_ANGLE_UNIT ( ) SI_UNIT ( $, .RADIAN. ) );
#249 = PRODUCT_DEFINITION_SHAPE ( 'NONE', 'NONE',  #108 ) ;
ENDSEC;
END-ISO-10303-21;
