ISO-10303-21;
HEADER;
FILE_DESCRIPTION (( 'STEP AP214' ),
    '1' );
FILE_NAME ('Micro_DM-500-4120.STEP',
    '2021-09-02T16:07:33',
    ( '' ),
    ( '' ),
    'SwSTEP 2.0',
    'SolidWorks 2020',
    '' );
FILE_SCHEMA (( 'AUTOMOTIVE_DESIGN' ));
ENDSEC;

DATA;
#1 = DIRECTION ( 'NONE',  ( -1.000000000000000000, 0.0000000000000000000, 0.0000000000000000000 ) ) ;
#2 = AXIS2_PLACEMENT_3D ( 'NONE', #280, #180, #41 ) ;
#3 = DIRECTION ( 'NONE',  ( -0.0000000000000000000, -0.0000000000000000000, -1.000000000000000000 ) ) ;
#4 = CARTESIAN_POINT ( 'NONE',  ( 0.0000000000000000000, 0.0000000000000000000, 0.1399785727650239564 ) ) ;
#5 = CARTESIAN_POINT ( 'NONE',  ( 0.0000000000000000000, 0.0000000000000000000, 0.0000000000000000000 ) ) ;
#6 = DIRECTION ( 'NONE',  ( -1.000000000000000000, 0.0000000000000000000, 0.0000000000000000000 ) ) ;
#7 =( CONVERSION_BASED_UNIT ( 'INCH', #317 ) LENGTH_UNIT ( ) NAMED_UNIT ( #147 ) );
#8 = LINE ( 'NONE', #51, #130 ) ;
#9 = EDGE_LOOP ( 'NONE', ( #320, #52, #60, #36 ) ) ;
#10 = VECTOR ( 'NONE', #311, 39.37007874015748854 ) ;
#11 = CARTESIAN_POINT ( 'NONE',  ( 0.2499500000000001165, 0.0000000000000000000, 0.1399785727650239564 ) ) ;
#12 = VERTEX_POINT ( 'NONE', #61 ) ;
#13 = PRESENTATION_STYLE_ASSIGNMENT (( #137 ) ) ;
#14 = EDGE_CURVE ( 'NONE', #247, #37, #87, .T. ) ;
#15 = ORIENTED_EDGE ( 'NONE', *, *, #303, .T. ) ;
#16 = MECHANICAL_DESIGN_GEOMETRIC_PRESENTATION_REPRESENTATION (  '', ( #156 ), #104 ) ;
#17 = CARTESIAN_POINT ( 'NONE',  ( 0.2499500000000001443, 3.061004674468811376E-17, 1.000000000000000000 ) ) ;
#18 = DIRECTION ( 'NONE',  ( 0.0000000000000000000, 0.0000000000000000000, -1.000000000000000000 ) ) ;
#19 = SHAPE_DEFINITION_REPRESENTATION ( #322, #48 ) ;
#20 = VERTEX_POINT ( 'NONE', #142 ) ;
#21 = PRESENTATION_LAYER_ASSIGNMENT (  '', '', ( #156 ) ) ;
#22 = DIRECTION ( 'NONE',  ( 0.0000000000000000000, 0.0000000000000000000, 1.000000000000000000 ) ) ;
#23 = ORIENTED_EDGE ( 'NONE', *, *, #297, .F. ) ;
#24 = CARTESIAN_POINT ( 'NONE',  ( 0.0000000000000000000, 0.0000000000000000000, 3.000000000000000444 ) ) ;
#25 = CIRCLE ( 'NONE', #225, 0.2499500000000000610 ) ;
#26 = CARTESIAN_POINT ( 'NONE',  ( 0.0000000000000000000, 0.0000000000000000000, 1.000000000000000000 ) ) ;
#27 = DIRECTION ( 'NONE',  ( -0.0000000000000000000, -0.0000000000000000000, -1.000000000000000000 ) ) ;
#28 = DIRECTION ( 'NONE',  ( -0.0000000000000000000, -0.0000000000000000000, -1.000000000000000000 ) ) ;
#29 = EDGE_CURVE ( 'NONE', #81, #31, #129, .T. ) ;
#30 =( NAMED_UNIT ( * ) PLANE_ANGLE_UNIT ( ) SI_UNIT ( $, .RADIAN. ) );
#31 = VERTEX_POINT ( 'NONE', #256 ) ;
#32 = FACE_OUTER_BOUND ( 'NONE', #271, .T. ) ;
#33 = ORIENTED_EDGE ( 'NONE', *, *, #303, .F. ) ;
#34 = AXIS2_PLACEMENT_3D ( 'NONE', #126, #28, #1 ) ;
#35 = ORIENTED_EDGE ( 'NONE', *, *, #50, .T. ) ;
#36 = ORIENTED_EDGE ( 'NONE', *, *, #14, .F. ) ;
#37 = VERTEX_POINT ( 'NONE', #98 ) ;
#38 = ORIENTED_EDGE ( 'NONE', *, *, #301, .F. ) ;
#39 = DIRECTION ( 'NONE',  ( 0.0000000000000000000, 0.0000000000000000000, -1.000000000000000000 ) ) ;
#40 =( NAMED_UNIT ( * ) SI_UNIT ( $, .STERADIAN. ) SOLID_ANGLE_UNIT ( ) );
#41 = DIRECTION ( 'NONE',  ( -1.000000000000000000, 0.0000000000000000000, 0.0000000000000000000 ) ) ;
#42 = DIRECTION ( 'NONE',  ( 1.000000000000000000, 0.0000000000000000000, 0.0000000000000000000 ) ) ;
#43 = DIRECTION ( 'NONE',  ( -0.0000000000000000000, -0.0000000000000000000, -1.000000000000000000 ) ) ;
#44 = CIRCLE ( 'NONE', #241, 0.2500000000000000000 ) ;
#45 = CIRCLE ( 'NONE', #34, 0.007499999999999999722 ) ;
#46 = CARTESIAN_POINT ( 'NONE',  ( 0.0000000000000000000, 0.0000000000000000000, 1.707404996040164512E-17 ) ) ;
#47 = EDGE_CURVE ( 'NONE', #90, #12, #78, .T. ) ;
#48 = ADVANCED_BREP_SHAPE_REPRESENTATION ( 'Micro_DM-500-4120', ( #82, #145 ), #73 ) ;
#49 = DIRECTION ( 'NONE',  ( -1.000000000000000000, 0.0000000000000000000, 0.0000000000000000000 ) ) ;
#50 = EDGE_CURVE ( 'NONE', #37, #247, #44, .T. ) ;
#51 = CARTESIAN_POINT ( 'NONE',  ( -0.007499999999999999722, 9.184850993605147975E-19, 1.707404996040164512E-17 ) ) ;
#52 = ORIENTED_EDGE ( 'NONE', *, *, #47, .F. ) ;
#53 = EDGE_LOOP ( 'NONE', ( #318, #86, #158, #314 ) ) ;
#54 = ADVANCED_FACE ( 'NONE', ( #123 ), #329, .T. ) ;
#55 = DIRECTION ( 'NONE',  ( 1.000000000000000000, 0.0000000000000000000, -0.0000000000000000000 ) ) ;
#56 = EDGE_LOOP ( 'NONE', ( #35, #58, #169, #120 ) ) ;
#57 = AXIS2_PLACEMENT_3D ( 'NONE', #218, #166, #319 ) ;
#58 = ORIENTED_EDGE ( 'NONE', *, *, #119, .T. ) ;
#59 = DIRECTION ( 'NONE',  ( -0.0000000000000000000, -0.0000000000000000000, -1.000000000000000000 ) ) ;
#60 = ORIENTED_EDGE ( 'NONE', *, *, #182, .T. ) ;
#61 = CARTESIAN_POINT ( 'NONE',  ( 0.2350000000000011524, 2.969768487932338510E-17, 3.000000000000000444 ) ) ;
#62 = AXIS2_PLACEMENT_3D ( 'NONE', #127, #234, #208 ) ;
#63 = ORIENTED_EDGE ( 'NONE', *, *, #301, .T. ) ;
#64 = ORIENTED_EDGE ( 'NONE', *, *, #182, .F. ) ;
#65 = ADVANCED_FACE ( 'NONE', ( #204 ), #115, .T. ) ;
#66 = DIRECTION ( 'NONE',  ( 1.000000000000000000, 0.0000000000000000000, 0.0000000000000000000 ) ) ;
#67 = DIRECTION ( 'NONE',  ( -0.0000000000000000000, -0.0000000000000000000, -1.000000000000000000 ) ) ;
#68 = CIRCLE ( 'NONE', #171, 0.2499500000000001165 ) ;
#69 = EDGE_CURVE ( 'NONE', #219, #20, #263, .T. ) ;
#70 = CARTESIAN_POINT ( 'NONE',  ( -0.2350000000000011524, 0.0000000000000000000, 3.000000000000000444 ) ) ;
#71 = DIRECTION ( 'NONE',  ( -0.0000000000000000000, -0.0000000000000000000, -1.000000000000000000 ) ) ;
#72 = DIRECTION ( 'NONE',  ( 0.0000000000000000000, 0.0000000000000000000, 1.000000000000000000 ) ) ;
#73 =( GEOMETRIC_REPRESENTATION_CONTEXT ( 3 ) GLOBAL_UNCERTAINTY_ASSIGNED_CONTEXT ( ( #153 ) ) GLOBAL_UNIT_ASSIGNED_CONTEXT ( ( #7, #30, #193 ) ) REPRESENTATION_CONTEXT ( 'NONE', 'WORKASPACE' ) );
#74 = CARTESIAN_POINT ( 'NONE',  ( 0.0000000000000000000, 0.0000000000000000000, 3.000000000000000444 ) ) ;
#75 = DIRECTION ( 'NONE',  ( -1.000000000000000000, 0.0000000000000000000, 0.0000000000000000000 ) ) ;
#76 = CARTESIAN_POINT ( 'NONE',  ( 0.0000000000000000000, 0.0000000000000000000, 3.000000000000000444 ) ) ;
#77 = ORIENTED_EDGE ( 'NONE', *, *, #94, .F. ) ;
#78 = CIRCLE ( 'NONE', #205, 0.2350000000000011524 ) ;
#79 = VECTOR ( 'NONE', #59, 39.37007874015748143 ) ;
#80 = DIRECTION ( 'NONE',  ( 0.0000000000000000000, 0.0000000000000000000, 1.000000000000000000 ) ) ;
#81 = VERTEX_POINT ( 'NONE', #17 ) ;
#82 = MANIFOLD_SOLID_BREP ( 'Cut-Revolve4', #282 ) ;
#83 = DIRECTION ( 'NONE',  ( 1.000000000000000000, 0.0000000000000000000, 0.0000000000000000000 ) ) ;
#84 = ORIENTED_EDGE ( 'NONE', *, *, #281, .F. ) ;
#85 = DIRECTION ( 'NONE',  ( -0.0000000000000000000, -0.0000000000000000000, -1.000000000000000000 ) ) ;
#86 = ORIENTED_EDGE ( 'NONE', *, *, #281, .T. ) ;
#87 = CIRCLE ( 'NONE', #258, 0.2500000000000000000 ) ;
#88 = AXIS2_PLACEMENT_3D ( 'NONE', #46, #72, #42 ) ;
#89 = FACE_OUTER_BOUND ( 'NONE', #133, .T. ) ;
#90 = VERTEX_POINT ( 'NONE', #261 ) ;
#91 = CARTESIAN_POINT ( 'NONE',  ( 0.0000000000000000000, 0.0000000000000000000, 0.0000000000000000000 ) ) ;
#92 = PRESENTATION_STYLE_ASSIGNMENT (( #252 ) ) ;
#93 = DIRECTION ( 'NONE',  ( -0.0000000000000000000, -0.0000000000000000000, -1.000000000000000000 ) ) ;
#94 = EDGE_CURVE ( 'NONE', #275, #268, #100, .T. ) ;
#95 = PRODUCT ( 'Micro_DM-500-4120', 'Micro_DM-500-4120', '', ( #326 ) ) ;
#96 = DIRECTION ( 'NONE',  ( 0.0000000000000000000, 0.0000000000000000000, 1.000000000000000000 ) ) ;
#97 = LENGTH_MEASURE_WITH_UNIT ( LENGTH_MEASURE( 0.02539999999999999897 ), #121 );
#98 = CARTESIAN_POINT ( 'NONE',  ( -0.2500000000000000000, 0.0000000000000000000, 2.985000000000001208 ) ) ;
#99 = LINE ( 'NONE', #124, #172 ) ;
#100 = CIRCLE ( 'NONE', #189, 0.2500000000000000000 ) ;
#101 = FACE_OUTER_BOUND ( 'NONE', #110, .T. ) ;
#102 = CARTESIAN_POINT ( 'NONE',  ( 0.2500000000000000000, 3.061616997868382402E-17, 2.985000000000001208 ) ) ;
#103 = DIRECTION ( 'NONE',  ( 0.0000000000000000000, 0.0000000000000000000, 1.000000000000000000 ) ) ;
#104 =( GEOMETRIC_REPRESENTATION_CONTEXT ( 3 ) GLOBAL_UNCERTAINTY_ASSIGNED_CONTEXT ( ( #211 ) ) GLOBAL_UNIT_ASSIGNED_CONTEXT ( ( #223, #227, #251 ) ) REPRESENTATION_CONTEXT ( 'NONE', 'WORKASPACE' ) );
#105 = DIRECTION ( 'NONE',  ( -1.000000000000000000, 0.0000000000000000000, 0.0000000000000000000 ) ) ;
#106 = DIRECTION ( 'NONE',  ( 0.0000000000000000000, 0.0000000000000000000, -1.000000000000000000 ) ) ;
#107 = EDGE_LOOP ( 'NONE', ( #84, #117, #138, #163 ) ) ;
#108 = VECTOR ( 'NONE', #187, 39.37007874015748143 ) ;
#109 = APPLICATION_PROTOCOL_DEFINITION ( 'draft international standard', 'automotive_design', 1998, #161 ) ;
#110 = EDGE_LOOP ( 'NONE', ( #194, #15, #160, #38 ) ) ;
#111 = LINE ( 'NONE', #214, #134 ) ;
#112 = EDGE_LOOP ( 'NONE', ( #245, #250 ) ) ;
#113 = CARTESIAN_POINT ( 'NONE',  ( 0.0000000000000000000, 0.0000000000000000000, 3.000000000000000444 ) ) ;
#114 = ORIENTED_EDGE ( 'NONE', *, *, #50, .F. ) ;
#115 = CONICAL_SURFACE ( 'NONE', #195, 0.2350000000000011524, 0.7853981633974380649 ) ;
#116 = CIRCLE ( 'NONE', #230, 0.2500000000000000000 ) ;
#117 = ORIENTED_EDGE ( 'NONE', *, *, #141, .F. ) ;
#118 = DIRECTION ( 'NONE',  ( -1.000000000000000000, 0.0000000000000000000, 0.0000000000000000000 ) ) ;
#119 = EDGE_CURVE ( 'NONE', #247, #275, #264, .T. ) ;
#120 = ORIENTED_EDGE ( 'NONE', *, *, #312, .F. ) ;
#121 =( LENGTH_UNIT ( ) NAMED_UNIT ( * ) SI_UNIT ( $, .METRE. ) );
#122 = AXIS2_PLACEMENT_3D ( 'NONE', #274, #131, #238 ) ;
#123 = FACE_OUTER_BOUND ( 'NONE', #139, .T. ) ;
#124 = CARTESIAN_POINT ( 'NONE',  ( 0.2350000000000011524, 2.877919977996294002E-17, 3.000000000000000444 ) ) ;
#125 = CONICAL_SURFACE ( 'NONE', #88, 0.007499999999999999722, 1.047197551196600518 ) ;
#126 = CARTESIAN_POINT ( 'NONE',  ( 0.0000000000000000000, 0.0000000000000000000, 1.707404996040164512E-17 ) ) ;
#127 = CARTESIAN_POINT ( 'NONE',  ( 0.2499500000000001165, 0.0000000000000000000, 1.000000000000000000 ) ) ;
#128 = FACE_OUTER_BOUND ( 'NONE', #216, .T. ) ;
#129 = CIRCLE ( 'NONE', #200, 0.2499500000000001165 ) ;
#130 = VECTOR ( 'NONE', #293, 39.37007874015748143 ) ;
#131 = DIRECTION ( 'NONE',  ( 0.0000000000000000000, 0.0000000000000000000, 1.000000000000000000 ) ) ;
#132 = CARTESIAN_POINT ( 'NONE',  ( -0.2499500000000001165, 3.061004674468810760E-17, 0.1399785727650239564 ) ) ;
#133 = EDGE_LOOP ( 'NONE', ( #192, #167 ) ) ;
#134 = VECTOR ( 'NONE', #191, 39.37007874015748143 ) ;
#135 = SURFACE_SIDE_STYLE ('',( #270 ) ) ;
#136 = EDGE_LOOP ( 'NONE', ( #302, #295 ) ) ;
#137 = SURFACE_STYLE_USAGE ( .BOTH. , #135 ) ;
#138 = ORIENTED_EDGE ( 'NONE', *, *, #233, .T. ) ;
#139 = EDGE_LOOP ( 'NONE', ( #33, #266, #63, #239 ) ) ;
#140 = AXIS2_PLACEMENT_3D ( 'NONE', #5, #103, #260 ) ;
#141 = EDGE_CURVE ( 'NONE', #20, #219, #45, .T. ) ;
#142 = CARTESIAN_POINT ( 'NONE',  ( 0.007499999999999999722, 0.0000000000000000000, 1.707404996040164512E-17 ) ) ;
#143 = DIRECTION ( 'NONE',  ( 1.000000000000000000, 0.0000000000000000000, 0.0000000000000000000 ) ) ;
#144 = EDGE_CURVE ( 'NONE', #31, #81, #68, .T. ) ;
#145 = AXIS2_PLACEMENT_3D ( 'NONE', #91, #22, #253 ) ;
#146 = CARTESIAN_POINT ( 'NONE',  ( 0.0000000000000000000, 0.0000000000000000000, 3.000000000000000444 ) ) ;
#147 = DIMENSIONAL_EXPONENTS ( 1.000000000000000000, 0.0000000000000000000, 0.0000000000000000000, 0.0000000000000000000, 0.0000000000000000000, 0.0000000000000000000, 0.0000000000000000000 ) ;
#148 = DIRECTION ( 'NONE',  ( 1.000000000000000000, 0.0000000000000000000, 0.0000000000000000000 ) ) ;
#149 = PLANE ( 'NONE',  #62 ) ;
#150 = DIMENSIONAL_EXPONENTS ( 1.000000000000000000, 0.0000000000000000000, 0.0000000000000000000, 0.0000000000000000000, 0.0000000000000000000, 0.0000000000000000000, 0.0000000000000000000 ) ;
#151 = AXIS2_PLACEMENT_3D ( 'NONE', #76, #240, #55 ) ;
#152 = CYLINDRICAL_SURFACE ( 'NONE', #206, 0.2499500000000000888 ) ;
#153 = UNCERTAINTY_MEASURE_WITH_UNIT (LENGTH_MEASURE( 1.000000000000000082E-05 ), #7, 'distance_accuracy_value', 'NONE');
#154 = CARTESIAN_POINT ( 'NONE',  ( 0.0000000000000000000, 0.0000000000000000000, 0.0000000000000000000 ) ) ;
#155 = DIRECTION ( 'NONE',  ( -0.0000000000000000000, -0.0000000000000000000, -1.000000000000000000 ) ) ;
#156 = STYLED_ITEM ( 'NONE', ( #13 ), #48 ) ;
#157 = CARTESIAN_POINT ( 'NONE',  ( 0.2499500000000000888, 3.061004674468810760E-17, 0.0000000000000000000 ) ) ;
#158 = ORIENTED_EDGE ( 'NONE', *, *, #222, .T. ) ;
#159 = CARTESIAN_POINT ( 'NONE',  ( 0.2500000000000000000, 3.061616997868382402E-17, 1.000000000000000000 ) ) ;
#160 = ORIENTED_EDGE ( 'NONE', *, *, #222, .F. ) ;
#161 = APPLICATION_CONTEXT ( 'automotive_design' ) ;
#162 = FILL_AREA_STYLE ('',( #272 ) ) ;
#163 = ORIENTED_EDGE ( 'NONE', *, *, #306, .T. ) ;
#164 = VECTOR ( 'NONE', #85, 39.37007874015748143 ) ;
#165 = PRODUCT_DEFINITION_FORMATION_WITH_SPECIFIED_SOURCE ( 'ANY', '', #95, .NOT_KNOWN. ) ;
#166 = DIRECTION ( 'NONE',  ( -0.0000000000000000000, -0.0000000000000000000, -1.000000000000000000 ) ) ;
#167 = ORIENTED_EDGE ( 'NONE', *, *, #297, .T. ) ;
#168 = CARTESIAN_POINT ( 'NONE',  ( -0.2499500000000000888, 0.0000000000000000000, 0.0000000000000000000 ) ) ;
#169 = ORIENTED_EDGE ( 'NONE', *, *, #269, .F. ) ;
#170 = LENGTH_MEASURE_WITH_UNIT ( LENGTH_MEASURE( 0.02539999999999999897 ), #300 );
#171 = AXIS2_PLACEMENT_3D ( 'NONE', #26, #71, #49 ) ;
#172 = VECTOR ( 'NONE', #183, 39.37007874015748854 ) ;
#173 = CARTESIAN_POINT ( 'NONE',  ( 0.0000000000000000000, 0.0000000000000000000, 2.985000000000001208 ) ) ;
#174 =( NAMED_UNIT ( * ) PLANE_ANGLE_UNIT ( ) SI_UNIT ( $, .RADIAN. ) );
#175 = EDGE_CURVE ( 'NONE', #12, #247, #99, .T. ) ;
#176 = PRODUCT_DEFINITION_CONTEXT ( 'detailed design', #184, 'design' ) ;
#177 = DIRECTION ( 'NONE',  ( -1.000000000000000000, 0.0000000000000000000, 0.0000000000000000000 ) ) ;
#178 = AXIS2_PLACEMENT_3D ( 'NONE', #198, #67, #177 ) ;
#179 = CONICAL_SURFACE ( 'NONE', #287, 0.2350000000000011524, 0.7853981633974380649 ) ;
#180 = DIRECTION ( 'NONE',  ( -0.0000000000000000000, -0.0000000000000000000, -1.000000000000000000 ) ) ;
#181 = PLANE ( 'NONE',  #140 ) ;
#182 = EDGE_CURVE ( 'NONE', #90, #37, #207, .T. ) ;
#183 = DIRECTION ( 'NONE',  ( 0.7071067811865402453, 8.659560562354845344E-17, -0.7071067811865546782 ) ) ;
#184 = APPLICATION_CONTEXT ( 'automotive_design' ) ;
#185 = DIRECTION ( 'NONE',  ( -0.0000000000000000000, -0.0000000000000000000, -1.000000000000000000 ) ) ;
#186 = ADVANCED_FACE ( 'NONE', ( #257, #128 ), #149, .T. ) ;
#187 = DIRECTION ( 'NONE',  ( 0.8660254037844400399, 0.0000000000000000000, 0.4999999999999976685 ) ) ;
#188 = DIRECTION ( 'NONE',  ( -0.0000000000000000000, -0.0000000000000000000, -1.000000000000000000 ) ) ;
#189 = AXIS2_PLACEMENT_3D ( 'NONE', #276, #155, #289 ) ;
#190 = LINE ( 'NONE', #157, #79 ) ;
#191 = DIRECTION ( 'NONE',  ( -0.0000000000000000000, -0.0000000000000000000, -1.000000000000000000 ) ) ;
#192 = ORIENTED_EDGE ( 'NONE', *, *, #47, .T. ) ;
#193 =( NAMED_UNIT ( * ) SI_UNIT ( $, .STERADIAN. ) SOLID_ANGLE_UNIT ( ) );
#194 = ORIENTED_EDGE ( 'NONE', *, *, #144, .T. ) ;
#195 = AXIS2_PLACEMENT_3D ( 'NONE', #255, #18, #199 ) ;
#196 = CARTESIAN_POINT ( 'NONE',  ( 0.0000000000000000000, 0.0000000000000000000, 3.000000000000000444 ) ) ;
#197 = ADVANCED_FACE ( 'NONE', ( #262 ), #181, .F. ) ;
#198 = CARTESIAN_POINT ( 'NONE',  ( 0.0000000000000000000, 0.0000000000000000000, 0.0000000000000000000 ) ) ;
#199 = DIRECTION ( 'NONE',  ( -1.000000000000000000, 0.0000000000000000000, 0.0000000000000000000 ) ) ;
#200 = AXIS2_PLACEMENT_3D ( 'NONE', #228, #93, #118 ) ;
#201 =( GEOMETRIC_REPRESENTATION_CONTEXT ( 3 ) GLOBAL_UNCERTAINTY_ASSIGNED_CONTEXT ( ( #291 ) ) GLOBAL_UNIT_ASSIGNED_CONTEXT ( ( #323, #174, #40 ) ) REPRESENTATION_CONTEXT ( 'NONE', 'WORKASPACE' ) );
#202 = ADVANCED_FACE ( 'NONE', ( #286 ), #125, .T. ) ;
#203 = DIRECTION ( 'NONE',  ( 0.0000000000000000000, 0.0000000000000000000, -1.000000000000000000 ) ) ;
#204 = FACE_OUTER_BOUND ( 'NONE', #9, .T. ) ;
#205 = AXIS2_PLACEMENT_3D ( 'NONE', #146, #96, #148 ) ;
#206 = AXIS2_PLACEMENT_3D ( 'NONE', #154, #43, #75 ) ;
#207 = LINE ( 'NONE', #70, #10 ) ;
#208 = DIRECTION ( 'NONE',  ( -1.000000000000000000, 0.0000000000000000000, 0.0000000000000000000 ) ) ;
#209 = FACE_OUTER_BOUND ( 'NONE', #243, .T. ) ;
#210 = ADVANCED_FACE ( 'NONE', ( #285 ), #212, .T. ) ;
#211 = UNCERTAINTY_MEASURE_WITH_UNIT (LENGTH_MEASURE( 1.000000000000000082E-05 ), #223, 'distance_accuracy_value', 'NONE');
#212 = CYLINDRICAL_SURFACE ( 'NONE', #259, 0.2500000000000000000 ) ;
#213 = CARTESIAN_POINT ( 'NONE',  ( -0.2500000000000000000, 0.0000000000000000000, 1.000000000000000000 ) ) ;
#214 = CARTESIAN_POINT ( 'NONE',  ( -0.2500000000000000000, 0.0000000000000000000, 3.000000000000000444 ) ) ;
#215 = PLANE ( 'NONE',  #151 ) ;
#216 = EDGE_LOOP ( 'NONE', ( #279, #224 ) ) ;
#217 = COLOUR_RGB ( '',0.7921568627450980005, 0.8196078431372548767, 0.9333333333333333481 ) ;
#218 = CARTESIAN_POINT ( 'NONE',  ( 0.0000000000000000000, 0.0000000000000000000, 0.1399785727650239564 ) ) ;
#219 = VERTEX_POINT ( 'NONE', #231 ) ;
#220 = ORIENTED_EDGE ( 'NONE', *, *, #312, .T. ) ;
#221 = ORIENTED_EDGE ( 'NONE', *, *, #119, .F. ) ;
#222 = EDGE_CURVE ( 'NONE', #273, #304, #25, .T. ) ;
#223 =( CONVERSION_BASED_UNIT ( 'INCH', #97 ) LENGTH_UNIT ( ) NAMED_UNIT ( #150 ) );
#224 = ORIENTED_EDGE ( 'NONE', *, *, #94, .T. ) ;
#225 = AXIS2_PLACEMENT_3D ( 'NONE', #4, #3, #6 ) ;
#226 = CARTESIAN_POINT ( 'NONE',  ( 0.0000000000000000000, 0.0000000000000000000, 2.985000000000001208 ) ) ;
#227 =( NAMED_UNIT ( * ) PLANE_ANGLE_UNIT ( ) SI_UNIT ( $, .RADIAN. ) );
#228 = CARTESIAN_POINT ( 'NONE',  ( 0.0000000000000000000, 0.0000000000000000000, 1.000000000000000000 ) ) ;
#229 = ADVANCED_FACE ( 'NONE', ( #101 ), #152, .T. ) ;
#230 = AXIS2_PLACEMENT_3D ( 'NONE', #290, #188, #267 ) ;
#231 = CARTESIAN_POINT ( 'NONE',  ( -0.007499999999999999722, 1.576426592202430716E-17, 1.707404996040164512E-17 ) ) ;
#232 = CARTESIAN_POINT ( 'NONE',  ( 0.007499999999999999722, 0.0000000000000000000, 1.707404996040164512E-17 ) ) ;
#233 = EDGE_CURVE ( 'NONE', #20, #304, #310, .T. ) ;
#234 = DIRECTION ( 'NONE',  ( -0.0000000000000000000, 0.0000000000000000000, -1.000000000000000000 ) ) ;
#235 = DIRECTION ( 'NONE',  ( -0.0000000000000000000, -0.0000000000000000000, -1.000000000000000000 ) ) ;
#236 = MECHANICAL_DESIGN_GEOMETRIC_PRESENTATION_REPRESENTATION (  '', ( #249 ), #201 ) ;
#237 = DIRECTION ( 'NONE',  ( -1.000000000000000000, 0.0000000000000000000, 0.0000000000000000000 ) ) ;
#238 = DIRECTION ( 'NONE',  ( 1.000000000000000000, 0.0000000000000000000, 0.0000000000000000000 ) ) ;
#239 = ORIENTED_EDGE ( 'NONE', *, *, #306, .F. ) ;
#240 = DIRECTION ( 'NONE',  ( 0.0000000000000000000, 0.0000000000000000000, 1.000000000000000000 ) ) ;
#241 = AXIS2_PLACEMENT_3D ( 'NONE', #226, #203, #143 ) ;
#242 = FACE_OUTER_BOUND ( 'NONE', #53, .T. ) ;
#243 = EDGE_LOOP ( 'NONE', ( #221, #298, #220, #77 ) ) ;
#244 = PRODUCT_DEFINITION ( 'UNKNOWN', '', #165, #176 ) ;
#245 = ORIENTED_EDGE ( 'NONE', *, *, #141, .T. ) ;
#246 = APPLICATION_PROTOCOL_DEFINITION ( 'draft international standard', 'automotive_design', 1998, #184 ) ;
#247 = VERTEX_POINT ( 'NONE', #102 ) ;
#248 = ADVANCED_FACE ( 'NONE', ( #209 ), #308, .T. ) ;
#249 = STYLED_ITEM ( 'NONE', ( #92 ), #82 ) ;
#250 = ORIENTED_EDGE ( 'NONE', *, *, #69, .T. ) ;
#251 =( NAMED_UNIT ( * ) SI_UNIT ( $, .STERADIAN. ) SOLID_ANGLE_UNIT ( ) );
#252 = SURFACE_STYLE_USAGE ( .BOTH. , #325 ) ;
#253 = DIRECTION ( 'NONE',  ( 1.000000000000000000, 0.0000000000000000000, 0.0000000000000000000 ) ) ;
#254 = SURFACE_STYLE_FILL_AREA ( #284 ) ;
#255 = CARTESIAN_POINT ( 'NONE',  ( 0.0000000000000000000, 0.0000000000000000000, 3.000000000000000444 ) ) ;
#256 = CARTESIAN_POINT ( 'NONE',  ( -0.2499500000000001165, 0.0000000000000000000, 1.000000000000000000 ) ) ;
#257 = FACE_BOUND ( 'NONE', #136, .T. ) ;
#258 = AXIS2_PLACEMENT_3D ( 'NONE', #173, #39, #66 ) ;
#259 = AXIS2_PLACEMENT_3D ( 'NONE', #24, #185, #288 ) ;
#260 = DIRECTION ( 'NONE',  ( 1.000000000000000000, 0.0000000000000000000, -0.0000000000000000000 ) ) ;
#261 = CARTESIAN_POINT ( 'NONE',  ( -0.2350000000000011524, 0.0000000000000000000, 3.000000000000000444 ) ) ;
#262 = FACE_OUTER_BOUND ( 'NONE', #112, .T. ) ;
#263 = CIRCLE ( 'NONE', #2, 0.007499999999999999722 ) ;
#264 = LINE ( 'NONE', #307, #278 ) ;
#265 = AXIS2_PLACEMENT_3D ( 'NONE', #74, #235, #105 ) ;
#266 = ORIENTED_EDGE ( 'NONE', *, *, #29, .T. ) ;
#267 = DIRECTION ( 'NONE',  ( -1.000000000000000000, 0.0000000000000000000, 0.0000000000000000000 ) ) ;
#268 = VERTEX_POINT ( 'NONE', #213 ) ;
#269 = EDGE_CURVE ( 'NONE', #268, #275, #116, .T. ) ;
#270 = SURFACE_STYLE_FILL_AREA ( #162 ) ;
#271 = EDGE_LOOP ( 'NONE', ( #23, #316, #114, #64 ) ) ;
#272 = FILL_AREA_STYLE_COLOUR ( '', #309 ) ;
#273 = VERTEX_POINT ( 'NONE', #132 ) ;
#274 = CARTESIAN_POINT ( 'NONE',  ( 0.0000000000000000000, 0.0000000000000000000, 1.707404996040164512E-17 ) ) ;
#275 = VERTEX_POINT ( 'NONE', #159 ) ;
#276 = CARTESIAN_POINT ( 'NONE',  ( 0.0000000000000000000, 0.0000000000000000000, 1.000000000000000000 ) ) ;
#277 = DIMENSIONAL_EXPONENTS ( 1.000000000000000000, 0.0000000000000000000, 0.0000000000000000000, 0.0000000000000000000, 0.0000000000000000000, 0.0000000000000000000, 0.0000000000000000000 ) ;
#278 = VECTOR ( 'NONE', #27, 39.37007874015748143 ) ;
#279 = ORIENTED_EDGE ( 'NONE', *, *, #269, .T. ) ;
#280 = CARTESIAN_POINT ( 'NONE',  ( 0.0000000000000000000, 0.0000000000000000000, 1.707404996040164512E-17 ) ) ;
#281 = EDGE_CURVE ( 'NONE', #219, #273, #8, .T. ) ;
#282 = CLOSED_SHELL ( 'NONE', ( #229, #327, #315, #210, #248, #292, #65, #186, #202, #54, #197 ) ) ;
#283 = CIRCLE ( 'NONE', #305, 0.2350000000000011524 ) ;
#284 = FILL_AREA_STYLE ('',( #328 ) ) ;
#285 = FACE_OUTER_BOUND ( 'NONE', #56, .T. ) ;
#286 = FACE_OUTER_BOUND ( 'NONE', #107, .T. ) ;
#287 = AXIS2_PLACEMENT_3D ( 'NONE', #113, #106, #237 ) ;
#288 = DIRECTION ( 'NONE',  ( -1.000000000000000000, 0.0000000000000000000, 0.0000000000000000000 ) ) ;
#289 = DIRECTION ( 'NONE',  ( -1.000000000000000000, 0.0000000000000000000, 0.0000000000000000000 ) ) ;
#290 = CARTESIAN_POINT ( 'NONE',  ( 0.0000000000000000000, 0.0000000000000000000, 1.000000000000000000 ) ) ;
#291 = UNCERTAINTY_MEASURE_WITH_UNIT (LENGTH_MEASURE( 1.000000000000000082E-05 ), #323, 'distance_accuracy_value', 'NONE');
#292 = ADVANCED_FACE ( 'NONE', ( #89 ), #215, .T. ) ;
#293 = DIRECTION ( 'NONE',  ( -0.8660254037844400399, 1.060575238724908640E-16, 0.4999999999999976685 ) ) ;
#294 = PRESENTATION_LAYER_ASSIGNMENT (  '', '', ( #249 ) ) ;
#295 = ORIENTED_EDGE ( 'NONE', *, *, #29, .F. ) ;
#296 =( LENGTH_UNIT ( ) NAMED_UNIT ( * ) SI_UNIT ( $, .METRE. ) );
#297 = EDGE_CURVE ( 'NONE', #12, #90, #283, .T. ) ;
#298 = ORIENTED_EDGE ( 'NONE', *, *, #14, .T. ) ;
#299 = LINE ( 'NONE', #168, #164 ) ;
#300 =( LENGTH_UNIT ( ) NAMED_UNIT ( * ) SI_UNIT ( $, .METRE. ) );
#301 = EDGE_CURVE ( 'NONE', #31, #273, #299, .T. ) ;
#302 = ORIENTED_EDGE ( 'NONE', *, *, #144, .F. ) ;
#303 = EDGE_CURVE ( 'NONE', #81, #304, #190, .T. ) ;
#304 = VERTEX_POINT ( 'NONE', #11 ) ;
#305 = AXIS2_PLACEMENT_3D ( 'NONE', #196, #80, #83 ) ;
#306 = EDGE_CURVE ( 'NONE', #304, #273, #321, .T. ) ;
#307 = CARTESIAN_POINT ( 'NONE',  ( 0.2500000000000000000, 3.061616997868382402E-17, 3.000000000000000444 ) ) ;
#308 = CYLINDRICAL_SURFACE ( 'NONE', #265, 0.2500000000000000000 ) ;
#309 = COLOUR_RGB ( '',0.7921568627450980005, 0.8196078431372548767, 0.9333333333333333481 ) ;
#310 = LINE ( 'NONE', #232, #108 ) ;
#311 = DIRECTION ( 'NONE',  ( -0.7071067811865402453, 0.0000000000000000000, -0.7071067811865546782 ) ) ;
#312 = EDGE_CURVE ( 'NONE', #37, #268, #111, .T. ) ;
#313 = CONICAL_SURFACE ( 'NONE', #122, 0.007499999999999999722, 1.047197551196600518 ) ;
#314 = ORIENTED_EDGE ( 'NONE', *, *, #233, .F. ) ;
#315 = ADVANCED_FACE ( 'NONE', ( #32 ), #179, .T. ) ;
#316 = ORIENTED_EDGE ( 'NONE', *, *, #175, .T. ) ;
#317 = LENGTH_MEASURE_WITH_UNIT ( LENGTH_MEASURE( 0.02539999999999999897 ), #296 );
#318 = ORIENTED_EDGE ( 'NONE', *, *, #69, .F. ) ;
#319 = DIRECTION ( 'NONE',  ( -1.000000000000000000, 0.0000000000000000000, 0.0000000000000000000 ) ) ;
#320 = ORIENTED_EDGE ( 'NONE', *, *, #175, .F. ) ;
#321 = CIRCLE ( 'NONE', #57, 0.2499500000000000610 ) ;
#322 = PRODUCT_DEFINITION_SHAPE ( 'NONE', 'NONE',  #244 ) ;
#323 =( CONVERSION_BASED_UNIT ( 'INCH', #170 ) LENGTH_UNIT ( ) NAMED_UNIT ( #277 ) );
#324 = PRODUCT_RELATED_PRODUCT_CATEGORY ( 'part', '', ( #95 ) ) ;
#325 = SURFACE_SIDE_STYLE ('',( #254 ) ) ;
#326 = PRODUCT_CONTEXT ( 'NONE', #161, 'mechanical' ) ;
#327 = ADVANCED_FACE ( 'NONE', ( #242 ), #313, .T. ) ;
#328 = FILL_AREA_STYLE_COLOUR ( '', #217 ) ;
#329 = CYLINDRICAL_SURFACE ( 'NONE', #178, 0.2499500000000000888 ) ;
ENDSEC;
END-ISO-10303-21;
