ISO-10303-21;
HEADER;
FILE_DESCRIPTION (( 'STEP AP214' ),
    '1' );
FILE_NAME ('Micro_BMS-013-2.STEP',
    '2021-09-03T14:45:29',
    ( '' ),
    ( '' ),
    'SwSTEP 2.0',
    'SolidWorks 2020',
    '' );
FILE_SCHEMA (( 'AUTOMOTIVE_DESIGN' ));
ENDSEC;

DATA;
#1 = DIRECTION ( 'NONE',  ( -1.000000000000000000, 1.224646799147353207E-16, 0.0000000000000000000 ) ) ;
#2 = LENGTH_MEASURE_WITH_UNIT ( LENGTH_MEASURE( 0.02539999999999999897 ), #172 );
#3 = VECTOR ( 'NONE', #255, 39.37007874015748143 ) ;
#4 =( GEOMETRIC_REPRESENTATION_CONTEXT ( 3 ) GLOBAL_UNCERTAINTY_ASSIGNED_CONTEXT ( ( #321 ) ) GLOBAL_UNIT_ASSIGNED_CONTEXT ( ( #192, #323, #69 ) ) REPRESENTATION_CONTEXT ( 'NONE', 'WORKASPACE' ) );
#5 = EDGE_CURVE ( 'NONE', #266, #6, #282, .T. ) ;
#6 = VERTEX_POINT ( 'NONE', #54 ) ;
#7 = PRESENTATION_STYLE_ASSIGNMENT (( #278 ) ) ;
#8 = ORIENTED_EDGE ( 'NONE', *, *, #108, .T. ) ;
#9 =( GEOMETRIC_REPRESENTATION_CONTEXT ( 3 ) GLOBAL_UNCERTAINTY_ASSIGNED_CONTEXT ( ( #297 ) ) GLOBAL_UNIT_ASSIGNED_CONTEXT ( ( #83, #285, #81 ) ) REPRESENTATION_CONTEXT ( 'NONE', 'WORKASPACE' ) );
#10 = DIRECTION ( 'NONE',  ( 1.224646799147353454E-16, 0.0000000000000000000, 1.000000000000000000 ) ) ;
#11 = DIRECTION ( 'NONE',  ( 1.000000000000000000, 0.0000000000000000000, 0.0000000000000000000 ) ) ;
#12 = DIRECTION ( 'NONE',  ( -1.000000000000000000, 0.0000000000000000000, 0.0000000000000000000 ) ) ;
#13 = EDGE_CURVE ( 'NONE', #150, #47, #284, .T. ) ;
#14 = CARTESIAN_POINT ( 'NONE',  ( -0.06250000000000000000, 0.0000000000000000000, 1.500000000000000222 ) ) ;
#15 = FACE_OUTER_BOUND ( 'NONE', #200, .T. ) ;
#16 = DIRECTION ( 'NONE',  ( 0.0000000000000000000, 1.000000000000000000, 0.0000000000000000000 ) ) ;
#17 = AXIS2_PLACEMENT_3D ( 'NONE', #293, #66, #193 ) ;
#18 = CARTESIAN_POINT ( 'NONE',  ( 0.006493500000000003609, 0.0000000000000000000, 0.01899999999999999953 ) ) ;
#19 = DIRECTION ( 'NONE',  ( -1.000000000000000000, 0.0000000000000000000, 0.0000000000000000000 ) ) ;
#20 = ORIENTED_EDGE ( 'NONE', *, *, #149, .T. ) ;
#21 = DIRECTION ( 'NONE',  ( 0.0000000000000000000, 0.0000000000000000000, 1.000000000000000000 ) ) ;
#22 = EDGE_LOOP ( 'NONE', ( #103, #76, #55, #138 ) ) ;
#23 =( NAMED_UNIT ( * ) PLANE_ANGLE_UNIT ( ) SI_UNIT ( $, .RADIAN. ) );
#24 = DIRECTION ( 'NONE',  ( -0.0000000000000000000, -0.0000000000000000000, -1.000000000000000000 ) ) ;
#25 = VECTOR ( 'NONE', #57, 39.37007874015748143 ) ;
#26 = EDGE_LOOP ( 'NONE', ( #274, #50 ) ) ;
#27 = CARTESIAN_POINT ( 'NONE',  ( 7.952243990263339486E-19, 0.0000000000000000000, 0.006493500000000000140 ) ) ;
#28 = ORIENTED_EDGE ( 'NONE', *, *, #277, .F. ) ;
#29 = FACE_OUTER_BOUND ( 'NONE', #301, .T. ) ;
#30 = EDGE_CURVE ( 'NONE', #220, #47, #100, .T. ) ;
#31 = ORIENTED_EDGE ( 'NONE', *, *, #165, .T. ) ;
#32 = CYLINDRICAL_SURFACE ( 'NONE', #227, 0.06250000000000000000 ) ;
#33 = AXIS2_PLACEMENT_3D ( 'NONE', #148, #167, #250 ) ;
#34 = DIRECTION ( 'NONE',  ( 1.000000000000000000, 0.0000000000000000000, 0.0000000000000000000 ) ) ;
#35 = CARTESIAN_POINT ( 'NONE',  ( 0.0000000000000000000, 0.0000000000000000000, 1.500000000000000222 ) ) ;
#36 = CIRCLE ( 'NONE', #110, 0.04750000000000064587 ) ;
#37 = DIRECTION ( 'NONE',  ( 1.000000000000000000, 0.0000000000000000000, 0.0000000000000000000 ) ) ;
#38 = CARTESIAN_POINT ( 'NONE',  ( 0.006493500000000003609, 0.0000000000000000000, 0.01899999999999999953 ) ) ;
#39 = CIRCLE ( 'NONE', #82, 0.06250000000000000000 ) ;
#40 = DIRECTION ( 'NONE',  ( 1.224646799147353454E-16, 0.0000000000000000000, 1.000000000000000000 ) ) ;
#41 = ORIENTED_EDGE ( 'NONE', *, *, #161, .F. ) ;
#42 = ADVANCED_FACE ( 'NONE', ( #310 ), #300, .T. ) ;
#43 = DIRECTION ( 'NONE',  ( 1.000000000000000000, 0.0000000000000000000, 0.0000000000000000000 ) ) ;
#44 = AXIS2_PLACEMENT_3D ( 'NONE', #210, #21, #217 ) ;
#45 = FACE_OUTER_BOUND ( 'NONE', #68, .T. ) ;
#46 = EDGE_CURVE ( 'NONE', #220, #298, #94, .T. ) ;
#47 = VERTEX_POINT ( 'NONE', #173 ) ;
#48 = DIRECTION ( 'NONE',  ( 1.000000000000000000, 0.0000000000000000000, 0.0000000000000000000 ) ) ;
#49 = ORIENTED_EDGE ( 'NONE', *, *, #161, .T. ) ;
#50 = ORIENTED_EDGE ( 'NONE', *, *, #246, .T. ) ;
#51 = ADVANCED_FACE ( 'NONE', ( #267 ), #275, .T. ) ;
#52 = AXIS2_PLACEMENT_3D ( 'NONE', #111, #40, #140 ) ;
#53 = EDGE_LOOP ( 'NONE', ( #241, #281, #20, #188 ) ) ;
#54 = CARTESIAN_POINT ( 'NONE',  ( 0.06250000000000000000, 7.654042494670956004E-18, 1.485000000000000764 ) ) ;
#55 = ORIENTED_EDGE ( 'NONE', *, *, #13, .T. ) ;
#56 = AXIS2_PLACEMENT_3D ( 'NONE', #86, #16, #11 ) ;
#57 = DIRECTION ( 'NONE',  ( -0.0000000000000000000, -0.0000000000000000000, -1.000000000000000000 ) ) ;
#58 = DIRECTION ( 'NONE',  ( -1.000000000000000000, 0.0000000000000000000, 0.0000000000000000000 ) ) ;
#59 = VECTOR ( 'NONE', #307, 39.37007874015748143 ) ;
#60 = MECHANICAL_DESIGN_GEOMETRIC_PRESENTATION_REPRESENTATION (  '', ( #163 ), #71 ) ;
#61 = SURFACE_SIDE_STYLE ('',( #231 ) ) ;
#62 = DIRECTION ( 'NONE',  ( 0.0000000000000000000, 0.0000000000000000000, -1.000000000000000000 ) ) ;
#63 = EDGE_CURVE ( 'NONE', #6, #247, #147, .T. ) ;
#64 = CARTESIAN_POINT ( 'NONE',  ( 0.006493499999999999273, 7.952243990263336597E-19, -7.952243990263338523E-19 ) ) ;
#65 = ORIENTED_EDGE ( 'NONE', *, *, #101, .F. ) ;
#66 = DIRECTION ( 'NONE',  ( -1.224646799147353454E-16, -0.0000000000000000000, -1.000000000000000000 ) ) ;
#67 = AXIS2_PLACEMENT_3D ( 'NONE', #187, #208, #164 ) ;
#68 = EDGE_LOOP ( 'NONE', ( #118, #222, #31, #112 ) ) ;
#69 =( NAMED_UNIT ( * ) SI_UNIT ( $, .STERADIAN. ) SOLID_ANGLE_UNIT ( ) );
#70 = ADVANCED_FACE ( 'NONE', ( #29 ), #32, .T. ) ;
#71 =( GEOMETRIC_REPRESENTATION_CONTEXT ( 3 ) GLOBAL_UNCERTAINTY_ASSIGNED_CONTEXT ( ( #166 ) ) GLOBAL_UNIT_ASSIGNED_CONTEXT ( ( #175, #23, #168 ) ) REPRESENTATION_CONTEXT ( 'NONE', 'WORKASPACE' ) );
#72 = SHAPE_DEFINITION_REPRESENTATION ( #195, #142 ) ;
#73 = VERTEX_POINT ( 'NONE', #97 ) ;
#74 = SURFACE_STYLE_FILL_AREA ( #170 ) ;
#75 = CARTESIAN_POINT ( 'NONE',  ( -0.06249999999999995837, 0.0000000000000000000, 0.3366286452304174670 ) ) ;
#76 = ORIENTED_EDGE ( 'NONE', *, *, #277, .T. ) ;
#77 = CARTESIAN_POINT ( 'NONE',  ( 0.0000000000000000000, 0.0000000000000000000, 1.485000000000000764 ) ) ;
#78 = STYLED_ITEM ( 'NONE', ( #206 ), #104 ) ;
#79 = DIRECTION ( 'NONE',  ( -1.224646799147353454E-16, -0.0000000000000000000, -1.000000000000000000 ) ) ;
#80 = CARTESIAN_POINT ( 'NONE',  ( 2.326828918379971334E-18, 0.0000000000000000000, 0.01899999999999999953 ) ) ;
#81 =( NAMED_UNIT ( * ) SI_UNIT ( $, .STERADIAN. ) SOLID_ANGLE_UNIT ( ) );
#82 = AXIS2_PLACEMENT_3D ( 'NONE', #202, #311, #34 ) ;
#83 =( CONVERSION_BASED_UNIT ( 'INCH', #251 ) LENGTH_UNIT ( ) NAMED_UNIT ( #186 ) );
#84 = CARTESIAN_POINT ( 'NONE',  ( 7.952243990263339486E-19, 0.0000000000000000000, 0.006493500000000000140 ) ) ;
#85 = CARTESIAN_POINT ( 'NONE',  ( -0.04750000000000064587, 0.0000000000000000000, 1.500000000000000222 ) ) ;
#86 = CARTESIAN_POINT ( 'NONE',  ( 7.952243990263339486E-19, 0.0000000000000000000, 0.006493500000000000140 ) ) ;
#87 = DIRECTION ( 'NONE',  ( -1.224646799147353454E-16, -0.0000000000000000000, -1.000000000000000000 ) ) ;
#88 = DIRECTION ( 'NONE',  ( 0.1736481776669313581, 0.0000000000000000000, 0.9848077530122077983 ) ) ;
#89 = CARTESIAN_POINT ( 'NONE',  ( 0.0000000000000000000, 0.0000000000000000000, 1.500000000000000222 ) ) ;
#90 = CIRCLE ( 'NONE', #162, 0.006493500000000001007 ) ;
#91 = LINE ( 'NONE', #38, #236 ) ;
#92 = ORIENTED_EDGE ( 'NONE', *, *, #215, .F. ) ;
#93 = CYLINDRICAL_SURFACE ( 'NONE', #17, 0.006493499999999999273 ) ;
#94 = CIRCLE ( 'NONE', #219, 0.006493500000000001007 ) ;
#95 = VERTEX_POINT ( 'NONE', #75 ) ;
#96 = AXIS2_PLACEMENT_3D ( 'NONE', #315, #232, #37 ) ;
#97 = CARTESIAN_POINT ( 'NONE',  ( 1.192836598539500923E-18, 0.0000000000000000000, 0.0000000000000000000 ) ) ;
#98 = ORIENTED_EDGE ( 'NONE', *, *, #108, .F. ) ;
#99 = APPLICATION_CONTEXT ( 'automotive_design' ) ;
#100 = LINE ( 'NONE', #151, #59 ) ;
#101 = EDGE_CURVE ( 'NONE', #298, #220, #90, .T. ) ;
#102 = CIRCLE ( 'NONE', #44, 0.04750000000000064587 ) ;
#103 = ORIENTED_EDGE ( 'NONE', *, *, #46, .T. ) ;
#104 = MANIFOLD_SOLID_BREP ( 'Fillet1', #109 ) ;
#105 = ADVANCED_FACE ( 'NONE', ( #15 ), #155, .T. ) ;
#106 = DIRECTION ( 'NONE',  ( 0.0000000000000000000, -1.000000000000000000, 0.0000000000000000000 ) ) ;
#107 = AXIS2_PLACEMENT_3D ( 'NONE', #145, #248, #201 ) ;
#108 = EDGE_CURVE ( 'NONE', #247, #95, #314, .T. ) ;
#109 = CLOSED_SHELL ( 'NONE', ( #105, #42, #139, #223, #158, #70, #123, #199, #254, #316, #51 ) ) ;
#110 = AXIS2_PLACEMENT_3D ( 'NONE', #89, #324, #143 ) ;
#111 = CARTESIAN_POINT ( 'NONE',  ( 2.326828918379971334E-18, 0.0000000000000000000, 0.01899999999999999953 ) ) ;
#112 = ORIENTED_EDGE ( 'NONE', *, *, #63, .F. ) ;
#113 = DIRECTION ( 'NONE',  ( 0.0000000000000000000, 0.0000000000000000000, -1.000000000000000000 ) ) ;
#114 = EDGE_CURVE ( 'NONE', #73, #150, #253, .T. ) ;
#115 = LENGTH_MEASURE_WITH_UNIT ( LENGTH_MEASURE( 0.02539999999999999897 ), #262 );
#116 = CARTESIAN_POINT ( 'NONE',  ( 0.04750000000000064587, 6.735557395310482421E-18, 1.500000000000000222 ) ) ;
#117 = CONICAL_SURFACE ( 'NONE', #67, 0.04750000000000064587, 0.7853981633974457255 ) ;
#118 = ORIENTED_EDGE ( 'NONE', *, *, #5, .F. ) ;
#119 = CARTESIAN_POINT ( 'NONE',  ( 7.952243990263339486E-19, 0.0000000000000000000, 0.006493500000000000140 ) ) ;
#120 = DIRECTION ( 'NONE',  ( 1.000000000000000000, 0.0000000000000000000, 0.0000000000000000000 ) ) ;
#121 = AXIS2_PLACEMENT_3D ( 'NONE', #183, #87, #237 ) ;
#122 = DIRECTION ( 'NONE',  ( -1.000000000000000000, 0.0000000000000000000, 1.643378952067610679E-16 ) ) ;
#123 = ADVANCED_FACE ( 'NONE', ( #317 ), #159, .T. ) ;
#124 = DIRECTION ( 'NONE',  ( 0.7071067811865456854, 8.659560562354911904E-17, -0.7071067811865493491 ) ) ;
#125 = ORIENTED_EDGE ( 'NONE', *, *, #276, .F. ) ;
#126 = AXIS2_PLACEMENT_3D ( 'NONE', #230, #226, #12 ) ;
#127 =( LENGTH_UNIT ( ) NAMED_UNIT ( * ) SI_UNIT ( $, .METRE. ) );
#128 = ORIENTED_EDGE ( 'NONE', *, *, #13, .F. ) ;
#129 = DIRECTION ( 'NONE',  ( 1.224646799147353454E-16, 0.0000000000000000000, 1.000000000000000000 ) ) ;
#130 = PRESENTATION_LAYER_ASSIGNMENT (  '', '', ( #163 ) ) ;
#131 = CARTESIAN_POINT ( 'NONE',  ( 7.952243990263339486E-19, 0.0000000000000000000, 0.006493500000000000140 ) ) ;
#132 = DIMENSIONAL_EXPONENTS ( 1.000000000000000000, 0.0000000000000000000, 0.0000000000000000000, 0.0000000000000000000, 0.0000000000000000000, 0.0000000000000000000, 0.0000000000000000000 ) ;
#133 = EDGE_CURVE ( 'NONE', #47, #150, #179, .T. ) ;
#134 = FILL_AREA_STYLE_COLOUR ( '', #289 ) ;
#135 = FACE_OUTER_BOUND ( 'NONE', #53, .T. ) ;
#136 = CARTESIAN_POINT ( 'NONE',  ( 0.0000000000000000000, 0.0000000000000000000, 1.500000000000000222 ) ) ;
#137 = CARTESIAN_POINT ( 'NONE',  ( -0.006493499999999999273, 7.952243990263339486E-19, 0.01899999999999999953 ) ) ;
#138 = ORIENTED_EDGE ( 'NONE', *, *, #30, .F. ) ;
#139 = ADVANCED_FACE ( 'NONE', ( #135 ), #213, .T. ) ;
#140 = DIRECTION ( 'NONE',  ( 1.000000000000000000, 0.0000000000000000000, 0.0000000000000000000 ) ) ;
#141 = AXIS2_PLACEMENT_3D ( 'NONE', #77, #245, #48 ) ;
#142 = ADVANCED_BREP_SHAPE_REPRESENTATION ( 'Micro_BMS-013-2', ( #104, #228 ), #4 ) ;
#143 = DIRECTION ( 'NONE',  ( 1.000000000000000000, 0.0000000000000000000, 0.0000000000000000000 ) ) ;
#144 = PRODUCT_DEFINITION_CONTEXT ( 'detailed design', #174, 'design' ) ;
#145 = CARTESIAN_POINT ( 'NONE',  ( 7.952243990263339486E-19, 0.0000000000000000000, 0.006493500000000000140 ) ) ;
#146 = PRODUCT_CONTEXT ( 'NONE', #99, 'mechanical' ) ;
#147 = CIRCLE ( 'NONE', #141, 0.06250000000000000000 ) ;
#148 = CARTESIAN_POINT ( 'NONE',  ( 0.0000000000000000000, 0.0000000000000000000, 0.0000000000000000000 ) ) ;
#149 = EDGE_CURVE ( 'NONE', #95, #240, #39, .T. ) ;
#150 = VERTEX_POINT ( 'NONE', #178 ) ;
#151 = CARTESIAN_POINT ( 'NONE',  ( -0.006493499999999999273, 0.0000000000000000000, 7.952243990263338523E-19 ) ) ;
#152 = CARTESIAN_POINT ( 'NONE',  ( 0.0000000000000000000, 0.0000000000000000000, 0.0000000000000000000 ) ) ;
#153 = EDGE_LOOP ( 'NONE', ( #229, #49, #238, #98 ) ) ;
#154 = DIRECTION ( 'NONE',  ( -0.7071067811865456854, 0.0000000000000000000, -0.7071067811865493491 ) ) ;
#155 = SPHERICAL_SURFACE ( 'NONE', #56, 0.006493500000000000140 ) ;
#156 = AXIS2_PLACEMENT_3D ( 'NONE', #27, #10, #122 ) ;
#157 = CYLINDRICAL_SURFACE ( 'NONE', #126, 0.06250000000000000000 ) ;
#158 = ADVANCED_FACE ( 'NONE', ( #252 ), #157, .T. ) ;
#159 = PLANE ( 'NONE',  #312 ) ;
#160 = DIRECTION ( 'NONE',  ( -1.224646799147353454E-16, -0.0000000000000000000, -1.000000000000000000 ) ) ;
#161 = EDGE_CURVE ( 'NONE', #6, #240, #182, .T. ) ;
#162 = AXIS2_PLACEMENT_3D ( 'NONE', #270, #288, #58 ) ;
#163 = STYLED_ITEM ( 'NONE', ( #7 ), #142 ) ;
#164 = DIRECTION ( 'NONE',  ( -1.000000000000000000, 0.0000000000000000000, 0.0000000000000000000 ) ) ;
#165 = EDGE_CURVE ( 'NONE', #209, #247, #205, .T. ) ;
#166 = UNCERTAINTY_MEASURE_WITH_UNIT (LENGTH_MEASURE( 1.000000000000000082E-05 ), #175, 'distance_accuracy_value', 'NONE');
#167 = DIRECTION ( 'NONE',  ( -1.224646799147353454E-16, -0.0000000000000000000, -1.000000000000000000 ) ) ;
#168 =( NAMED_UNIT ( * ) SI_UNIT ( $, .STERADIAN. ) SOLID_ANGLE_UNIT ( ) );
#169 = CARTESIAN_POINT ( 'NONE',  ( 0.04750000000000064587, 5.817072295950006528E-18, 1.500000000000000222 ) ) ;
#170 = FILL_AREA_STYLE ('',( #268 ) ) ;
#171 = VECTOR ( 'NONE', #154, 39.37007874015748143 ) ;
#172 =( LENGTH_UNIT ( ) NAMED_UNIT ( * ) SI_UNIT ( $, .METRE. ) );
#173 = CARTESIAN_POINT ( 'NONE',  ( -0.006493499999999998405, 0.0000000000000000000, 0.006493500000000001007 ) ) ;
#174 = APPLICATION_CONTEXT ( 'automotive_design' ) ;
#175 =( CONVERSION_BASED_UNIT ( 'INCH', #2 ) LENGTH_UNIT ( ) NAMED_UNIT ( #181 ) );
#176 = ORIENTED_EDGE ( 'NONE', *, *, #133, .T. ) ;
#177 = DIRECTION ( 'NONE',  ( -1.000000000000000000, 0.0000000000000000000, 0.0000000000000000000 ) ) ;
#178 = CARTESIAN_POINT ( 'NONE',  ( 0.006493500000000000140, 7.952243990263336597E-19, 0.006493499999999999273 ) ) ;
#179 = CIRCLE ( 'NONE', #272, 0.006493499999999999273 ) ;
#180 = SURFACE_STYLE_USAGE ( .BOTH. , #61 ) ;
#181 = DIMENSIONAL_EXPONENTS ( 1.000000000000000000, 0.0000000000000000000, 0.0000000000000000000, 0.0000000000000000000, 0.0000000000000000000, 0.0000000000000000000, 0.0000000000000000000 ) ;
#182 = LINE ( 'NONE', #286, #25 ) ;
#183 = CARTESIAN_POINT ( 'NONE',  ( 4.122511928827407796E-17, 0.0000000000000000000, 0.3366286452304174670 ) ) ;
#184 = EDGE_CURVE ( 'NONE', #240, #95, #259, .T. ) ;
#185 = CONICAL_SURFACE ( 'NONE', #52, 0.006493500000000001007, 0.1745329251994338637 ) ;
#186 = DIMENSIONAL_EXPONENTS ( 1.000000000000000000, 0.0000000000000000000, 0.0000000000000000000, 0.0000000000000000000, 0.0000000000000000000, 0.0000000000000000000, 0.0000000000000000000 ) ;
#187 = CARTESIAN_POINT ( 'NONE',  ( 0.0000000000000000000, 0.0000000000000000000, 1.500000000000000222 ) ) ;
#188 = ORIENTED_EDGE ( 'NONE', *, *, #280, .F. ) ;
#189 = FACE_OUTER_BOUND ( 'NONE', #292, .T. ) ;
#190 = VECTOR ( 'NONE', #124, 39.37007874015748143 ) ;
#191 = CIRCLE ( 'NONE', #249, 0.06250000000000000000 ) ;
#192 =( CONVERSION_BASED_UNIT ( 'INCH', #115 ) LENGTH_UNIT ( ) NAMED_UNIT ( #132 ) );
#193 = DIRECTION ( 'NONE',  ( -1.000000000000000000, 0.0000000000000000000, 1.224646799147353454E-16 ) ) ;
#194 = EDGE_LOOP ( 'NONE', ( #197, #65, #303, #235 ) ) ;
#195 = PRODUCT_DEFINITION_SHAPE ( 'NONE', 'NONE',  #305 ) ;
#196 = SURFACE_SIDE_STYLE ('',( #74 ) ) ;
#197 = ORIENTED_EDGE ( 'NONE', *, *, #261, .F. ) ;
#198 = VECTOR ( 'NONE', #160, 39.37007874015748143 ) ;
#199 = ADVANCED_FACE ( 'NONE', ( #45 ), #117, .T. ) ;
#200 = EDGE_LOOP ( 'NONE', ( #263, #294, #128 ) ) ;
#201 = DIRECTION ( 'NONE',  ( 1.000000000000000000, 0.0000000000000000000, 0.0000000000000000000 ) ) ;
#202 = CARTESIAN_POINT ( 'NONE',  ( 4.122511928827407796E-17, 0.0000000000000000000, 0.3366286452304174670 ) ) ;
#203 = DIRECTION ( 'NONE',  ( 0.0000000000000000000, 0.0000000000000000000, 1.000000000000000000 ) ) ;
#204 = CIRCLE ( 'NONE', #243, 0.006493500000000000140 ) ;
#205 = LINE ( 'NONE', #85, #171 ) ;
#206 = PRESENTATION_STYLE_ASSIGNMENT (( #180 ) ) ;
#207 = CONICAL_SURFACE ( 'NONE', #308, 0.04750000000000064587, 0.7853981633974457255 ) ;
#208 = DIRECTION ( 'NONE',  ( 0.0000000000000000000, 0.0000000000000000000, -1.000000000000000000 ) ) ;
#209 = VERTEX_POINT ( 'NONE', #260 ) ;
#210 = CARTESIAN_POINT ( 'NONE',  ( 0.0000000000000000000, 0.0000000000000000000, 1.500000000000000222 ) ) ;
#211 = ORIENTED_EDGE ( 'NONE', *, *, #30, .T. ) ;
#212 = LINE ( 'NONE', #137, #264 ) ;
#213 = CONICAL_SURFACE ( 'NONE', #96, 0.006493500000000001007, 0.1745329251994338637 ) ;
#214 = DIRECTION ( 'NONE',  ( 1.224646799147353207E-16, 1.000000000000000000, -0.0000000000000000000 ) ) ;
#215 = EDGE_CURVE ( 'NONE', #73, #47, #204, .T. ) ;
#216 = ORIENTED_EDGE ( 'NONE', *, *, #114, .T. ) ;
#217 = DIRECTION ( 'NONE',  ( 1.000000000000000000, 0.0000000000000000000, 0.0000000000000000000 ) ) ;
#218 = ORIENTED_EDGE ( 'NONE', *, *, #5, .T. ) ;
#219 = AXIS2_PLACEMENT_3D ( 'NONE', #80, #79, #177 ) ;
#220 = VERTEX_POINT ( 'NONE', #265 ) ;
#221 = DIRECTION ( 'NONE',  ( -1.000000000000000000, 0.0000000000000000000, 0.0000000000000000000 ) ) ;
#222 = ORIENTED_EDGE ( 'NONE', *, *, #287, .F. ) ;
#223 = ADVANCED_FACE ( 'NONE', ( #233 ), #207, .T. ) ;
#224 = MECHANICAL_DESIGN_GEOMETRIC_PRESENTATION_REPRESENTATION (  '', ( #78 ), #9 ) ;
#225 = PRODUCT_RELATED_PRODUCT_CATEGORY ( 'part', '', ( #271 ) ) ;
#226 = DIRECTION ( 'NONE',  ( -0.0000000000000000000, -0.0000000000000000000, -1.000000000000000000 ) ) ;
#227 = AXIS2_PLACEMENT_3D ( 'NONE', #242, #24, #221 ) ;
#228 = AXIS2_PLACEMENT_3D ( 'NONE', #152, #273, #120 ) ;
#229 = ORIENTED_EDGE ( 'NONE', *, *, #276, .T. ) ;
#230 = CARTESIAN_POINT ( 'NONE',  ( 0.0000000000000000000, 0.0000000000000000000, 1.500000000000000222 ) ) ;
#231 = SURFACE_STYLE_FILL_AREA ( #290 ) ;
#232 = DIRECTION ( 'NONE',  ( 1.224646799147353454E-16, 0.0000000000000000000, 1.000000000000000000 ) ) ;
#233 = FACE_OUTER_BOUND ( 'NONE', #244, .T. ) ;
#234 = CARTESIAN_POINT ( 'NONE',  ( -0.06250000000000000000, 0.0000000000000000000, 1.485000000000000764 ) ) ;
#235 = ORIENTED_EDGE ( 'NONE', *, *, #184, .T. ) ;
#236 = VECTOR ( 'NONE', #88, 39.37007874015748143 ) ;
#237 = DIRECTION ( 'NONE',  ( 1.000000000000000000, 0.0000000000000000000, 0.0000000000000000000 ) ) ;
#238 = ORIENTED_EDGE ( 'NONE', *, *, #149, .F. ) ;
#239 = DIRECTION ( 'NONE',  ( 0.0000000000000000000, 0.0000000000000000000, -1.000000000000000000 ) ) ;
#240 = VERTEX_POINT ( 'NONE', #257 ) ;
#241 = ORIENTED_EDGE ( 'NONE', *, *, #46, .F. ) ;
#242 = CARTESIAN_POINT ( 'NONE',  ( 0.0000000000000000000, 0.0000000000000000000, 1.500000000000000222 ) ) ;
#243 = AXIS2_PLACEMENT_3D ( 'NONE', #119, #214, #1 ) ;
#244 = EDGE_LOOP ( 'NONE', ( #269, #218, #125, #299 ) ) ;
#245 = DIRECTION ( 'NONE',  ( 0.0000000000000000000, 0.0000000000000000000, -1.000000000000000000 ) ) ;
#246 = EDGE_CURVE ( 'NONE', #266, #209, #36, .T. ) ;
#247 = VERTEX_POINT ( 'NONE', #234 ) ;
#248 = DIRECTION ( 'NONE',  ( 0.0000000000000000000, 1.000000000000000000, 0.0000000000000000000 ) ) ;
#249 = AXIS2_PLACEMENT_3D ( 'NONE', #291, #113, #43 ) ;
#250 = DIRECTION ( 'NONE',  ( -1.000000000000000000, 0.0000000000000000000, 1.224646799147353454E-16 ) ) ;
#251 = LENGTH_MEASURE_WITH_UNIT ( LENGTH_MEASURE( 0.02539999999999999897 ), #127 );
#252 = FACE_OUTER_BOUND ( 'NONE', #153, .T. ) ;
#253 = CIRCLE ( 'NONE', #318, 0.006493500000000000140 ) ;
#254 = ADVANCED_FACE ( 'NONE', ( #320 ), #185, .T. ) ;
#255 = DIRECTION ( 'NONE',  ( -0.0000000000000000000, -0.0000000000000000000, -1.000000000000000000 ) ) ;
#256 = DIRECTION ( 'NONE',  ( -1.000000000000000000, 0.0000000000000000000, 1.643378952067610679E-16 ) ) ;
#257 = CARTESIAN_POINT ( 'NONE',  ( 0.06250000000000004163, 7.654042494670960626E-18, 0.3366286452304174670 ) ) ;
#258 = ORIENTED_EDGE ( 'NONE', *, *, #133, .F. ) ;
#259 = CIRCLE ( 'NONE', #121, 0.06250000000000000000 ) ;
#260 = CARTESIAN_POINT ( 'NONE',  ( -0.04750000000000064587, 0.0000000000000000000, 1.500000000000000222 ) ) ;
#261 = EDGE_CURVE ( 'NONE', #220, #95, #212, .T. ) ;
#262 =( LENGTH_UNIT ( ) NAMED_UNIT ( * ) SI_UNIT ( $, .METRE. ) );
#263 = ORIENTED_EDGE ( 'NONE', *, *, #114, .F. ) ;
#264 = VECTOR ( 'NONE', #296, 39.37007874015747433 ) ;
#265 = CARTESIAN_POINT ( 'NONE',  ( -0.006493499999999999273, 4.224633446848644976E-18, 0.01899999999999999953 ) ) ;
#266 = VERTEX_POINT ( 'NONE', #116 ) ;
#267 = FACE_OUTER_BOUND ( 'NONE', #325, .T. ) ;
#268 = FILL_AREA_STYLE_COLOUR ( '', #295 ) ;
#269 = ORIENTED_EDGE ( 'NONE', *, *, #246, .F. ) ;
#270 = CARTESIAN_POINT ( 'NONE',  ( 2.326828918379971334E-18, 0.0000000000000000000, 0.01899999999999999953 ) ) ;
#271 = PRODUCT ( 'Micro_BMS-013-2', 'Micro_BMS-013-2', '', ( #146 ) ) ;
#272 = AXIS2_PLACEMENT_3D ( 'NONE', #84, #129, #256 ) ;
#273 = DIRECTION ( 'NONE',  ( 0.0000000000000000000, 0.0000000000000000000, 1.000000000000000000 ) ) ;
#274 = ORIENTED_EDGE ( 'NONE', *, *, #287, .T. ) ;
#275 = SPHERICAL_SURFACE ( 'NONE', #107, 0.006493500000000000140 ) ;
#276 = EDGE_CURVE ( 'NONE', #247, #6, #191, .T. ) ;
#277 = EDGE_CURVE ( 'NONE', #298, #150, #322, .T. ) ;
#278 = SURFACE_STYLE_USAGE ( .BOTH. , #196 ) ;
#279 = ORIENTED_EDGE ( 'NONE', *, *, #184, .F. ) ;
#280 = EDGE_CURVE ( 'NONE', #298, #240, #91, .T. ) ;
#281 = ORIENTED_EDGE ( 'NONE', *, *, #261, .T. ) ;
#282 = LINE ( 'NONE', #169, #190 ) ;
#283 = PRESENTATION_LAYER_ASSIGNMENT (  '', '', ( #78 ) ) ;
#284 = CIRCLE ( 'NONE', #156, 0.006493499999999999273 ) ;
#285 =( NAMED_UNIT ( * ) PLANE_ANGLE_UNIT ( ) SI_UNIT ( $, .RADIAN. ) );
#286 = CARTESIAN_POINT ( 'NONE',  ( 0.06250000000000000000, 7.654042494670956004E-18, 1.500000000000000222 ) ) ;
#287 = EDGE_CURVE ( 'NONE', #209, #266, #102, .T. ) ;
#288 = DIRECTION ( 'NONE',  ( -1.224646799147353454E-16, -0.0000000000000000000, -1.000000000000000000 ) ) ;
#289 = COLOUR_RGB ( '',0.7921568627450980005, 0.8196078431372548767, 0.9333333333333333481 ) ;
#290 = FILL_AREA_STYLE ('',( #134 ) ) ;
#291 = CARTESIAN_POINT ( 'NONE',  ( 0.0000000000000000000, 0.0000000000000000000, 1.485000000000000764 ) ) ;
#292 = EDGE_LOOP ( 'NONE', ( #28, #306, #211, #176 ) ) ;
#293 = CARTESIAN_POINT ( 'NONE',  ( 0.0000000000000000000, 0.0000000000000000000, 0.0000000000000000000 ) ) ;
#294 = ORIENTED_EDGE ( 'NONE', *, *, #215, .T. ) ;
#295 = COLOUR_RGB ( '',0.7921568627450980005, 0.8196078431372548767, 0.9333333333333333481 ) ;
#296 = DIRECTION ( 'NONE',  ( -0.1736481776669311639, 2.126576849575783008E-17, 0.9848077530122080203 ) ) ;
#297 = UNCERTAINTY_MEASURE_WITH_UNIT (LENGTH_MEASURE( 1.000000000000000082E-05 ), #83, 'distance_accuracy_value', 'NONE');
#298 = VERTEX_POINT ( 'NONE', #18 ) ;
#299 = ORIENTED_EDGE ( 'NONE', *, *, #165, .F. ) ;
#300 = CYLINDRICAL_SURFACE ( 'NONE', #33, 0.006493499999999999273 ) ;
#301 = EDGE_LOOP ( 'NONE', ( #41, #309, #8, #279 ) ) ;
#302 = APPLICATION_PROTOCOL_DEFINITION ( 'draft international standard', 'automotive_design', 1998, #99 ) ;
#303 = ORIENTED_EDGE ( 'NONE', *, *, #280, .T. ) ;
#304 = APPLICATION_PROTOCOL_DEFINITION ( 'draft international standard', 'automotive_design', 1998, #174 ) ;
#305 = PRODUCT_DEFINITION ( 'UNKNOWN', '', #319, #144 ) ;
#306 = ORIENTED_EDGE ( 'NONE', *, *, #101, .T. ) ;
#307 = DIRECTION ( 'NONE',  ( -1.224646799147353454E-16, -0.0000000000000000000, -1.000000000000000000 ) ) ;
#308 = AXIS2_PLACEMENT_3D ( 'NONE', #136, #239, #19 ) ;
#309 = ORIENTED_EDGE ( 'NONE', *, *, #63, .T. ) ;
#310 = FACE_OUTER_BOUND ( 'NONE', #22, .T. ) ;
#311 = DIRECTION ( 'NONE',  ( -1.224646799147353454E-16, -0.0000000000000000000, -1.000000000000000000 ) ) ;
#312 = AXIS2_PLACEMENT_3D ( 'NONE', #35, #203, #313 ) ;
#313 = DIRECTION ( 'NONE',  ( 1.000000000000000000, 0.0000000000000000000, -0.0000000000000000000 ) ) ;
#314 = LINE ( 'NONE', #14, #3 ) ;
#315 = CARTESIAN_POINT ( 'NONE',  ( 2.326828918379971334E-18, 0.0000000000000000000, 0.01899999999999999953 ) ) ;
#316 = ADVANCED_FACE ( 'NONE', ( #189 ), #93, .T. ) ;
#317 = FACE_OUTER_BOUND ( 'NONE', #26, .T. ) ;
#318 = AXIS2_PLACEMENT_3D ( 'NONE', #131, #106, #62 ) ;
#319 = PRODUCT_DEFINITION_FORMATION_WITH_SPECIFIED_SOURCE ( 'ANY', '', #271, .NOT_KNOWN. ) ;
#320 = FACE_OUTER_BOUND ( 'NONE', #194, .T. ) ;
#321 = UNCERTAINTY_MEASURE_WITH_UNIT (LENGTH_MEASURE( 1.000000000000000082E-05 ), #192, 'distance_accuracy_value', 'NONE');
#322 = LINE ( 'NONE', #64, #198 ) ;
#323 =( NAMED_UNIT ( * ) PLANE_ANGLE_UNIT ( ) SI_UNIT ( $, .RADIAN. ) );
#324 = DIRECTION ( 'NONE',  ( 0.0000000000000000000, 0.0000000000000000000, 1.000000000000000000 ) ) ;
#325 = EDGE_LOOP ( 'NONE', ( #92, #216, #258 ) ) ;
ENDSEC;
END-ISO-10303-21;
