ISO-10303-21;
HEADER;
FILE_DESCRIPTION (( 'STEP AP214' ),
    '1' );
FILE_NAME ('Micro_RTC-500-2.STEP',
    '2021-09-03T18:17:42',
    ( '' ),
    ( '' ),
    'SwSTEP 2.0',
    'SolidWorks 2020',
    '' );
FILE_SCHEMA (( 'AUTOMOTIVE_DESIGN' ));
ENDSEC;

DATA;
#1 = VERTEX_POINT ( 'NONE', #214 ) ;
#2 = ORIENTED_EDGE ( 'NONE', *, *, #114, .F. ) ;
#3 = COLOUR_RGB ( '',0.7921568627450980005, 0.8196078431372548767, 0.9333333333333333481 ) ;
#4 = PRODUCT_DEFINITION ( 'UNKNOWN', '', #154, #57 ) ;
#5 = ORIENTED_EDGE ( 'NONE', *, *, #164, .T. ) ;
#6 = SURFACE_SIDE_STYLE ('',( #179 ) ) ;
#7 = EDGE_CURVE ( 'NONE', #211, #233, #78, .T. ) ;
#8 = AXIS2_PLACEMENT_3D ( 'NONE', #150, #128, #73 ) ;
#9 = CARTESIAN_POINT ( 'NONE',  ( 0.0000000000000000000, 0.0000000000000000000, 3.000000000000000444 ) ) ;
#10 = EDGE_CURVE ( 'NONE', #1, #63, #153, .T. ) ;
#11 = VECTOR ( 'NONE', #209, 39.37007874015748143 ) ;
#12 = AXIS2_PLACEMENT_3D ( 'NONE', #225, #34, #148 ) ;
#13 = CARTESIAN_POINT ( 'NONE',  ( 0.003999999999999999216, 0.0000000000000000000, 0.0000000000000000000 ) ) ;
#14 = CARTESIAN_POINT ( 'NONE',  ( -0.2500000000000000000, 0.0000000000000000000, 2.081915501338059915 ) ) ;
#15 = LINE ( 'NONE', #55, #11 ) ;
#16 = UNCERTAINTY_MEASURE_WITH_UNIT (LENGTH_MEASURE( 1.000000000000000082E-05 ), #129, 'distance_accuracy_value', 'NONE');
#17 = EDGE_CURVE ( 'NONE', #64, #211, #59, .T. ) ;
#18 = VECTOR ( 'NONE', #92, 39.37007874015748143 ) ;
#19 = EDGE_LOOP ( 'NONE', ( #173, #194, #199, #228 ) ) ;
#20 = UNCERTAINTY_MEASURE_WITH_UNIT (LENGTH_MEASURE( 1.000000000000000082E-05 ), #132, 'distance_accuracy_value', 'NONE');
#21 = VERTEX_POINT ( 'NONE', #67 ) ;
#22 = DIMENSIONAL_EXPONENTS ( 1.000000000000000000, 0.0000000000000000000, 0.0000000000000000000, 0.0000000000000000000, 0.0000000000000000000, 0.0000000000000000000, 0.0000000000000000000 ) ;
#23 = ORIENTED_EDGE ( 'NONE', *, *, #237, .F. ) ;
#24 = AXIS2_PLACEMENT_3D ( 'NONE', #219, #182, #48 ) ;
#25 = ORIENTED_EDGE ( 'NONE', *, *, #77, .F. ) ;
#26 = FILL_AREA_STYLE_COLOUR ( '', #3 ) ;
#27 = PRESENTATION_STYLE_ASSIGNMENT (( #184 ) ) ;
#28 = DIRECTION ( 'NONE',  ( 1.000000000000000000, 0.0000000000000000000, 0.0000000000000000000 ) ) ;
#29 = CARTESIAN_POINT ( 'NONE',  ( 0.0000000000000000000, 0.0000000000000000000, 3.000000000000000444 ) ) ;
#30 = DIRECTION ( 'NONE',  ( 1.000000000000000000, 0.0000000000000000000, -0.0000000000000000000 ) ) ;
#31 = AXIS2_PLACEMENT_3D ( 'NONE', #126, #109, #125 ) ;
#32 = CARTESIAN_POINT ( 'NONE',  ( -0.2500000000000000000, 0.0000000000000000000, 0.9180844986619400849 ) ) ;
#33 = PLANE ( 'NONE',  #135 ) ;
#34 = DIRECTION ( 'NONE',  ( 0.0000000000000000000, 0.0000000000000000000, -1.000000000000000000 ) ) ;
#35 = AXIS2_PLACEMENT_3D ( 'NONE', #172, #244, #247 ) ;
#36 = DIRECTION ( 'NONE',  ( -1.000000000000000000, 0.0000000000000000000, 0.0000000000000000000 ) ) ;
#37 = ADVANCED_FACE ( 'NONE', ( #166 ), #103, .T. ) ;
#38 = ORIENTED_EDGE ( 'NONE', *, *, #205, .T. ) ;
#39 = EDGE_LOOP ( 'NONE', ( #76, #230, #98, #162 ) ) ;
#40 = VECTOR ( 'NONE', #208, 39.37007874015748143 ) ;
#41 =( NAMED_UNIT ( * ) SI_UNIT ( $, .STERADIAN. ) SOLID_ANGLE_UNIT ( ) );
#42 = CARTESIAN_POINT ( 'NONE',  ( 0.0000000000000000000, 0.0000000000000000000, 0.0000000000000000000 ) ) ;
#43 = DIMENSIONAL_EXPONENTS ( 1.000000000000000000, 0.0000000000000000000, 0.0000000000000000000, 0.0000000000000000000, 0.0000000000000000000, 0.0000000000000000000, 0.0000000000000000000 ) ;
#44 = EDGE_LOOP ( 'NONE', ( #23, #156 ) ) ;
#45 = FACE_OUTER_BOUND ( 'NONE', #44, .T. ) ;
#46 = DIRECTION ( 'NONE',  ( -0.2588190451025216832, -3.169619151431776035E-17, -0.9659258262890679791 ) ) ;
#47 = CONICAL_SURFACE ( 'NONE', #235, 0.003999999999999999216, 0.2617993877991502960 ) ;
#48 = DIRECTION ( 'NONE',  ( -1.000000000000000000, 0.0000000000000000000, 0.0000000000000000000 ) ) ;
#49 = ADVANCED_FACE ( 'NONE', ( #45 ), #169, .T. ) ;
#50 = CARTESIAN_POINT ( 'NONE',  ( 0.2500000000000000000, 3.061616997868382402E-17, 2.081915501338059915 ) ) ;
#51 = DIRECTION ( 'NONE',  ( 1.000000000000000000, 0.0000000000000000000, 0.0000000000000000000 ) ) ;
#52 = PRODUCT_RELATED_PRODUCT_CATEGORY ( 'part', '', ( #146 ) ) ;
#53 = CIRCLE ( 'NONE', #35, 0.2500000000000000000 ) ;
#54 = DIRECTION ( 'NONE',  ( -0.0000000000000000000, -0.0000000000000000000, -1.000000000000000000 ) ) ;
#55 = CARTESIAN_POINT ( 'NONE',  ( -0.003999999999999999216, 4.898587196589411612E-19, 0.0000000000000000000 ) ) ;
#56 = CYLINDRICAL_SURFACE ( 'NONE', #231, 0.2500000000000000000 ) ;
#57 = PRODUCT_DEFINITION_CONTEXT ( 'detailed design', #96, 'design' ) ;
#58 = CARTESIAN_POINT ( 'NONE',  ( 0.003999999999999999216, 0.0000000000000000000, 3.000000000000000444 ) ) ;
#59 = CIRCLE ( 'NONE', #24, 0.2500000000000000000 ) ;
#60 = VECTOR ( 'NONE', #46, 39.37007874015748143 ) ;
#61 = EDGE_LOOP ( 'NONE', ( #138, #175, #118, #134 ) ) ;
#62 =( GEOMETRIC_REPRESENTATION_CONTEXT ( 3 ) GLOBAL_UNCERTAINTY_ASSIGNED_CONTEXT ( ( #20 ) ) GLOBAL_UNIT_ASSIGNED_CONTEXT ( ( #132, #74, #41 ) ) REPRESENTATION_CONTEXT ( 'NONE', 'WORKASPACE' ) );
#63 = VERTEX_POINT ( 'NONE', #84 ) ;
#64 = VERTEX_POINT ( 'NONE', #50 ) ;
#65 = EDGE_CURVE ( 'NONE', #64, #21, #242, .T. ) ;
#66 = CIRCLE ( 'NONE', #8, 0.003999999999999999216 ) ;
#67 = CARTESIAN_POINT ( 'NONE',  ( 0.2500000000000000000, 3.061616997868382402E-17, 0.9180844986619400849 ) ) ;
#68 = ADVANCED_FACE ( 'NONE', ( #201 ), #202, .T. ) ;
#69 = DIRECTION ( 'NONE',  ( -0.0000000000000000000, -0.0000000000000000000, -1.000000000000000000 ) ) ;
#70 = LINE ( 'NONE', #220, #60 ) ;
#71 = CARTESIAN_POINT ( 'NONE',  ( 0.0000000000000000000, 0.0000000000000000000, 3.000000000000000444 ) ) ;
#72 = CARTESIAN_POINT ( 'NONE',  ( 0.0000000000000000000, 0.0000000000000000000, 0.0000000000000000000 ) ) ;
#73 = DIRECTION ( 'NONE',  ( -1.000000000000000000, 0.0000000000000000000, 0.0000000000000000000 ) ) ;
#74 =( NAMED_UNIT ( * ) PLANE_ANGLE_UNIT ( ) SI_UNIT ( $, .RADIAN. ) );
#75 = STYLED_ITEM ( 'NONE', ( #79 ), #133 ) ;
#76 = ORIENTED_EDGE ( 'NONE', *, *, #217, .T. ) ;
#77 = EDGE_CURVE ( 'NONE', #21, #233, #111, .T. ) ;
#78 = LINE ( 'NONE', #157, #234 ) ;
#79 = PRESENTATION_STYLE_ASSIGNMENT (( #215 ) ) ;
#80 = PRESENTATION_LAYER_ASSIGNMENT (  '', '', ( #75 ) ) ;
#81 = EDGE_LOOP ( 'NONE', ( #197, #38, #5, #140 ) ) ;
#82 = EDGE_CURVE ( 'NONE', #117, #211, #70, .T. ) ;
#83 = ORIENTED_EDGE ( 'NONE', *, *, #77, .T. ) ;
#84 = CARTESIAN_POINT ( 'NONE',  ( 0.003999999999999999216, 0.0000000000000000000, 0.0000000000000000000 ) ) ;
#85 = DIRECTION ( 'NONE',  ( -0.0000000000000000000, -0.0000000000000000000, -1.000000000000000000 ) ) ;
#86 = MANIFOLD_SOLID_BREP ( 'Mirror1', #176 ) ;
#87 = ADVANCED_FACE ( 'NONE', ( #106 ), #130, .T. ) ;
#88 = CARTESIAN_POINT ( 'NONE',  ( 0.0000000000000000000, 0.0000000000000000000, 3.000000000000000444 ) ) ;
#89 = DIRECTION ( 'NONE',  ( 1.000000000000000000, 0.0000000000000000000, 0.0000000000000000000 ) ) ;
#90 = MECHANICAL_DESIGN_GEOMETRIC_PRESENTATION_REPRESENTATION (  '', ( #108 ), #145 ) ;
#91 = EDGE_CURVE ( 'NONE', #233, #21, #139, .T. ) ;
#92 = DIRECTION ( 'NONE',  ( 0.2588190451025216832, 0.0000000000000000000, 0.9659258262890679791 ) ) ;
#93 =( LENGTH_UNIT ( ) NAMED_UNIT ( * ) SI_UNIT ( $, .METRE. ) );
#94 = FACE_OUTER_BOUND ( 'NONE', #163, .T. ) ;
#95 = AXIS2_PLACEMENT_3D ( 'NONE', #203, #142, #28 ) ;
#96 = APPLICATION_CONTEXT ( 'automotive_design' ) ;
#97 = SURFACE_STYLE_FILL_AREA ( #190 ) ;
#98 = ORIENTED_EDGE ( 'NONE', *, *, #91, .F. ) ;
#99 = ORIENTED_EDGE ( 'NONE', *, *, #17, .T. ) ;
#100 = AXIS2_PLACEMENT_3D ( 'NONE', #243, #186, #51 ) ;
#101 = EDGE_CURVE ( 'NONE', #63, #21, #123, .T. ) ;
#102 = EDGE_LOOP ( 'NONE', ( #136, #216 ) ) ;
#103 = CYLINDRICAL_SURFACE ( 'NONE', #221, 0.2500000000000000000 ) ;
#104 =( NAMED_UNIT ( * ) PLANE_ANGLE_UNIT ( ) SI_UNIT ( $, .RADIAN. ) );
#105 =( CONVERSION_BASED_UNIT ( 'INCH', #241 ) LENGTH_UNIT ( ) NAMED_UNIT ( #22 ) );
#106 = FACE_OUTER_BOUND ( 'NONE', #81, .T. ) ;
#107 = DIRECTION ( 'NONE',  ( 0.0000000000000000000, 0.0000000000000000000, -1.000000000000000000 ) ) ;
#108 = STYLED_ITEM ( 'NONE', ( #27 ), #86 ) ;
#109 = DIRECTION ( 'NONE',  ( 0.0000000000000000000, 0.0000000000000000000, -1.000000000000000000 ) ) ;
#110 = APPLICATION_PROTOCOL_DEFINITION ( 'draft international standard', 'automotive_design', 1998, #193 ) ;
#111 = CIRCLE ( 'NONE', #165, 0.2500000000000000000 ) ;
#112 = FACE_OUTER_BOUND ( 'NONE', #102, .T. ) ;
#113 = LENGTH_MEASURE_WITH_UNIT ( LENGTH_MEASURE( 0.02539999999999999897 ), #93 );
#114 = EDGE_CURVE ( 'NONE', #1, #233, #15, .T. ) ;
#115 = DIRECTION ( 'NONE',  ( 1.000000000000000000, 0.0000000000000000000, 0.0000000000000000000 ) ) ;
#116 = ORIENTED_EDGE ( 'NONE', *, *, #65, .F. ) ;
#117 = VERTEX_POINT ( 'NONE', #170 ) ;
#118 = ORIENTED_EDGE ( 'NONE', *, *, #17, .F. ) ;
#119 =( GEOMETRIC_REPRESENTATION_CONTEXT ( 3 ) GLOBAL_UNCERTAINTY_ASSIGNED_CONTEXT ( ( #16 ) ) GLOBAL_UNIT_ASSIGNED_CONTEXT ( ( #129, #189, #187 ) ) REPRESENTATION_CONTEXT ( 'NONE', 'WORKASPACE' ) );
#120 = DIRECTION ( 'NONE',  ( -0.0000000000000000000, -0.0000000000000000000, -1.000000000000000000 ) ) ;
#121 = DIRECTION ( 'NONE',  ( 0.0000000000000000000, 0.0000000000000000000, 1.000000000000000000 ) ) ;
#122 = DIRECTION ( 'NONE',  ( -1.000000000000000000, 0.0000000000000000000, 0.0000000000000000000 ) ) ;
#123 = LINE ( 'NONE', #13, #18 ) ;
#124 = ADVANCED_FACE ( 'NONE', ( #185 ), #47, .T. ) ;
#125 = DIRECTION ( 'NONE',  ( -1.000000000000000000, 0.0000000000000000000, 0.0000000000000000000 ) ) ;
#126 = CARTESIAN_POINT ( 'NONE',  ( 0.0000000000000000000, 0.0000000000000000000, 3.000000000000000444 ) ) ;
#127 = EDGE_CURVE ( 'NONE', #63, #1, #66, .T. ) ;
#128 = DIRECTION ( 'NONE',  ( -0.0000000000000000000, -0.0000000000000000000, -1.000000000000000000 ) ) ;
#129 =( CONVERSION_BASED_UNIT ( 'INCH', #113 ) LENGTH_UNIT ( ) NAMED_UNIT ( #43 ) );
#130 = CONICAL_SURFACE ( 'NONE', #248, 0.003999999999999999216, 0.2617993877991502960 ) ;
#131 = CARTESIAN_POINT ( 'NONE',  ( 0.003999999999999999216, 0.0000000000000000000, 3.000000000000000444 ) ) ;
#132 =( CONVERSION_BASED_UNIT ( 'INCH', #174 ) LENGTH_UNIT ( ) NAMED_UNIT ( #161 ) );
#133 = ADVANCED_BREP_SHAPE_REPRESENTATION ( 'Micro_RTC-500-2', ( #86, #181 ), #119 ) ;
#134 = ORIENTED_EDGE ( 'NONE', *, *, #164, .F. ) ;
#135 = AXIS2_PLACEMENT_3D ( 'NONE', #72, #206, #151 ) ;
#136 = ORIENTED_EDGE ( 'NONE', *, *, #127, .T. ) ;
#137 = ADVANCED_FACE ( 'NONE', ( #112 ), #33, .F. ) ;
#138 = ORIENTED_EDGE ( 'NONE', *, *, #237, .T. ) ;
#139 = CIRCLE ( 'NONE', #240, 0.2500000000000000000 ) ;
#140 = ORIENTED_EDGE ( 'NONE', *, *, #217, .F. ) ;
#141 = ADVANCED_FACE ( 'NONE', ( #94 ), #188, .T. ) ;
#142 = DIRECTION ( 'NONE',  ( 0.0000000000000000000, 0.0000000000000000000, -1.000000000000000000 ) ) ;
#143 =( LENGTH_UNIT ( ) NAMED_UNIT ( * ) SI_UNIT ( $, .METRE. ) );
#144 = DIRECTION ( 'NONE',  ( -0.0000000000000000000, -0.0000000000000000000, -1.000000000000000000 ) ) ;
#145 =( GEOMETRIC_REPRESENTATION_CONTEXT ( 3 ) GLOBAL_UNCERTAINTY_ASSIGNED_CONTEXT ( ( #152 ) ) GLOBAL_UNIT_ASSIGNED_CONTEXT ( ( #105, #104, #183 ) ) REPRESENTATION_CONTEXT ( 'NONE', 'WORKASPACE' ) );
#146 = PRODUCT ( 'Micro_RTC-500-2', 'Micro_RTC-500-2', '', ( #159 ) ) ;
#147 = CARTESIAN_POINT ( 'NONE',  ( 0.0000000000000000000, 0.0000000000000000000, 0.9180844986619400849 ) ) ;
#148 = DIRECTION ( 'NONE',  ( -1.000000000000000000, 0.0000000000000000000, 0.0000000000000000000 ) ) ;
#149 = COLOUR_RGB ( '',0.7921568627450980005, 0.8196078431372548767, 0.9333333333333333481 ) ;
#150 = CARTESIAN_POINT ( 'NONE',  ( 0.0000000000000000000, 0.0000000000000000000, 0.0000000000000000000 ) ) ;
#151 = DIRECTION ( 'NONE',  ( 1.000000000000000000, 0.0000000000000000000, -0.0000000000000000000 ) ) ;
#152 = UNCERTAINTY_MEASURE_WITH_UNIT (LENGTH_MEASURE( 1.000000000000000082E-05 ), #105, 'distance_accuracy_value', 'NONE');
#153 = CIRCLE ( 'NONE', #158, 0.003999999999999999216 ) ;
#154 = PRODUCT_DEFINITION_FORMATION_WITH_SPECIFIED_SOURCE ( 'ANY', '', #146, .NOT_KNOWN. ) ;
#155 = CARTESIAN_POINT ( 'NONE',  ( 0.0000000000000000000, 0.0000000000000000000, 0.0000000000000000000 ) ) ;
#156 = ORIENTED_EDGE ( 'NONE', *, *, #205, .F. ) ;
#157 = CARTESIAN_POINT ( 'NONE',  ( -0.2500000000000000000, 0.0000000000000000000, 3.000000000000000444 ) ) ;
#158 = AXIS2_PLACEMENT_3D ( 'NONE', #42, #85, #236 ) ;
#159 = PRODUCT_CONTEXT ( 'NONE', #193, 'mechanical' ) ;
#160 = ORIENTED_EDGE ( 'NONE', *, *, #127, .F. ) ;
#161 = DIMENSIONAL_EXPONENTS ( 1.000000000000000000, 0.0000000000000000000, 0.0000000000000000000, 0.0000000000000000000, 0.0000000000000000000, 0.0000000000000000000, 0.0000000000000000000 ) ;
#162 = ORIENTED_EDGE ( 'NONE', *, *, #7, .F. ) ;
#163 = EDGE_LOOP ( 'NONE', ( #2, #160, #196, #83 ) ) ;
#164 = EDGE_CURVE ( 'NONE', #177, #64, #171, .T. ) ;
#165 = AXIS2_PLACEMENT_3D ( 'NONE', #147, #120, #204 ) ;
#166 = FACE_OUTER_BOUND ( 'NONE', #39, .T. ) ;
#167 = CARTESIAN_POINT ( 'NONE',  ( 0.0000000000000000000, 0.0000000000000000000, 0.9180844986619400849 ) ) ;
#168 = DIRECTION ( 'NONE',  ( -1.000000000000000000, 0.0000000000000000000, 0.0000000000000000000 ) ) ;
#169 = PLANE ( 'NONE',  #180 ) ;
#170 = CARTESIAN_POINT ( 'NONE',  ( -0.003999999999999999216, -1.555301434917138211E-17, 3.000000000000000444 ) ) ;
#171 = LINE ( 'NONE', #131, #40 ) ;
#172 = CARTESIAN_POINT ( 'NONE',  ( 0.0000000000000000000, 0.0000000000000000000, 2.081915501338059915 ) ) ;
#173 = ORIENTED_EDGE ( 'NONE', *, *, #10, .F. ) ;
#174 = LENGTH_MEASURE_WITH_UNIT ( LENGTH_MEASURE( 0.02539999999999999897 ), #213 );
#175 = ORIENTED_EDGE ( 'NONE', *, *, #82, .T. ) ;
#176 = CLOSED_SHELL ( 'NONE', ( #68, #124, #37, #200, #141, #137, #87, #49 ) ) ;
#177 = VERTEX_POINT ( 'NONE', #58 ) ;
#178 = EDGE_LOOP ( 'NONE', ( #116, #99, #232, #25 ) ) ;
#179 = SURFACE_STYLE_FILL_AREA ( #239 ) ;
#180 = AXIS2_PLACEMENT_3D ( 'NONE', #9, #121, #30 ) ;
#181 = AXIS2_PLACEMENT_3D ( 'NONE', #155, #195, #115 ) ;
#182 = DIRECTION ( 'NONE',  ( 0.0000000000000000000, 0.0000000000000000000, -1.000000000000000000 ) ) ;
#183 =( NAMED_UNIT ( * ) SI_UNIT ( $, .STERADIAN. ) SOLID_ANGLE_UNIT ( ) );
#184 = SURFACE_STYLE_USAGE ( .BOTH. , #6 ) ;
#185 = FACE_OUTER_BOUND ( 'NONE', #19, .T. ) ;
#186 = DIRECTION ( 'NONE',  ( 0.0000000000000000000, 0.0000000000000000000, 1.000000000000000000 ) ) ;
#187 =( NAMED_UNIT ( * ) SI_UNIT ( $, .STERADIAN. ) SOLID_ANGLE_UNIT ( ) );
#188 = CONICAL_SURFACE ( 'NONE', #100, 0.003999999999999999216, 0.2617993877991502960 ) ;
#189 =( NAMED_UNIT ( * ) PLANE_ANGLE_UNIT ( ) SI_UNIT ( $, .RADIAN. ) );
#190 = FILL_AREA_STYLE ('',( #210 ) ) ;
#191 = SURFACE_SIDE_STYLE ('',( #97 ) ) ;
#192 = DIRECTION ( 'NONE',  ( -0.0000000000000000000, -0.0000000000000000000, -1.000000000000000000 ) ) ;
#193 = APPLICATION_CONTEXT ( 'automotive_design' ) ;
#194 = ORIENTED_EDGE ( 'NONE', *, *, #114, .T. ) ;
#195 = DIRECTION ( 'NONE',  ( 0.0000000000000000000, 0.0000000000000000000, 1.000000000000000000 ) ) ;
#196 = ORIENTED_EDGE ( 'NONE', *, *, #101, .T. ) ;
#197 = ORIENTED_EDGE ( 'NONE', *, *, #82, .F. ) ;
#198 = PRESENTATION_LAYER_ASSIGNMENT (  '', '', ( #108 ) ) ;
#199 = ORIENTED_EDGE ( 'NONE', *, *, #91, .T. ) ;
#200 = ADVANCED_FACE ( 'NONE', ( #246 ), #56, .T. ) ;
#201 = FACE_OUTER_BOUND ( 'NONE', #61, .T. ) ;
#202 = CONICAL_SURFACE ( 'NONE', #95, 0.003999999999999999216, 0.2617993877991502960 ) ;
#203 = CARTESIAN_POINT ( 'NONE',  ( 0.0000000000000000000, 0.0000000000000000000, 3.000000000000000444 ) ) ;
#204 = DIRECTION ( 'NONE',  ( -1.000000000000000000, 0.0000000000000000000, 0.0000000000000000000 ) ) ;
#205 = EDGE_CURVE ( 'NONE', #117, #177, #218, .T. ) ;
#206 = DIRECTION ( 'NONE',  ( 0.0000000000000000000, 0.0000000000000000000, 1.000000000000000000 ) ) ;
#207 = DIRECTION ( 'NONE',  ( 1.000000000000000000, 0.0000000000000000000, 0.0000000000000000000 ) ) ;
#208 = DIRECTION ( 'NONE',  ( 0.2588190451025216832, 0.0000000000000000000, -0.9659258262890679791 ) ) ;
#209 = DIRECTION ( 'NONE',  ( -0.2588190451025216832, 3.169619151431776035E-17, 0.9659258262890679791 ) ) ;
#210 = FILL_AREA_STYLE_COLOUR ( '', #149 ) ;
#211 = VERTEX_POINT ( 'NONE', #14 ) ;
#212 = VECTOR ( 'NONE', #238, 39.37007874015748143 ) ;
#213 =( LENGTH_UNIT ( ) NAMED_UNIT ( * ) SI_UNIT ( $, .METRE. ) );
#214 = CARTESIAN_POINT ( 'NONE',  ( -0.003999999999999999216, 1.555301434917138211E-17, 0.0000000000000000000 ) ) ;
#215 = SURFACE_STYLE_USAGE ( .BOTH. , #191 ) ;
#216 = ORIENTED_EDGE ( 'NONE', *, *, #10, .T. ) ;
#217 = EDGE_CURVE ( 'NONE', #211, #64, #53, .T. ) ;
#218 = CIRCLE ( 'NONE', #12, 0.003999999999999999216 ) ;
#219 = CARTESIAN_POINT ( 'NONE',  ( 0.0000000000000000000, 0.0000000000000000000, 2.081915501338059915 ) ) ;
#220 = CARTESIAN_POINT ( 'NONE',  ( -0.003999999999999999216, -4.898587196589411612E-19, 3.000000000000000444 ) ) ;
#221 = AXIS2_PLACEMENT_3D ( 'NONE', #29, #144, #122 ) ;
#222 = CIRCLE ( 'NONE', #31, 0.003999999999999999216 ) ;
#223 = CARTESIAN_POINT ( 'NONE',  ( 0.2500000000000000000, 3.061616997868382402E-17, 3.000000000000000444 ) ) ;
#224 = MECHANICAL_DESIGN_GEOMETRIC_PRESENTATION_REPRESENTATION (  '', ( #75 ), #62 ) ;
#225 = CARTESIAN_POINT ( 'NONE',  ( 0.0000000000000000000, 0.0000000000000000000, 3.000000000000000444 ) ) ;
#226 = CARTESIAN_POINT ( 'NONE',  ( 0.0000000000000000000, 0.0000000000000000000, 0.0000000000000000000 ) ) ;
#227 = APPLICATION_PROTOCOL_DEFINITION ( 'draft international standard', 'automotive_design', 1998, #96 ) ;
#228 = ORIENTED_EDGE ( 'NONE', *, *, #101, .F. ) ;
#229 = SHAPE_DEFINITION_REPRESENTATION ( #249, #133 ) ;
#230 = ORIENTED_EDGE ( 'NONE', *, *, #65, .T. ) ;
#231 = AXIS2_PLACEMENT_3D ( 'NONE', #71, #54, #36 ) ;
#232 = ORIENTED_EDGE ( 'NONE', *, *, #7, .T. ) ;
#233 = VERTEX_POINT ( 'NONE', #32 ) ;
#234 = VECTOR ( 'NONE', #192, 39.37007874015748143 ) ;
#235 = AXIS2_PLACEMENT_3D ( 'NONE', #226, #245, #207 ) ;
#236 = DIRECTION ( 'NONE',  ( -1.000000000000000000, 0.0000000000000000000, 0.0000000000000000000 ) ) ;
#237 = EDGE_CURVE ( 'NONE', #177, #117, #222, .T. ) ;
#238 = DIRECTION ( 'NONE',  ( -0.0000000000000000000, -0.0000000000000000000, -1.000000000000000000 ) ) ;
#239 = FILL_AREA_STYLE ('',( #26 ) ) ;
#240 = AXIS2_PLACEMENT_3D ( 'NONE', #167, #69, #168 ) ;
#241 = LENGTH_MEASURE_WITH_UNIT ( LENGTH_MEASURE( 0.02539999999999999897 ), #143 );
#242 = LINE ( 'NONE', #223, #212 ) ;
#243 = CARTESIAN_POINT ( 'NONE',  ( 0.0000000000000000000, 0.0000000000000000000, 0.0000000000000000000 ) ) ;
#244 = DIRECTION ( 'NONE',  ( 0.0000000000000000000, 0.0000000000000000000, -1.000000000000000000 ) ) ;
#245 = DIRECTION ( 'NONE',  ( 0.0000000000000000000, 0.0000000000000000000, 1.000000000000000000 ) ) ;
#246 = FACE_OUTER_BOUND ( 'NONE', #178, .T. ) ;
#247 = DIRECTION ( 'NONE',  ( -1.000000000000000000, 0.0000000000000000000, 0.0000000000000000000 ) ) ;
#248 = AXIS2_PLACEMENT_3D ( 'NONE', #88, #107, #89 ) ;
#249 = PRODUCT_DEFINITION_SHAPE ( 'NONE', 'NONE',  #4 ) ;
ENDSEC;
END-ISO-10303-21;
