ISO-10303-21;
HEADER;
FILE_DESCRIPTION (( 'STEP AP214' ),
    '1' );
FILE_NAME ('Micro_GEC-625-3-030.STEP',
    '2021-09-03T17:26:58',
    ( '' ),
    ( '' ),
    'SwSTEP 2.0',
    'SolidWorks 2020',
    '' );
FILE_SCHEMA (( 'AUTOMOTIVE_DESIGN' ));
ENDSEC;

DATA;
#1 = STYLED_ITEM ( 'NONE', ( #60 ), #111 ) ;
#2 = CONICAL_SURFACE ( 'NONE', #81, 0.3121874999999998956, 0.1745329251994340303 ) ;
#3 = FACE_OUTER_BOUND ( 'NONE', #67, .T. ) ;
#4 = SURFACE_STYLE_USAGE ( .BOTH. , #275 ) ;
#5 = DIRECTION ( 'NONE',  ( 1.000000000000000000, 0.0000000000000000000, 0.0000000000000000000 ) ) ;
#6 = DIRECTION ( 'NONE',  ( -0.1736481776669313026, 2.126576849575784549E-17, 0.9848077530122077983 ) ) ;
#7 = VECTOR ( 'NONE', #264, 39.37007874015748143 ) ;
#8 = CARTESIAN_POINT ( 'NONE',  ( 0.2821874999999999245, 0.0000000000000000000, 0.0000000000000000000 ) ) ;
#9 = UNCERTAINTY_MEASURE_WITH_UNIT (LENGTH_MEASURE( 1.000000000000000082E-05 ), #163, 'distance_accuracy_value', 'NONE');
#10 = DIRECTION ( 'NONE',  ( -1.000000000000000000, 0.0000000000000000000, 0.0000000000000000000 ) ) ;
#11 = CARTESIAN_POINT ( 'NONE',  ( 3.673940397442059190E-18, 0.0000000000000000000, 0.0000000000000000000 ) ) ;
#12 = AXIS2_PLACEMENT_3D ( 'NONE', #281, #34, #334 ) ;
#13 = ORIENTED_EDGE ( 'NONE', *, *, #314, .F. ) ;
#14 = CARTESIAN_POINT ( 'NONE',  ( -0.2975000000000003197, 0.0000000000000000000, 3.500000000000000000 ) ) ;
#15 = ORIENTED_EDGE ( 'NONE', *, *, #308, .F. ) ;
#16 = ORIENTED_EDGE ( 'NONE', *, *, #273, .T. ) ;
#17 = ORIENTED_EDGE ( 'NONE', *, *, #298, .F. ) ;
#18 = DIRECTION ( 'NONE',  ( 1.000000000000000000, 0.0000000000000000000, 0.0000000000000000000 ) ) ;
#19 = LENGTH_MEASURE_WITH_UNIT ( LENGTH_MEASURE( 0.02539999999999999897 ), #191 );
#20 = COLOUR_RGB ( '',0.7921568627450980005, 0.8196078431372548767, 0.9333333333333333481 ) ;
#21 = SURFACE_STYLE_USAGE ( .BOTH. , #263 ) ;
#22 = EDGE_CURVE ( 'NONE', #204, #340, #38, .T. ) ;
#23 = DIRECTION ( 'NONE',  ( -0.0000000000000000000, -0.0000000000000000000, -1.000000000000000000 ) ) ;
#24 = CARTESIAN_POINT ( 'NONE',  ( 0.2975000000000003197, 3.643324227463378817E-17, 3.500000000000000000 ) ) ;
#25 = ORIENTED_EDGE ( 'NONE', *, *, #116, .F. ) ;
#26 = CARTESIAN_POINT ( 'NONE',  ( 0.0000000000000000000, 0.0000000000000000000, 3.500000000000000000 ) ) ;
#27 =( GEOMETRIC_REPRESENTATION_CONTEXT ( 3 ) GLOBAL_UNCERTAINTY_ASSIGNED_CONTEXT ( ( #166 ) ) GLOBAL_UNIT_ASSIGNED_CONTEXT ( ( #266, #293, #165 ) ) REPRESENTATION_CONTEXT ( 'NONE', 'WORKASPACE' ) );
#28 = ADVANCED_FACE ( 'NONE', ( #312 ), #196, .T. ) ;
#29 = CARTESIAN_POINT ( 'NONE',  ( 0.0000000000000000000, 0.0000000000000000000, 3.484999999999999432 ) ) ;
#30 = ORIENTED_EDGE ( 'NONE', *, *, #93, .T. ) ;
#31 = CARTESIAN_POINT ( 'NONE',  ( -0.3125000000000000000, 0.0000000000000000000, 3.500000000000000000 ) ) ;
#32 = VERTEX_POINT ( 'NONE', #129 ) ;
#33 = CIRCLE ( 'NONE', #303, 0.3125000000000000000 ) ;
#34 = DIRECTION ( 'NONE',  ( 0.0000000000000000000, 0.0000000000000000000, 1.000000000000000000 ) ) ;
#35 = VERTEX_POINT ( 'NONE', #95 ) ;
#36 = DIRECTION ( 'NONE',  ( -1.224646799147353207E-16, -0.0000000000000000000, -1.000000000000000000 ) ) ;
#37 = DIRECTION ( 'NONE',  ( -0.0000000000000000000, -0.0000000000000000000, -1.000000000000000000 ) ) ;
#38 = LINE ( 'NONE', #177, #178 ) ;
#39 = CARTESIAN_POINT ( 'NONE',  ( 0.0000000000000000000, 0.0000000000000000000, 0.0000000000000000000 ) ) ;
#40 = DIRECTION ( 'NONE',  ( 0.0000000000000000000, 0.0000000000000000000, 1.000000000000000000 ) ) ;
#41 = FILL_AREA_STYLE ('',( #284 ) ) ;
#42 = AXIS2_PLACEMENT_3D ( 'NONE', #46, #318, #159 ) ;
#43 = FACE_OUTER_BOUND ( 'NONE', #119, .T. ) ;
#44 = DIRECTION ( 'NONE',  ( -1.000000000000000000, 0.0000000000000000000, 0.0000000000000000000 ) ) ;
#45 = CYLINDRICAL_SURFACE ( 'NONE', #255, 0.3125000000000000000 ) ;
#46 = CARTESIAN_POINT ( 'NONE',  ( 0.0000000000000000000, 0.0000000000000000000, 0.0000000000000000000 ) ) ;
#47 = AXIS2_PLACEMENT_3D ( 'NONE', #294, #209, #247 ) ;
#48 = CIRCLE ( 'NONE', #53, 0.2975000000000003197 ) ;
#49 = PRODUCT_DEFINITION_SHAPE ( 'NONE', 'NONE',  #243 ) ;
#50 = EDGE_CURVE ( 'NONE', #56, #32, #148, .T. ) ;
#51 = EDGE_CURVE ( 'NONE', #236, #35, #133, .T. ) ;
#52 = AXIS2_PLACEMENT_3D ( 'NONE', #331, #167, #82 ) ;
#53 = AXIS2_PLACEMENT_3D ( 'NONE', #99, #40, #324 ) ;
#54 = CARTESIAN_POINT ( 'NONE',  ( -0.3121874999999997846, 3.823194226088142147E-17, 1.250000000000000000 ) ) ;
#55 = DIRECTION ( 'NONE',  ( -0.0000000000000000000, -0.0000000000000000000, -1.000000000000000000 ) ) ;
#56 = VERTEX_POINT ( 'NONE', #100 ) ;
#57 = VECTOR ( 'NONE', #6, 39.37007874015748143 ) ;
#58 = AXIS2_PLACEMENT_3D ( 'NONE', #350, #271, #69 ) ;
#59 = LINE ( 'NONE', #31, #279 ) ;
#60 = PRESENTATION_STYLE_ASSIGNMENT (( #21 ) ) ;
#61 = ORIENTED_EDGE ( 'NONE', *, *, #273, .F. ) ;
#62 = CARTESIAN_POINT ( 'NONE',  ( 1.530808498934191571E-16, 0.0000000000000000000, 1.250000000000000000 ) ) ;
#63 = CARTESIAN_POINT ( 'NONE',  ( -0.3124999999999998890, 0.0000000000000000000, 1.251772275568631132 ) ) ;
#64 = AXIS2_PLACEMENT_3D ( 'NONE', #107, #141, #5 ) ;
#65 = ORIENTED_EDGE ( 'NONE', *, *, #213, .T. ) ;
#66 = ORIENTED_EDGE ( 'NONE', *, *, #308, .T. ) ;
#67 = EDGE_LOOP ( 'NONE', ( #282, #90, #258, #17 ) ) ;
#68 = CYLINDRICAL_SURFACE ( 'NONE', #131, 0.3121874999999998956 ) ;
#69 = DIRECTION ( 'NONE',  ( -1.000000000000000000, 0.0000000000000000000, 0.0000000000000000000 ) ) ;
#70 = EDGE_LOOP ( 'NONE', ( #143, #309, #300, #25 ) ) ;
#71 = DIRECTION ( 'NONE',  ( -1.000000000000000000, 0.0000000000000000000, 0.0000000000000000000 ) ) ;
#72 = AXIS2_PLACEMENT_3D ( 'NONE', #218, #76, #125 ) ;
#73 = DIRECTION ( 'NONE',  ( 0.1736481776669315247, 0.0000000000000000000, 0.9848077530122077983 ) ) ;
#74 = DIRECTION ( 'NONE',  ( 0.0000000000000000000, 0.0000000000000000000, 1.000000000000000000 ) ) ;
#75 = CARTESIAN_POINT ( 'NONE',  ( -0.3125000000000000000, 0.0000000000000000000, 3.484999999999999432 ) ) ;
#76 = DIRECTION ( 'NONE',  ( 0.0000000000000000000, 0.0000000000000000000, 1.000000000000000000 ) ) ;
#77 = CIRCLE ( 'NONE', #315, 0.3121874999999998956 ) ;
#78 = LINE ( 'NONE', #110, #348 ) ;
#79 =( LENGTH_UNIT ( ) NAMED_UNIT ( * ) SI_UNIT ( $, .METRE. ) );
#80 = AXIS2_PLACEMENT_3D ( 'NONE', #174, #155, #179 ) ;
#81 = AXIS2_PLACEMENT_3D ( 'NONE', #269, #187, #223 ) ;
#82 = DIRECTION ( 'NONE',  ( 1.000000000000000000, 0.0000000000000000000, 0.0000000000000000000 ) ) ;
#83 = VERTEX_POINT ( 'NONE', #317 ) ;
#84 = ORIENTED_EDGE ( 'NONE', *, *, #109, .F. ) ;
#85 = ORIENTED_EDGE ( 'NONE', *, *, #220, .F. ) ;
#86 = CIRCLE ( 'NONE', #115, 0.02999999999999999889 ) ;
#87 = ADVANCED_FACE ( 'NONE', ( #43 ), #289, .T. ) ;
#88 = ORIENTED_EDGE ( 'NONE', *, *, #126, .T. ) ;
#89 =( LENGTH_UNIT ( ) NAMED_UNIT ( * ) SI_UNIT ( $, .METRE. ) );
#90 = ORIENTED_EDGE ( 'NONE', *, *, #126, .F. ) ;
#91 =( NAMED_UNIT ( * ) SI_UNIT ( $, .STERADIAN. ) SOLID_ANGLE_UNIT ( ) );
#92 = CONICAL_SURFACE ( 'NONE', #160, 0.2975000000000003197, 0.7853981633974300713 ) ;
#93 = EDGE_CURVE ( 'NONE', #204, #244, #77, .T. ) ;
#94 = CONICAL_SURFACE ( 'NONE', #253, 0.2975000000000003197, 0.7853981633974300713 ) ;
#95 = CARTESIAN_POINT ( 'NONE',  ( -0.3121874999999998956, 0.0000000000000000000, 0.03000000000000000583 ) ) ;
#96 = FACE_OUTER_BOUND ( 'NONE', #108, .T. ) ;
#97 = FACE_OUTER_BOUND ( 'NONE', #70, .T. ) ;
#98 = CARTESIAN_POINT ( 'NONE',  ( 0.0000000000000000000, 0.0000000000000000000, 3.500000000000000000 ) ) ;
#99 = CARTESIAN_POINT ( 'NONE',  ( 0.0000000000000000000, 0.0000000000000000000, 3.500000000000000000 ) ) ;
#100 = CARTESIAN_POINT ( 'NONE',  ( 0.2975000000000003197, 3.735172737399428256E-17, 3.500000000000000000 ) ) ;
#101 = PLANE ( 'NONE',  #72 ) ;
#102 =( GEOMETRIC_REPRESENTATION_CONTEXT ( 3 ) GLOBAL_UNCERTAINTY_ASSIGNED_CONTEXT ( ( #285 ) ) GLOBAL_UNIT_ASSIGNED_CONTEXT ( ( #339, #144, #91 ) ) REPRESENTATION_CONTEXT ( 'NONE', 'WORKASPACE' ) );
#103 = CARTESIAN_POINT ( 'NONE',  ( 1.532978910536522803E-16, 0.0000000000000000000, 1.251772275568631132 ) ) ;
#104 = DIRECTION ( 'NONE',  ( 0.0000000000000000000, 0.0000000000000000000, -1.000000000000000000 ) ) ;
#105 = DIRECTION ( 'NONE',  ( 0.0000000000000000000, 0.0000000000000000000, -1.000000000000000000 ) ) ;
#106 = ORIENTED_EDGE ( 'NONE', *, *, #51, .T. ) ;
#107 = CARTESIAN_POINT ( 'NONE',  ( 3.673940397442059190E-18, 0.0000000000000000000, 0.02999999999999999889 ) ) ;
#108 = EDGE_LOOP ( 'NONE', ( #304, #30, #137, #216 ) ) ;
#109 = EDGE_CURVE ( 'NONE', #35, #182, #168, .T. ) ;
#110 = CARTESIAN_POINT ( 'NONE',  ( 0.3121874999999998956, 3.823194226088142147E-17, -3.823194226088142147E-17 ) ) ;
#111 = MANIFOLD_SOLID_BREP ( 'Fillet1', #234 ) ;
#112 = ADVANCED_FACE ( 'NONE', ( #203 ), #238, .F. ) ;
#113 = EDGE_CURVE ( 'NONE', #239, #236, #330, .T. ) ;
#114 = CIRCLE ( 'NONE', #192, 0.2975000000000003197 ) ;
#115 = AXIS2_PLACEMENT_3D ( 'NONE', #135, #158, #104 ) ;
#116 = EDGE_CURVE ( 'NONE', #83, #321, #172, .T. ) ;
#117 = EDGE_LOOP ( 'NONE', ( #342, #268, #280, #345 ) ) ;
#118 = DIRECTION ( 'NONE',  ( -0.7071067811865346942, 0.0000000000000000000, -0.7071067811865603403 ) ) ;
#119 = EDGE_LOOP ( 'NONE', ( #65, #66, #13, #302 ) ) ;
#120 = ORIENTED_EDGE ( 'NONE', *, *, #314, .T. ) ;
#121 = DIRECTION ( 'NONE',  ( 1.224646799147353207E-16, 0.0000000000000000000, 1.000000000000000000 ) ) ;
#122 = PRESENTATION_LAYER_ASSIGNMENT (  '', '', ( #1 ) ) ;
#123 = PRODUCT_RELATED_PRODUCT_CATEGORY ( 'part', '', ( #320 ) ) ;
#124 = VERTEX_POINT ( 'NONE', #63 ) ;
#125 = DIRECTION ( 'NONE',  ( 1.000000000000000000, 0.0000000000000000000, -0.0000000000000000000 ) ) ;
#126 = EDGE_CURVE ( 'NONE', #83, #56, #114, .T. ) ;
#127 = EDGE_LOOP ( 'NONE', ( #88, #195 ) ) ;
#128 = APPLICATION_PROTOCOL_DEFINITION ( 'draft international standard', 'automotive_design', 1998, #286 ) ;
#129 = CARTESIAN_POINT ( 'NONE',  ( 0.3125000000000000000, 3.827021247335478926E-17, 3.484999999999999432 ) ) ;
#130 = DIRECTION ( 'NONE',  ( 1.000000000000000000, 0.0000000000000000000, 0.0000000000000000000 ) ) ;
#131 = AXIS2_PLACEMENT_3D ( 'NONE', #180, #210, #292 ) ;
#132 = DIRECTION ( 'NONE',  ( 0.0000000000000000000, 0.0000000000000000000, 1.000000000000000000 ) ) ;
#133 = CIRCLE ( 'NONE', #47, 0.02999999999999998848 ) ;
#134 = PRODUCT_DEFINITION_FORMATION_WITH_SPECIFIED_SOURCE ( 'ANY', '', #320, .NOT_KNOWN. ) ;
#135 = CARTESIAN_POINT ( 'NONE',  ( 0.2821874999999999245, 0.0000000000000000000, 0.02999999999999999889 ) ) ;
#136 =( GEOMETRIC_REPRESENTATION_CONTEXT ( 3 ) GLOBAL_UNCERTAINTY_ASSIGNED_CONTEXT ( ( #9 ) ) GLOBAL_UNIT_ASSIGNED_CONTEXT ( ( #163, #193, #272 ) ) REPRESENTATION_CONTEXT ( 'NONE', 'WORKASPACE' ) );
#137 = ORIENTED_EDGE ( 'NONE', *, *, #310, .T. ) ;
#138 = LINE ( 'NONE', #54, #57 ) ;
#139 = DIRECTION ( 'NONE',  ( -0.0000000000000000000, -0.0000000000000000000, -1.000000000000000000 ) ) ;
#140 = EDGE_CURVE ( 'NONE', #340, #124, #33, .T. ) ;
#141 = DIRECTION ( 'NONE',  ( 0.0000000000000000000, 0.0000000000000000000, 1.000000000000000000 ) ) ;
#142 = CARTESIAN_POINT ( 'NONE',  ( -0.3121874999999997846, 3.825107736711810845E-17, 1.250000000000000000 ) ) ;
#143 = ORIENTED_EDGE ( 'NONE', *, *, #307, .F. ) ;
#144 =( NAMED_UNIT ( * ) PLANE_ANGLE_UNIT ( ) SI_UNIT ( $, .RADIAN. ) );
#145 = AXIS2_PLACEMENT_3D ( 'NONE', #103, #248, #323 ) ;
#146 = DIRECTION ( 'NONE',  ( 1.000000000000000000, 0.0000000000000000000, 0.0000000000000000000 ) ) ;
#147 = DIRECTION ( 'NONE',  ( 0.0000000000000000000, 0.0000000000000000000, 1.000000000000000000 ) ) ;
#148 = LINE ( 'NONE', #24, #228 ) ;
#149 = CARTESIAN_POINT ( 'NONE',  ( 1.532978910536522803E-16, 0.0000000000000000000, 1.251772275568631132 ) ) ;
#150 = DIRECTION ( 'NONE',  ( -1.000000000000000000, 0.0000000000000000000, 0.0000000000000000000 ) ) ;
#151 = SHAPE_DEFINITION_REPRESENTATION ( #49, #277 ) ;
#152 = SURFACE_STYLE_FILL_AREA ( #41 ) ;
#153 = FACE_OUTER_BOUND ( 'NONE', #233, .T. ) ;
#154 = CARTESIAN_POINT ( 'NONE',  ( 0.3125000000000000000, 3.827021247335478926E-17, 3.500000000000000000 ) ) ;
#155 = DIRECTION ( 'NONE',  ( 0.0000000000000000000, 0.0000000000000000000, 1.000000000000000000 ) ) ;
#156 = LINE ( 'NONE', #154, #274 ) ;
#157 = DIRECTION ( 'NONE',  ( -1.000000000000000000, 0.0000000000000000000, 0.0000000000000000000 ) ) ;
#158 = DIRECTION ( 'NONE',  ( 0.0000000000000000000, -1.000000000000000000, 0.0000000000000000000 ) ) ;
#159 = DIRECTION ( 'NONE',  ( -1.000000000000000000, 0.0000000000000000000, 1.224646799147353207E-16 ) ) ;
#160 = AXIS2_PLACEMENT_3D ( 'NONE', #257, #105, #10 ) ;
#161 = CIRCLE ( 'NONE', #219, 0.3125000000000000000 ) ;
#162 = PRESENTATION_STYLE_ASSIGNMENT (( #4 ) ) ;
#163 =( CONVERSION_BASED_UNIT ( 'INCH', #301 ) LENGTH_UNIT ( ) NAMED_UNIT ( #188 ) );
#164 = CIRCLE ( 'NONE', #52, 0.3125000000000000000 ) ;
#165 =( NAMED_UNIT ( * ) SI_UNIT ( $, .STERADIAN. ) SOLID_ANGLE_UNIT ( ) );
#166 = UNCERTAINTY_MEASURE_WITH_UNIT (LENGTH_MEASURE( 1.000000000000000082E-05 ), #266, 'distance_accuracy_value', 'NONE');
#167 = DIRECTION ( 'NONE',  ( 0.0000000000000000000, 0.0000000000000000000, -1.000000000000000000 ) ) ;
#168 = CIRCLE ( 'NONE', #80, 0.3121874999999998956 ) ;
#169 = CIRCLE ( 'NONE', #145, 0.3125000000000000000 ) ;
#170 = ORIENTED_EDGE ( 'NONE', *, *, #113, .T. ) ;
#171 = EDGE_LOOP ( 'NONE', ( #15, #229, #197, #206 ) ) ;
#172 = LINE ( 'NONE', #14, #232 ) ;
#173 = ADVANCED_FACE ( 'NONE', ( #96 ), #68, .T. ) ;
#174 = CARTESIAN_POINT ( 'NONE',  ( 3.673940397442059960E-18, 0.0000000000000000000, 0.03000000000000000583 ) ) ;
#175 = CARTESIAN_POINT ( 'NONE',  ( 0.0000000000000000000, 0.0000000000000000000, 3.500000000000000000 ) ) ;
#176 = ADVANCED_FACE ( 'NONE', ( #153 ), #240, .T. ) ;
#177 = CARTESIAN_POINT ( 'NONE',  ( 0.3121875000000000622, 0.0000000000000000000, 1.250000000000000000 ) ) ;
#178 = VECTOR ( 'NONE', #73, 39.37007874015748143 ) ;
#179 = DIRECTION ( 'NONE',  ( 1.000000000000000000, 0.0000000000000000000, 0.0000000000000000000 ) ) ;
#180 = CARTESIAN_POINT ( 'NONE',  ( 0.0000000000000000000, 0.0000000000000000000, 0.0000000000000000000 ) ) ;
#181 = ADVANCED_FACE ( 'NONE', ( #3 ), #92, .T. ) ;
#182 = VERTEX_POINT ( 'NONE', #332 ) ;
#183 = EDGE_CURVE ( 'NONE', #321, #124, #59, .T. ) ;
#184 = AXIS2_PLACEMENT_3D ( 'NONE', #39, #288, #313 ) ;
#185 = DIRECTION ( 'NONE',  ( -1.224646799147353207E-16, -0.0000000000000000000, -1.000000000000000000 ) ) ;
#186 = DIRECTION ( 'NONE',  ( 0.7071067811865346942, 8.659560562354773853E-17, -0.7071067811865603403 ) ) ;
#187 = DIRECTION ( 'NONE',  ( 1.224646799147353207E-16, 0.0000000000000000000, 1.000000000000000000 ) ) ;
#188 = DIMENSIONAL_EXPONENTS ( 1.000000000000000000, 0.0000000000000000000, 0.0000000000000000000, 0.0000000000000000000, 0.0000000000000000000, 0.0000000000000000000, 0.0000000000000000000 ) ;
#189 = FACE_OUTER_BOUND ( 'NONE', #276, .T. ) ;
#190 = EDGE_CURVE ( 'NONE', #244, #124, #138, .T. ) ;
#191 =( LENGTH_UNIT ( ) NAMED_UNIT ( * ) SI_UNIT ( $, .METRE. ) );
#192 = AXIS2_PLACEMENT_3D ( 'NONE', #175, #147, #208 ) ;
#193 =( NAMED_UNIT ( * ) PLANE_ANGLE_UNIT ( ) SI_UNIT ( $, .RADIAN. ) );
#194 = STYLED_ITEM ( 'NONE', ( #162 ), #277 ) ;
#195 = ORIENTED_EDGE ( 'NONE', *, *, #307, .T. ) ;
#196 = CONICAL_SURFACE ( 'NONE', #201, 0.3121874999999998956, 0.1745329251994340303 ) ;
#197 = ORIENTED_EDGE ( 'NONE', *, *, #183, .T. ) ;
#198 = CARTESIAN_POINT ( 'NONE',  ( -0.2821874999999999245, 3.639497206216039572E-17, 0.0000000000000000000 ) ) ;
#199 = EDGE_LOOP ( 'NONE', ( #265, #241, #262, #200 ) ) ;
#200 = ORIENTED_EDGE ( 'NONE', *, *, #310, .F. ) ;
#201 = AXIS2_PLACEMENT_3D ( 'NONE', #291, #121, #146 ) ;
#202 = DIRECTION ( 'NONE',  ( 1.000000000000000000, 0.0000000000000000000, 0.0000000000000000000 ) ) ;
#203 = FACE_OUTER_BOUND ( 'NONE', #214, .T. ) ;
#204 = VERTEX_POINT ( 'NONE', #227 ) ;
#205 = COLOUR_RGB ( '',0.7921568627450980005, 0.8196078431372548767, 0.9333333333333333481 ) ;
#206 = ORIENTED_EDGE ( 'NONE', *, *, #140, .F. ) ;
#207 = CIRCLE ( 'NONE', #58, 0.3121874999999998956 ) ;
#208 = DIRECTION ( 'NONE',  ( 1.000000000000000000, 0.0000000000000000000, 0.0000000000000000000 ) ) ;
#209 = DIRECTION ( 'NONE',  ( 1.224646799147353207E-16, 1.000000000000000000, -0.0000000000000000000 ) ) ;
#210 = DIRECTION ( 'NONE',  ( -1.224646799147353207E-16, -0.0000000000000000000, -1.000000000000000000 ) ) ;
#211 = CARTESIAN_POINT ( 'NONE',  ( 0.3125000000000001665, 3.827021247335480159E-17, 1.251772275568631132 ) ) ;
#212 = DIRECTION ( 'NONE',  ( 1.000000000000000000, 0.0000000000000000000, 0.0000000000000000000 ) ) ;
#213 = EDGE_CURVE ( 'NONE', #321, #32, #164, .T. ) ;
#214 = EDGE_LOOP ( 'NONE', ( #170, #261 ) ) ;
#215 = CYLINDRICAL_SURFACE ( 'NONE', #42, 0.3121874999999998956 ) ;
#216 = ORIENTED_EDGE ( 'NONE', *, *, #109, .T. ) ;
#217 = AXIS2_PLACEMENT_3D ( 'NONE', #260, #37, #336 ) ;
#218 = CARTESIAN_POINT ( 'NONE',  ( 0.0000000000000000000, 0.0000000000000000000, 3.500000000000000000 ) ) ;
#219 = AXIS2_PLACEMENT_3D ( 'NONE', #29, #347, #221 ) ;
#220 = EDGE_CURVE ( 'NONE', #182, #35, #316, .T. ) ;
#221 = DIRECTION ( 'NONE',  ( 1.000000000000000000, 0.0000000000000000000, 0.0000000000000000000 ) ) ;
#222 = PRODUCT_CONTEXT ( 'NONE', #286, 'mechanical' ) ;
#223 = DIRECTION ( 'NONE',  ( 1.000000000000000000, 0.0000000000000000000, 0.0000000000000000000 ) ) ;
#224 = FILL_AREA_STYLE ('',( #252 ) ) ;
#225 = SURFACE_STYLE_FILL_AREA ( #224 ) ;
#226 = EDGE_CURVE ( 'NONE', #236, #239, #297, .T. ) ;
#227 = CARTESIAN_POINT ( 'NONE',  ( 0.3121875000000000622, 0.0000000000000000000, 1.250000000000000000 ) ) ;
#228 = VECTOR ( 'NONE', #186, 39.37007874015748143 ) ;
#229 = ORIENTED_EDGE ( 'NONE', *, *, #298, .T. ) ;
#230 = AXIS2_PLACEMENT_3D ( 'NONE', #267, #132, #212 ) ;
#231 = DIRECTION ( 'NONE',  ( -1.224646799147353207E-16, -0.0000000000000000000, -1.000000000000000000 ) ) ;
#232 = VECTOR ( 'NONE', #118, 39.37007874015748143 ) ;
#233 = EDGE_LOOP ( 'NONE', ( #306, #106, #85, #61 ) ) ;
#234 = CLOSED_SHELL ( 'NONE', ( #176, #337, #278, #299, #87, #333, #311, #181, #28, #173, #112, #335 ) ) ;
#235 = LENGTH_MEASURE_WITH_UNIT ( LENGTH_MEASURE( 0.02539999999999999897 ), #89 );
#236 = VERTEX_POINT ( 'NONE', #198 ) ;
#237 = ORIENTED_EDGE ( 'NONE', *, *, #190, .T. ) ;
#238 = PLANE ( 'NONE',  #184 ) ;
#239 = VERTEX_POINT ( 'NONE', #8 ) ;
#240 = TOROIDAL_SURFACE ( 'NONE', #64, 0.2821874999999999245, 0.02999999999999999889 ) ;
#241 = ORIENTED_EDGE ( 'NONE', *, *, #249, .T. ) ;
#242 = CARTESIAN_POINT ( 'NONE',  ( 3.673940397442059190E-18, 0.0000000000000000000, 0.02999999999999999889 ) ) ;
#243 = PRODUCT_DEFINITION ( 'UNKNOWN', '', #134, #329 ) ;
#244 = VERTEX_POINT ( 'NONE', #142 ) ;
#245 = DIRECTION ( 'NONE',  ( 0.0000000000000000000, 0.0000000000000000000, -1.000000000000000000 ) ) ;
#246 = APPLICATION_PROTOCOL_DEFINITION ( 'draft international standard', 'automotive_design', 1998, #341 ) ;
#247 = DIRECTION ( 'NONE',  ( -1.000000000000000000, 1.224646799147353454E-16, 0.0000000000000000000 ) ) ;
#248 = DIRECTION ( 'NONE',  ( -1.224646799147353207E-16, -0.0000000000000000000, -1.000000000000000000 ) ) ;
#249 = EDGE_CURVE ( 'NONE', #204, #182, #78, .T. ) ;
#250 = AXIS2_PLACEMENT_3D ( 'NONE', #98, #319, #44 ) ;
#251 = FACE_OUTER_BOUND ( 'NONE', #171, .T. ) ;
#252 = FILL_AREA_STYLE_COLOUR ( '', #20 ) ;
#253 = AXIS2_PLACEMENT_3D ( 'NONE', #344, #245, #71 ) ;
#254 = ORIENTED_EDGE ( 'NONE', *, *, #113, .F. ) ;
#255 = AXIS2_PLACEMENT_3D ( 'NONE', #26, #346, #150 ) ;
#256 = ORIENTED_EDGE ( 'NONE', *, *, #351, .F. ) ;
#257 = CARTESIAN_POINT ( 'NONE',  ( 0.0000000000000000000, 0.0000000000000000000, 3.500000000000000000 ) ) ;
#258 = ORIENTED_EDGE ( 'NONE', *, *, #116, .T. ) ;
#259 = PRESENTATION_LAYER_ASSIGNMENT (  '', '', ( #194 ) ) ;
#260 = CARTESIAN_POINT ( 'NONE',  ( 3.673940397442059190E-18, 0.0000000000000000000, 0.0000000000000000000 ) ) ;
#261 = ORIENTED_EDGE ( 'NONE', *, *, #226, .T. ) ;
#262 = ORIENTED_EDGE ( 'NONE', *, *, #220, .T. ) ;
#263 = SURFACE_SIDE_STYLE ('',( #152 ) ) ;
#264 = DIRECTION ( 'NONE',  ( -1.224646799147353207E-16, -0.0000000000000000000, -1.000000000000000000 ) ) ;
#265 = ORIENTED_EDGE ( 'NONE', *, *, #351, .T. ) ;
#266 =( CONVERSION_BASED_UNIT ( 'INCH', #19 ) LENGTH_UNIT ( ) NAMED_UNIT ( #328 ) );
#267 = CARTESIAN_POINT ( 'NONE',  ( 0.0000000000000000000, 0.0000000000000000000, 0.0000000000000000000 ) ) ;
#268 = ORIENTED_EDGE ( 'NONE', *, *, #93, .F. ) ;
#269 = CARTESIAN_POINT ( 'NONE',  ( 1.530808498934191571E-16, 0.0000000000000000000, 1.250000000000000000 ) ) ;
#270 = AXIS2_PLACEMENT_3D ( 'NONE', #242, #74, #130 ) ;
#271 = DIRECTION ( 'NONE',  ( -1.224646799147353207E-16, -0.0000000000000000000, -1.000000000000000000 ) ) ;
#272 =( NAMED_UNIT ( * ) SI_UNIT ( $, .STERADIAN. ) SOLID_ANGLE_UNIT ( ) );
#273 = EDGE_CURVE ( 'NONE', #239, #182, #86, .T. ) ;
#274 = VECTOR ( 'NONE', #23, 39.37007874015748143 ) ;
#275 = SURFACE_SIDE_STYLE ('',( #225 ) ) ;
#276 = EDGE_LOOP ( 'NONE', ( #343, #254, #16, #84 ) ) ;
#277 = ADVANCED_BREP_SHAPE_REPRESENTATION ( 'Micro_GEC-625-3-030', ( #111, #230 ), #27 ) ;
#278 = ADVANCED_FACE ( 'NONE', ( #349 ), #2, .T. ) ;
#279 = VECTOR ( 'NONE', #55, 39.37007874015748143 ) ;
#280 = ORIENTED_EDGE ( 'NONE', *, *, #22, .T. ) ;
#281 = CARTESIAN_POINT ( 'NONE',  ( 3.673940397442059960E-18, 0.0000000000000000000, 0.03000000000000000583 ) ) ;
#282 = ORIENTED_EDGE ( 'NONE', *, *, #50, .F. ) ;
#283 = MECHANICAL_DESIGN_GEOMETRIC_PRESENTATION_REPRESENTATION (  '', ( #1 ), #102 ) ;
#284 = FILL_AREA_STYLE_COLOUR ( '', #205 ) ;
#285 = UNCERTAINTY_MEASURE_WITH_UNIT (LENGTH_MEASURE( 1.000000000000000082E-05 ), #339, 'distance_accuracy_value', 'NONE');
#286 = APPLICATION_CONTEXT ( 'automotive_design' ) ;
#287 = ORIENTED_EDGE ( 'NONE', *, *, #22, .F. ) ;
#288 = DIRECTION ( 'NONE',  ( 0.0000000000000000000, 0.0000000000000000000, 1.000000000000000000 ) ) ;
#289 = CYLINDRICAL_SURFACE ( 'NONE', #250, 0.3125000000000000000 ) ;
#290 = CARTESIAN_POINT ( 'NONE',  ( -0.3121874999999998956, 0.0000000000000000000, 3.823194226088142147E-17 ) ) ;
#291 = CARTESIAN_POINT ( 'NONE',  ( 1.530808498934191571E-16, 0.0000000000000000000, 1.250000000000000000 ) ) ;
#292 = DIRECTION ( 'NONE',  ( -1.000000000000000000, 0.0000000000000000000, 1.224646799147353207E-16 ) ) ;
#293 =( NAMED_UNIT ( * ) PLANE_ANGLE_UNIT ( ) SI_UNIT ( $, .RADIAN. ) );
#294 = CARTESIAN_POINT ( 'NONE',  ( -0.2821874999999999245, 3.455800186343936382E-17, 0.02999999999999999889 ) ) ;
#295 = LINE ( 'NONE', #290, #7 ) ;
#296 = FACE_OUTER_BOUND ( 'NONE', #199, .T. ) ;
#297 = CIRCLE ( 'NONE', #305, 0.2821874999999999245 ) ;
#298 = EDGE_CURVE ( 'NONE', #32, #321, #161, .T. ) ;
#299 = ADVANCED_FACE ( 'NONE', ( #97 ), #94, .T. ) ;
#300 = ORIENTED_EDGE ( 'NONE', *, *, #213, .F. ) ;
#301 = LENGTH_MEASURE_WITH_UNIT ( LENGTH_MEASURE( 0.02539999999999999897 ), #79 );
#302 = ORIENTED_EDGE ( 'NONE', *, *, #183, .F. ) ;
#303 = AXIS2_PLACEMENT_3D ( 'NONE', #149, #185, #18 ) ;
#304 = ORIENTED_EDGE ( 'NONE', *, *, #249, .F. ) ;
#305 = AXIS2_PLACEMENT_3D ( 'NONE', #11, #139, #202 ) ;
#306 = ORIENTED_EDGE ( 'NONE', *, *, #226, .F. ) ;
#307 = EDGE_CURVE ( 'NONE', #56, #83, #48, .T. ) ;
#308 = EDGE_CURVE ( 'NONE', #32, #340, #156, .T. ) ;
#309 = ORIENTED_EDGE ( 'NONE', *, *, #50, .T. ) ;
#310 = EDGE_CURVE ( 'NONE', #244, #35, #295, .T. ) ;
#311 = ADVANCED_FACE ( 'NONE', ( #325 ), #101, .T. ) ;
#312 = FACE_OUTER_BOUND ( 'NONE', #117, .T. ) ;
#313 = DIRECTION ( 'NONE',  ( 1.000000000000000000, 0.0000000000000000000, -0.0000000000000000000 ) ) ;
#314 = EDGE_CURVE ( 'NONE', #124, #340, #169, .T. ) ;
#315 = AXIS2_PLACEMENT_3D ( 'NONE', #62, #36, #157 ) ;
#316 = CIRCLE ( 'NONE', #12, 0.3121874999999998956 ) ;
#317 = CARTESIAN_POINT ( 'NONE',  ( -0.2975000000000003197, 0.0000000000000000000, 3.500000000000000000 ) ) ;
#318 = DIRECTION ( 'NONE',  ( -1.224646799147353207E-16, -0.0000000000000000000, -1.000000000000000000 ) ) ;
#319 = DIRECTION ( 'NONE',  ( -0.0000000000000000000, -0.0000000000000000000, -1.000000000000000000 ) ) ;
#320 = PRODUCT ( 'Micro_GEC-625-3-030', 'Micro_GEC-625-3-030', '', ( #222 ) ) ;
#321 = VERTEX_POINT ( 'NONE', #75 ) ;
#322 = TOROIDAL_SURFACE ( 'NONE', #270, 0.2821874999999999245, 0.02999999999999999889 ) ;
#323 = DIRECTION ( 'NONE',  ( 1.000000000000000000, 0.0000000000000000000, 0.0000000000000000000 ) ) ;
#324 = DIRECTION ( 'NONE',  ( 1.000000000000000000, 0.0000000000000000000, 0.0000000000000000000 ) ) ;
#325 = FACE_OUTER_BOUND ( 'NONE', #127, .T. ) ;
#326 = MECHANICAL_DESIGN_GEOMETRIC_PRESENTATION_REPRESENTATION (  '', ( #194 ), #136 ) ;
#327 = DIMENSIONAL_EXPONENTS ( 1.000000000000000000, 0.0000000000000000000, 0.0000000000000000000, 0.0000000000000000000, 0.0000000000000000000, 0.0000000000000000000, 0.0000000000000000000 ) ;
#328 = DIMENSIONAL_EXPONENTS ( 1.000000000000000000, 0.0000000000000000000, 0.0000000000000000000, 0.0000000000000000000, 0.0000000000000000000, 0.0000000000000000000, 0.0000000000000000000 ) ;
#329 = PRODUCT_DEFINITION_CONTEXT ( 'detailed design', #341, 'design' ) ;
#330 = CIRCLE ( 'NONE', #217, 0.2821874999999999245 ) ;
#331 = CARTESIAN_POINT ( 'NONE',  ( 0.0000000000000000000, 0.0000000000000000000, 3.484999999999999432 ) ) ;
#332 = CARTESIAN_POINT ( 'NONE',  ( 0.3121874999999998956, 3.823194226088142147E-17, 0.03000000000000000583 ) ) ;
#333 = ADVANCED_FACE ( 'NONE', ( #251 ), #45, .T. ) ;
#334 = DIRECTION ( 'NONE',  ( 1.000000000000000000, 0.0000000000000000000, 0.0000000000000000000 ) ) ;
#335 = ADVANCED_FACE ( 'NONE', ( #189 ), #322, .T. ) ;
#336 = DIRECTION ( 'NONE',  ( 1.000000000000000000, 0.0000000000000000000, 0.0000000000000000000 ) ) ;
#337 = ADVANCED_FACE ( 'NONE', ( #296 ), #215, .T. ) ;
#338 = EDGE_LOOP ( 'NONE', ( #256, #237, #120, #287 ) ) ;
#339 =( CONVERSION_BASED_UNIT ( 'INCH', #235 ) LENGTH_UNIT ( ) NAMED_UNIT ( #327 ) );
#340 = VERTEX_POINT ( 'NONE', #211 ) ;
#341 = APPLICATION_CONTEXT ( 'automotive_design' ) ;
#342 = ORIENTED_EDGE ( 'NONE', *, *, #190, .F. ) ;
#343 = ORIENTED_EDGE ( 'NONE', *, *, #51, .F. ) ;
#344 = CARTESIAN_POINT ( 'NONE',  ( 0.0000000000000000000, 0.0000000000000000000, 3.500000000000000000 ) ) ;
#345 = ORIENTED_EDGE ( 'NONE', *, *, #140, .T. ) ;
#346 = DIRECTION ( 'NONE',  ( -0.0000000000000000000, -0.0000000000000000000, -1.000000000000000000 ) ) ;
#347 = DIRECTION ( 'NONE',  ( 0.0000000000000000000, 0.0000000000000000000, -1.000000000000000000 ) ) ;
#348 = VECTOR ( 'NONE', #231, 39.37007874015748143 ) ;
#349 = FACE_OUTER_BOUND ( 'NONE', #338, .T. ) ;
#350 = CARTESIAN_POINT ( 'NONE',  ( 1.530808498934191571E-16, 0.0000000000000000000, 1.250000000000000000 ) ) ;
#351 = EDGE_CURVE ( 'NONE', #244, #204, #207, .T. ) ;
ENDSEC;
END-ISO-10303-21;
