ISO-10303-21;
HEADER;
FILE_DESCRIPTION (( 'STEP AP214' ),
    '1' );
FILE_NAME ('48010.STEP',
    '2023-06-22T20:52:53',
    ( '' ),
    ( '' ),
    'SwSTEP 2.0',
    'SolidWorks 2023',
    '' );
FILE_SCHEMA (( 'AUTOMOTIVE_DESIGN' ));
ENDSEC;

DATA;
#1 = FACE_OUTER_BOUND ( 'NONE', #263, .T. ) ;
#2 = STYLED_ITEM ( 'NONE', ( #128 ), #74 ) ;
#3 = MECHANICAL_DESIGN_GEOMETRIC_PRESENTATION_REPRESENTATION (  '', ( #75 ), #284 ) ;
#4 = DIRECTION ( 'NONE',  ( -3.768143997376475057E-17, 1.000000000000000000, -0.000000000000000000 ) ) ;
#5 = DIRECTION ( 'NONE',  ( -0.000000000000000000, -1.000000000000000000, -0.000000000000000000 ) ) ;
#6 = CARTESIAN_POINT ( 'NONE',  ( 0.000000000000000000, 0.000000000000000000, 0.000000000000000000 ) ) ;
#7 = CLOSED_SHELL ( 'NONE', ( #141, #253, #201, #282 ) ) ;
#8 = EDGE_CURVE ( 'NONE', #168, #61, #202, .T. ) ;
#9 =( NAMED_UNIT ( * ) PLANE_ANGLE_UNIT ( ) SI_UNIT ( $, .RADIAN. ) );
#10 = SURFACE_STYLE_USAGE ( .BOTH. , #112 ) ;
#11 = CARTESIAN_POINT ( 'NONE',  ( -6.123233995736772199E-17, 2.000000000000000000, 0.000000000000000000 ) ) ;
#12 =( CONVERSION_BASED_UNIT ( 'INCH', #162 ) LENGTH_UNIT ( ) NAMED_UNIT ( #94 ) );
#13 = DIRECTION ( 'NONE',  ( -3.768143997376475057E-17, 1.000000000000000000, -0.000000000000000000 ) ) ;
#14 = FACE_OUTER_BOUND ( 'NONE', #41, .T. ) ;
#15 = AXIS2_PLACEMENT_3D ( 'NONE', #90, #187, #278 ) ;
#16 = ORIENTED_EDGE ( 'NONE', *, *, #294, .F. ) ;
#17 = EDGE_CURVE ( 'NONE', #297, #168, #152, .T. ) ;
#18 = CARTESIAN_POINT ( 'NONE',  ( 0.000000000000000000, 0.000000000000000000, -0.06250000000000001388 ) ) ;
#19 = ORIENTED_EDGE ( 'NONE', *, *, #40, .T. ) ;
#20 = CARTESIAN_POINT ( 'NONE',  ( 0.000000000000000000, 0.000000000000000000, 0.000000000000000000 ) ) ;
#21 =( NAMED_UNIT ( * ) SI_UNIT ( $, .STERADIAN. ) SOLID_ANGLE_UNIT ( ) );
#22 = ADVANCED_BREP_SHAPE_REPRESENTATION ( '48010', ( #74, #276, #92 ), #279 ) ;
#23 = COLOUR_RGB ( '',0.7921568627450980005, 0.8196078431372548767, 0.9333333333333333481 ) ;
#24 = CIRCLE ( 'NONE', #46, 0.06250000000000000000 ) ;
#25 = PRODUCT ( '48010', '48010', '', ( #70 ) ) ;
#26 = AXIS2_PLACEMENT_3D ( 'NONE', #32, #121, #288 ) ;
#27 = EDGE_CURVE ( 'NONE', #213, #61, #195, .T. ) ;
#28 = FACE_OUTER_BOUND ( 'NONE', #64, .T. ) ;
#29 = APPLICATION_CONTEXT ( 'automotive_design' ) ;
#30 = EDGE_CURVE ( 'NONE', #191, #303, #219, .T. ) ;
#31 = DIRECTION ( 'NONE',  ( 0.000000000000000000, 0.000000000000000000, -1.000000000000000000 ) ) ;
#32 = CARTESIAN_POINT ( 'NONE',  ( 0.06250000000000000000, 2.000000000000000000, 0.000000000000000000 ) ) ;
#33 = CARTESIAN_POINT ( 'NONE',  ( 4.437159120301362840E-35, 0.3750000000000000555, 0.000000000000000000 ) ) ;
#34 = MECHANICAL_DESIGN_GEOMETRIC_PRESENTATION_REPRESENTATION (  '', ( #122 ), #182 ) ;
#35 = FILL_AREA_STYLE ('',( #220 ) ) ;
#36 = ORIENTED_EDGE ( 'NONE', *, *, #30, .F. ) ;
#37 = DIRECTION ( 'NONE',  ( -3.768143997376475057E-17, 1.000000000000000000, -0.000000000000000000 ) ) ;
#38 = DIRECTION ( 'NONE',  ( -0.000000000000000000, -1.000000000000000000, -0.000000000000000000 ) ) ;
#39 = DIRECTION ( 'NONE',  ( -1.000000000000000000, 0.000000000000000000, 0.000000000000000000 ) ) ;
#40 = EDGE_CURVE ( 'NONE', #191, #173, #71, .T. ) ;
#41 = EDGE_LOOP ( 'NONE', ( #126, #289 ) ) ;
#42 = CARTESIAN_POINT ( 'NONE',  ( 0.000000000000000000, 0.3749999999999999445, 0.000000000000000000 ) ) ;
#43 = PRESENTATION_LAYER_ASSIGNMENT (  '', '', ( #165 ) ) ;
#44 = ORIENTED_EDGE ( 'NONE', *, *, #178, .F. ) ;
#45 = CARTESIAN_POINT ( 'NONE',  ( -0.06250000000000012490, 2.000000000000000000, 0.000000000000000000 ) ) ;
#46 = AXIS2_PLACEMENT_3D ( 'NONE', #301, #131, #190 ) ;
#47 = PRODUCT_DEFINITION_SHAPE ( 'NONE', 'NONE',  #309 ) ;
#48 = LENGTH_MEASURE_WITH_UNIT ( LENGTH_MEASURE( 0.02539999999999999897 ), #98 );
#49 = CARTESIAN_POINT ( 'NONE',  ( 0.06250000000000000000, 0.3749999999999999445, 7.654042494670963708E-18 ) ) ;
#50 = AXIS2_PLACEMENT_3D ( 'NONE', #144, #5, #142 ) ;
#51 = PRESENTATION_STYLE_ASSIGNMENT (( #139 ) ) ;
#52 = DIRECTION ( 'NONE',  ( 0.000000000000000000, -1.000000000000000000, -0.000000000000000000 ) ) ;
#53 = FILL_AREA_STYLE_COLOUR ( '', #97 ) ;
#54 = AXIS2_PLACEMENT_3D ( 'NONE', #6, #52, #31 ) ;
#55 = PRESENTATION_STYLE_ASSIGNMENT (( #266 ) ) ;
#56 = EDGE_CURVE ( 'NONE', #303, #171, #304, .T. ) ;
#57 = ORIENTED_EDGE ( 'NONE', *, *, #27, .F. ) ;
#58 = VECTOR ( 'NONE', #85, 39.37007874015748143 ) ;
#59 = CIRCLE ( 'NONE', #260, 0.06250000000000001388 ) ;
#60 = DIRECTION ( 'NONE',  ( -1.000000000000000000, -3.768143997376475057E-17, 0.000000000000000000 ) ) ;
#61 = VERTEX_POINT ( 'NONE', #45 ) ;
#62 = DIRECTION ( 'NONE',  ( 0.000000000000000000, 1.000000000000000000, 0.000000000000000000 ) ) ;
#63 = CARTESIAN_POINT ( 'NONE',  ( 7.654042494670959086E-18, 0.3750000000000000555, 0.06250000000000000000 ) ) ;
#64 = EDGE_LOOP ( 'NONE', ( #273, #225 ) ) ;
#65 = DIRECTION ( 'NONE',  ( 0.000000000000000000, 0.000000000000000000, 1.000000000000000000 ) ) ;
#66 = COLOUR_RGB ( '',1.000000000000000000, 0.000000000000000000, 0.000000000000000000 ) ;
#67 = ORIENTED_EDGE ( 'NONE', *, *, #294, .T. ) ;
#68 = DIMENSIONAL_EXPONENTS ( 1.000000000000000000, 0.000000000000000000, 0.000000000000000000, 0.000000000000000000, 0.000000000000000000, 0.000000000000000000, 0.000000000000000000 ) ;
#69 =( NAMED_UNIT ( * ) PLANE_ANGLE_UNIT ( ) SI_UNIT ( $, .RADIAN. ) );
#70 = PRODUCT_CONTEXT ( 'NONE', #29, 'mechanical' ) ;
#71 = CIRCLE ( 'NONE', #15, 0.06250000000000000000 ) ;
#72 = SURFACE_STYLE_USAGE ( .BOTH. , #170 ) ;
#73 = UNCERTAINTY_MEASURE_WITH_UNIT (LENGTH_MEASURE( 1.000000000000000082E-05 ), #181, 'distance_accuracy_value', 'NONE');
#74 = MANIFOLD_SOLID_BREP ( 'Revolve - Cutting Edge', #265 ) ;
#75 = STYLED_ITEM ( 'NONE', ( #55 ), #136 ) ;
#76 = SURFACE_STYLE_FILL_AREA ( #119 ) ;
#77 = DIRECTION ( 'NONE',  ( -0.000000000000000000, -1.000000000000000000, -0.000000000000000000 ) ) ;
#78 = MECHANICAL_DESIGN_GEOMETRIC_PRESENTATION_REPRESENTATION (  '', ( #165 ), #239 ) ;
#79 = AXIS2_PLACEMENT_3D ( 'NONE', #246, #62, #267 ) ;
#80 = AXIS2_PLACEMENT_3D ( 'NONE', #262, #77, #120 ) ;
#81 = DIRECTION ( 'NONE',  ( -0.000000000000000000, -1.000000000000000000, -0.000000000000000000 ) ) ;
#82 = FILL_AREA_STYLE ('',( #105 ) ) ;
#83 = CARTESIAN_POINT ( 'NONE',  ( -6.123233995736772199E-17, 2.000000000000000000, 0.000000000000000000 ) ) ;
#84 = DIMENSIONAL_EXPONENTS ( 1.000000000000000000, 0.000000000000000000, 0.000000000000000000, 0.000000000000000000, 0.000000000000000000, 0.000000000000000000, 0.000000000000000000 ) ;
#85 = DIRECTION ( 'NONE',  ( -0.000000000000000000, -1.000000000000000000, -0.000000000000000000 ) ) ;
#86 =( CONVERSION_BASED_UNIT ( 'INCH', #274 ) LENGTH_UNIT ( ) NAMED_UNIT ( #68 ) );
#87 = ORIENTED_EDGE ( 'NONE', *, *, #27, .T. ) ;
#88 = EDGE_LOOP ( 'NONE', ( #108, #247 ) ) ;
#89 = APPLICATION_PROTOCOL_DEFINITION ( 'draft international standard', 'automotive_design', 1998, #140 ) ;
#90 = CARTESIAN_POINT ( 'NONE',  ( 0.000000000000000000, 0.3750000000000000555, 0.000000000000000000 ) ) ;
#91 = UNCERTAINTY_MEASURE_WITH_UNIT (LENGTH_MEASURE( 1.000000000000000082E-05 ), #115, 'distance_accuracy_value', 'NONE');
#92 = AXIS2_PLACEMENT_3D ( 'NONE', #20, #65, #197 ) ;
#93 = ADVANCED_FACE ( 'NONE', ( #227 ), #135, .T. ) ;
#94 = DIMENSIONAL_EXPONENTS ( 1.000000000000000000, 0.000000000000000000, 0.000000000000000000, 0.000000000000000000, 0.000000000000000000, 0.000000000000000000, 0.000000000000000000 ) ;
#95 = PRESENTATION_STYLE_ASSIGNMENT (( #306 ) ) ;
#96 = COLOUR_RGB ( '',1.000000000000000000, 0.000000000000000000, 0.000000000000000000 ) ;
#97 = COLOUR_RGB ( '',1.000000000000000000, 0.000000000000000000, 0.000000000000000000 ) ;
#98 =( LENGTH_UNIT ( ) NAMED_UNIT ( * ) SI_UNIT ( $, .METRE. ) );
#99 = LENGTH_MEASURE_WITH_UNIT ( LENGTH_MEASURE( 0.02539999999999999897 ), #204 );
#100 = PLANE ( 'NONE',  #54 ) ;
#101 = VECTOR ( 'NONE', #130, 39.37007874015748143 ) ;
#102 = CIRCLE ( 'NONE', #233, 0.06250000000000005551 ) ;
#103 = FACE_OUTER_BOUND ( 'NONE', #268, .T. ) ;
#104 =( NAMED_UNIT ( * ) SI_UNIT ( $, .STERADIAN. ) SOLID_ANGLE_UNIT ( ) );
#105 = FILL_AREA_STYLE_COLOUR ( '', #23 ) ;
#106 = CARTESIAN_POINT ( 'NONE',  ( 0.06249999999999997224, 2.000000000000000000, 7.654042494670960626E-18 ) ) ;
#107 = PLANE ( 'NONE',  #208 ) ;
#108 = ORIENTED_EDGE ( 'NONE', *, *, #255, .F. ) ;
#109 = MECHANICAL_DESIGN_GEOMETRIC_PRESENTATION_REPRESENTATION (  '', ( #2 ), #177 ) ;
#110 = CARTESIAN_POINT ( 'NONE',  ( 0.000000000000000000, 0.000000000000000000, -0.06250000000000001388 ) ) ;
#111 = DIRECTION ( 'NONE',  ( -1.000000000000000000, 0.000000000000000000, 0.000000000000000000 ) ) ;
#112 = SURFACE_SIDE_STYLE ('',( #175 ) ) ;
#113 = ORIENTED_EDGE ( 'NONE', *, *, #185, .T. ) ;
#114 = PRODUCT_RELATED_PRODUCT_CATEGORY ( 'part', '', ( #25 ) ) ;
#115 =( CONVERSION_BASED_UNIT ( 'INCH', #48 ) LENGTH_UNIT ( ) NAMED_UNIT ( #254 ) );
#116 = FILL_AREA_STYLE ('',( #256 ) ) ;
#117 = SURFACE_STYLE_FILL_AREA ( #116 ) ;
#118 = PRESENTATION_LAYER_ASSIGNMENT (  '', '', ( #305 ) ) ;
#119 = FILL_AREA_STYLE ('',( #137 ) ) ;
#120 = DIRECTION ( 'NONE',  ( 0.000000000000000000, 0.000000000000000000, -1.000000000000000000 ) ) ;
#121 = DIRECTION ( 'NONE',  ( 3.768143997376475057E-17, -1.000000000000000000, 0.000000000000000000 ) ) ;
#122 = STYLED_ITEM ( 'NONE', ( #51 ), #133 ) ;
#123 = LENGTH_MEASURE_WITH_UNIT ( LENGTH_MEASURE( 0.02539999999999999897 ), #161 );
#124 = FILL_AREA_STYLE_COLOUR ( '', #66 ) ;
#125 = FILL_AREA_STYLE ('',( #124 ) ) ;
#126 = ORIENTED_EDGE ( 'NONE', *, *, #160, .F. ) ;
#127 = DIRECTION ( 'NONE',  ( -0.000000000000000000, -1.000000000000000000, -0.000000000000000000 ) ) ;
#128 = PRESENTATION_STYLE_ASSIGNMENT (( #147 ) ) ;
#129 = PLANE ( 'NONE',  #79 ) ;
#130 = DIRECTION ( 'NONE',  ( -3.768143997376475057E-17, 1.000000000000000000, -0.000000000000000000 ) ) ;
#131 = DIRECTION ( 'NONE',  ( -3.768143997376475057E-17, 1.000000000000000000, -0.000000000000000000 ) ) ;
#132 = EDGE_LOOP ( 'NONE', ( #176, #275, #44, #270 ) ) ;
#133 = ADVANCED_FACE ( 'NONE', ( #238 ), #291, .T. ) ;
#134 = DIMENSIONAL_EXPONENTS ( 1.000000000000000000, 0.000000000000000000, 0.000000000000000000, 0.000000000000000000, 0.000000000000000000, 0.000000000000000000, 0.000000000000000000 ) ;
#135 = CYLINDRICAL_SURFACE ( 'NONE', #50, 0.06250000000000001388 ) ;
#136 = ADVANCED_FACE ( 'NONE', ( #28 ), #100, .T. ) ;
#137 = FILL_AREA_STYLE_COLOUR ( '', #300 ) ;
#138 =( NAMED_UNIT ( * ) PLANE_ANGLE_UNIT ( ) SI_UNIT ( $, .RADIAN. ) );
#139 = SURFACE_STYLE_USAGE ( .BOTH. , #293 ) ;
#140 = APPLICATION_CONTEXT ( 'automotive_design' ) ;
#141 = ADVANCED_FACE ( 'NONE', ( #103 ), #183, .T. ) ;
#142 = DIRECTION ( 'NONE',  ( 0.000000000000000000, 0.000000000000000000, -1.000000000000000000 ) ) ;
#143 = PRESENTATION_LAYER_ASSIGNMENT (  '', '', ( #75 ) ) ;
#144 = CARTESIAN_POINT ( 'NONE',  ( 0.000000000000000000, 0.000000000000000000, 0.000000000000000000 ) ) ;
#145 = DIRECTION ( 'NONE',  ( -1.000000000000000000, 0.000000000000000000, 0.000000000000000000 ) ) ;
#146 = CARTESIAN_POINT ( 'NONE',  ( 0.000000000000000000, 0.3750000000000000555, -0.06250000000000000000 ) ) ;
#147 = SURFACE_STYLE_USAGE ( .BOTH. , #189 ) ;
#148 = AXIS2_PLACEMENT_3D ( 'NONE', #156, #38, #252 ) ;
#149 = MECHANICAL_DESIGN_GEOMETRIC_PRESENTATION_REPRESENTATION (  '', ( #203 ), #155 ) ;
#150 = CARTESIAN_POINT ( 'NONE',  ( -0.06250000000000009714, 2.000000000000000000, 0.000000000000000000 ) ) ;
#151 = DIRECTION ( 'NONE',  ( -0.000000000000000000, -1.000000000000000000, -0.000000000000000000 ) ) ;
#152 = LINE ( 'NONE', #106, #101 ) ;
#153 = DIRECTION ( 'NONE',  ( 0.000000000000000000, 0.000000000000000000, -1.000000000000000000 ) ) ;
#154 = EDGE_LOOP ( 'NONE', ( #36, #19, #113, #216 ) ) ;
#155 =( GEOMETRIC_REPRESENTATION_CONTEXT ( 3 ) GLOBAL_UNCERTAINTY_ASSIGNED_CONTEXT ( ( #223 ) ) GLOBAL_UNIT_ASSIGNED_CONTEXT ( ( #12, #285, #236 ) ) REPRESENTATION_CONTEXT ( 'NONE', 'WORKASPACE' ) );
#156 = CARTESIAN_POINT ( 'NONE',  ( 0.000000000000000000, 0.000000000000000000, 0.000000000000000000 ) ) ;
#157 = SHAPE_DEFINITION_REPRESENTATION ( #47, #22 ) ;
#158 = PRODUCT_DEFINITION_CONTEXT ( 'detailed design', #140, 'design' ) ;
#159 = LENGTH_MEASURE_WITH_UNIT ( LENGTH_MEASURE( 0.02539999999999999897 ), #286 );
#160 = EDGE_CURVE ( 'NONE', #173, #191, #199, .T. ) ;
#161 =( LENGTH_UNIT ( ) NAMED_UNIT ( * ) SI_UNIT ( $, .METRE. ) );
#162 = LENGTH_MEASURE_WITH_UNIT ( LENGTH_MEASURE( 0.02539999999999999897 ), #259 );
#163 = CARTESIAN_POINT ( 'NONE',  ( -6.123233995736772199E-17, 2.000000000000000000, 0.000000000000000000 ) ) ;
#164 =( NAMED_UNIT ( * ) SI_UNIT ( $, .STERADIAN. ) SOLID_ANGLE_UNIT ( ) );
#165 = STYLED_ITEM ( 'NONE', ( #95 ), #93 ) ;
#166 = AXIS2_PLACEMENT_3D ( 'NONE', #83, #37, #145 ) ;
#167 = FILL_AREA_STYLE ('',( #53 ) ) ;
#168 = VERTEX_POINT ( 'NONE', #249 ) ;
#169 = SURFACE_STYLE_FILL_AREA ( #82 ) ;
#170 = SURFACE_SIDE_STYLE ('',( #296 ) ) ;
#171 = VERTEX_POINT ( 'NONE', #18 ) ;
#172 = LINE ( 'NONE', #110, #222 ) ;
#173 = VERTEX_POINT ( 'NONE', #146 ) ;
#174 = ORIENTED_EDGE ( 'NONE', *, *, #8, .F. ) ;
#175 = SURFACE_STYLE_FILL_AREA ( #125 ) ;
#176 = ORIENTED_EDGE ( 'NONE', *, *, #160, .T. ) ;
#177 =( GEOMETRIC_REPRESENTATION_CONTEXT ( 3 ) GLOBAL_UNCERTAINTY_ASSIGNED_CONTEXT ( ( #280 ) ) GLOBAL_UNIT_ASSIGNED_CONTEXT ( ( #230, #229, #21 ) ) REPRESENTATION_CONTEXT ( 'NONE', 'WORKASPACE' ) );
#178 = EDGE_CURVE ( 'NONE', #171, #303, #59, .T. ) ;
#179 = UNCERTAINTY_MEASURE_WITH_UNIT (LENGTH_MEASURE( 1.000000000000000082E-05 ), #290, 'distance_accuracy_value', 'NONE');
#180 = SURFACE_STYLE_FILL_AREA ( #167 ) ;
#181 =( CONVERSION_BASED_UNIT ( 'INCH', #99 ) LENGTH_UNIT ( ) NAMED_UNIT ( #214 ) );
#182 =( GEOMETRIC_REPRESENTATION_CONTEXT ( 3 ) GLOBAL_UNCERTAINTY_ASSIGNED_CONTEXT ( ( #179 ) ) GLOBAL_UNIT_ASSIGNED_CONTEXT ( ( #290, #210, #104 ) ) REPRESENTATION_CONTEXT ( 'NONE', 'WORKASPACE' ) );
#183 = CYLINDRICAL_SURFACE ( 'NONE', #271, 0.06250000000000002776 ) ;
#184 = PRESENTATION_LAYER_ASSIGNMENT (  '', '', ( #122 ) ) ;
#185 = EDGE_CURVE ( 'NONE', #173, #171, #172, .T. ) ;
#186 =( NAMED_UNIT ( * ) SI_UNIT ( $, .STERADIAN. ) SOLID_ANGLE_UNIT ( ) );
#187 = DIRECTION ( 'NONE',  ( -0.000000000000000000, -1.000000000000000000, -0.000000000000000000 ) ) ;
#188 = DIMENSIONAL_EXPONENTS ( 1.000000000000000000, 0.000000000000000000, 0.000000000000000000, 0.000000000000000000, 0.000000000000000000, 0.000000000000000000, 0.000000000000000000 ) ;
#189 = SURFACE_SIDE_STYLE ('',( #169 ) ) ;
#190 = DIRECTION ( 'NONE',  ( -1.000000000000000000, 0.000000000000000000, 0.000000000000000000 ) ) ;
#191 = VERTEX_POINT ( 'NONE', #63 ) ;
#192 = EDGE_CURVE ( 'NONE', #297, #213, #193, .T. ) ;
#193 = CIRCLE ( 'NONE', #287, 0.06250000000000000000 ) ;
#194 = CARTESIAN_POINT ( 'NONE',  ( 0.000000000000000000, 0.000000000000000000, 0.000000000000000000 ) ) ;
#195 = LINE ( 'NONE', #150, #237 ) ;
#196 =( LENGTH_UNIT ( ) NAMED_UNIT ( * ) SI_UNIT ( $, .METRE. ) );
#197 = DIRECTION ( 'NONE',  ( 1.000000000000000000, 0.000000000000000000, 0.000000000000000000 ) ) ;
#198 = CARTESIAN_POINT ( 'NONE',  ( 7.654042494670959086E-18, 0.000000000000000000, 0.06250000000000001388 ) ) ;
#199 = CIRCLE ( 'NONE', #245, 0.06250000000000000000 ) ;
#200 = SURFACE_SIDE_STYLE ('',( #117 ) ) ;
#201 = ADVANCED_FACE ( 'NONE', ( #272 ), #211, .T. ) ;
#202 = CIRCLE ( 'NONE', #212, 0.06250000000000005551 ) ;
#203 = STYLED_ITEM ( 'NONE', ( #232 ), #276 ) ;
#204 =( LENGTH_UNIT ( ) NAMED_UNIT ( * ) SI_UNIT ( $, .METRE. ) );
#205 =( NAMED_UNIT ( * ) PLANE_ANGLE_UNIT ( ) SI_UNIT ( $, .RADIAN. ) );
#206 = PLANE ( 'NONE',  #26 ) ;
#207 = SURFACE_SIDE_STYLE ('',( #76 ) ) ;
#208 = AXIS2_PLACEMENT_3D ( 'NONE', #33, #215, #60 ) ;
#209 =( LENGTH_UNIT ( ) NAMED_UNIT ( * ) SI_UNIT ( $, .METRE. ) );
#210 =( NAMED_UNIT ( * ) PLANE_ANGLE_UNIT ( ) SI_UNIT ( $, .RADIAN. ) );
#211 = CYLINDRICAL_SURFACE ( 'NONE', #166, 0.06250000000000002776 ) ;
#212 = AXIS2_PLACEMENT_3D ( 'NONE', #11, #248, #111 ) ;
#213 = VERTEX_POINT ( 'NONE', #243 ) ;
#214 = DIMENSIONAL_EXPONENTS ( 1.000000000000000000, 0.000000000000000000, 0.000000000000000000, 0.000000000000000000, 0.000000000000000000, 0.000000000000000000, 0.000000000000000000 ) ;
#215 = DIRECTION ( 'NONE',  ( -3.768143997376475057E-17, 1.000000000000000000, 0.000000000000000000 ) ) ;
#216 = ORIENTED_EDGE ( 'NONE', *, *, #56, .F. ) ;
#217 = UNCERTAINTY_MEASURE_WITH_UNIT (LENGTH_MEASURE( 1.000000000000000082E-05 ), #86, 'distance_accuracy_value', 'NONE');
#218 = DIRECTION ( 'NONE',  ( -3.768143997376475057E-17, 1.000000000000000000, -0.000000000000000000 ) ) ;
#219 = LINE ( 'NONE', #198, #58 ) ;
#220 = FILL_AREA_STYLE_COLOUR ( '', #292 ) ;
#221 = DIRECTION ( 'NONE',  ( -3.768143997376475057E-17, 1.000000000000000000, -0.000000000000000000 ) ) ;
#222 = VECTOR ( 'NONE', #81, 39.37007874015748143 ) ;
#223 = UNCERTAINTY_MEASURE_WITH_UNIT (LENGTH_MEASURE( 1.000000000000000082E-05 ), #12, 'distance_accuracy_value', 'NONE');
#224 = CARTESIAN_POINT ( 'NONE',  ( 0.000000000000000000, 0.3750000000000000555, 0.000000000000000000 ) ) ;
#225 = ORIENTED_EDGE ( 'NONE', *, *, #56, .T. ) ;
#226 = ORIENTED_EDGE ( 'NONE', *, *, #255, .T. ) ;
#227 = FACE_OUTER_BOUND ( 'NONE', #132, .T. ) ;
#228 =( GEOMETRIC_REPRESENTATION_CONTEXT ( 3 ) GLOBAL_UNCERTAINTY_ASSIGNED_CONTEXT ( ( #217 ) ) GLOBAL_UNIT_ASSIGNED_CONTEXT ( ( #86, #9, #186 ) ) REPRESENTATION_CONTEXT ( 'NONE', 'WORKASPACE' ) );
#229 =( NAMED_UNIT ( * ) PLANE_ANGLE_UNIT ( ) SI_UNIT ( $, .RADIAN. ) );
#230 =( CONVERSION_BASED_UNIT ( 'INCH', #159 ) LENGTH_UNIT ( ) NAMED_UNIT ( #188 ) );
#231 = CARTESIAN_POINT ( 'NONE',  ( -6.123233995736772199E-17, 2.000000000000000000, 0.000000000000000000 ) ) ;
#232 = PRESENTATION_STYLE_ASSIGNMENT (( #72 ) ) ;
#233 = AXIS2_PLACEMENT_3D ( 'NONE', #231, #4, #257 ) ;
#234 =( NAMED_UNIT ( * ) SI_UNIT ( $, .STERADIAN. ) SOLID_ANGLE_UNIT ( ) );
#235 =( CONVERSION_BASED_UNIT ( 'INCH', #123 ) LENGTH_UNIT ( ) NAMED_UNIT ( #134 ) );
#236 =( NAMED_UNIT ( * ) SI_UNIT ( $, .STERADIAN. ) SOLID_ANGLE_UNIT ( ) );
#237 = VECTOR ( 'NONE', #221, 39.37007874015748143 ) ;
#238 = FACE_OUTER_BOUND ( 'NONE', #154, .T. ) ;
#239 =( GEOMETRIC_REPRESENTATION_CONTEXT ( 3 ) GLOBAL_UNCERTAINTY_ASSIGNED_CONTEXT ( ( #91 ) ) GLOBAL_UNIT_ASSIGNED_CONTEXT ( ( #115, #69, #164 ) ) REPRESENTATION_CONTEXT ( 'NONE', 'WORKASPACE' ) );
#240 = PRODUCT_DEFINITION_FORMATION_WITH_SPECIFIED_SOURCE ( 'ANY', '', #25, .NOT_KNOWN. ) ;
#241 =( NAMED_UNIT ( * ) SI_UNIT ( $, .STERADIAN. ) SOLID_ANGLE_UNIT ( ) );
#242 = FACE_OUTER_BOUND ( 'NONE', #88, .T. ) ;
#243 = CARTESIAN_POINT ( 'NONE',  ( -0.06250000000000000000, 0.3749999999999999445, 0.000000000000000000 ) ) ;
#244 = ORIENTED_EDGE ( 'NONE', *, *, #17, .F. ) ;
#245 = AXIS2_PLACEMENT_3D ( 'NONE', #224, #151, #153 ) ;
#246 = CARTESIAN_POINT ( 'NONE',  ( 0.000000000000000000, 0.3750000000000000555, 0.000000000000000000 ) ) ;
#247 = ORIENTED_EDGE ( 'NONE', *, *, #192, .F. ) ;
#248 = DIRECTION ( 'NONE',  ( -3.768143997376475057E-17, 1.000000000000000000, -0.000000000000000000 ) ) ;
#249 = CARTESIAN_POINT ( 'NONE',  ( 0.06250000000000000000, 2.000000000000000000, 7.654042494670963708E-18 ) ) ;
#250 = ORIENTED_EDGE ( 'NONE', *, *, #17, .T. ) ;
#251 = PRESENTATION_LAYER_ASSIGNMENT (  '', '', ( #203 ) ) ;
#252 = DIRECTION ( 'NONE',  ( 0.000000000000000000, 0.000000000000000000, -1.000000000000000000 ) ) ;
#253 = ADVANCED_FACE ( 'NONE', ( #242 ), #107, .F. ) ;
#254 = DIMENSIONAL_EXPONENTS ( 1.000000000000000000, 0.000000000000000000, 0.000000000000000000, 0.000000000000000000, 0.000000000000000000, 0.000000000000000000, 0.000000000000000000 ) ;
#255 = EDGE_CURVE ( 'NONE', #213, #297, #24, .T. ) ;
#256 = FILL_AREA_STYLE_COLOUR ( '', #96 ) ;
#257 = DIRECTION ( 'NONE',  ( -1.000000000000000000, 0.000000000000000000, 0.000000000000000000 ) ) ;
#258 = ADVANCED_FACE ( 'NONE', ( #14 ), #129, .T. ) ;
#259 =( LENGTH_UNIT ( ) NAMED_UNIT ( * ) SI_UNIT ( $, .METRE. ) );
#260 = AXIS2_PLACEMENT_3D ( 'NONE', #194, #127, #277 ) ;
#261 = CARTESIAN_POINT ( 'NONE',  ( 7.654042494670960626E-18, 0.000000000000000000, 0.06250000000000002776 ) ) ;
#262 = CARTESIAN_POINT ( 'NONE',  ( 0.000000000000000000, 0.000000000000000000, 0.000000000000000000 ) ) ;
#263 = EDGE_LOOP ( 'NONE', ( #67, #302 ) ) ;
#264 = LENGTH_MEASURE_WITH_UNIT ( LENGTH_MEASURE( 0.02539999999999999897 ), #209 );
#265 = CLOSED_SHELL ( 'NONE', ( #93, #258, #133, #136 ) ) ;
#266 = SURFACE_STYLE_USAGE ( .BOTH. , #207 ) ;
#267 = DIRECTION ( 'NONE',  ( 0.000000000000000000, -0.000000000000000000, 1.000000000000000000 ) ) ;
#268 = EDGE_LOOP ( 'NONE', ( #226, #250, #16, #57 ) ) ;
#269 = DIRECTION ( 'NONE',  ( -1.000000000000000000, 0.000000000000000000, 0.000000000000000000 ) ) ;
#270 = ORIENTED_EDGE ( 'NONE', *, *, #185, .F. ) ;
#271 = AXIS2_PLACEMENT_3D ( 'NONE', #163, #218, #269 ) ;
#272 = FACE_OUTER_BOUND ( 'NONE', #295, .T. ) ;
#273 = ORIENTED_EDGE ( 'NONE', *, *, #178, .T. ) ;
#274 = LENGTH_MEASURE_WITH_UNIT ( LENGTH_MEASURE( 0.02539999999999999897 ), #196 );
#275 = ORIENTED_EDGE ( 'NONE', *, *, #30, .T. ) ;
#276 = MANIFOLD_SOLID_BREP ( 'Revolve - Tool Body (Straight Shanked)', #7 ) ;
#277 = DIRECTION ( 'NONE',  ( 0.000000000000000000, 0.000000000000000000, -1.000000000000000000 ) ) ;
#278 = DIRECTION ( 'NONE',  ( 0.000000000000000000, 0.000000000000000000, -1.000000000000000000 ) ) ;
#279 =( GEOMETRIC_REPRESENTATION_CONTEXT ( 3 ) GLOBAL_UNCERTAINTY_ASSIGNED_CONTEXT ( ( #73 ) ) GLOBAL_UNIT_ASSIGNED_CONTEXT ( ( #181, #138, #241 ) ) REPRESENTATION_CONTEXT ( 'NONE', 'WORKASPACE' ) );
#280 = UNCERTAINTY_MEASURE_WITH_UNIT (LENGTH_MEASURE( 1.000000000000000082E-05 ), #230, 'distance_accuracy_value', 'NONE');
#281 = APPLICATION_PROTOCOL_DEFINITION ( 'draft international standard', 'automotive_design', 1998, #29 ) ;
#282 = ADVANCED_FACE ( 'NONE', ( #1 ), #206, .F. ) ;
#283 = UNCERTAINTY_MEASURE_WITH_UNIT (LENGTH_MEASURE( 1.000000000000000082E-05 ), #235, 'distance_accuracy_value', 'NONE');
#284 =( GEOMETRIC_REPRESENTATION_CONTEXT ( 3 ) GLOBAL_UNCERTAINTY_ASSIGNED_CONTEXT ( ( #283 ) ) GLOBAL_UNIT_ASSIGNED_CONTEXT ( ( #235, #205, #234 ) ) REPRESENTATION_CONTEXT ( 'NONE', 'WORKASPACE' ) );
#285 =( NAMED_UNIT ( * ) PLANE_ANGLE_UNIT ( ) SI_UNIT ( $, .RADIAN. ) );
#286 =( LENGTH_UNIT ( ) NAMED_UNIT ( * ) SI_UNIT ( $, .METRE. ) );
#287 = AXIS2_PLACEMENT_3D ( 'NONE', #42, #13, #39 ) ;
#288 = DIRECTION ( 'NONE',  ( 1.000000000000000000, 3.768143997376475057E-17, 0.000000000000000000 ) ) ;
#289 = ORIENTED_EDGE ( 'NONE', *, *, #40, .F. ) ;
#290 =( CONVERSION_BASED_UNIT ( 'INCH', #264 ) LENGTH_UNIT ( ) NAMED_UNIT ( #84 ) );
#291 = CYLINDRICAL_SURFACE ( 'NONE', #80, 0.06250000000000001388 ) ;
#292 = COLOUR_RGB ( '',0.7921568627450980005, 0.8196078431372548767, 0.9333333333333333481 ) ;
#293 = SURFACE_SIDE_STYLE ('',( #180 ) ) ;
#294 = EDGE_CURVE ( 'NONE', #61, #168, #102, .T. ) ;
#295 = EDGE_LOOP ( 'NONE', ( #244, #299, #87, #174 ) ) ;
#296 = SURFACE_STYLE_FILL_AREA ( #35 ) ;
#297 = VERTEX_POINT ( 'NONE', #49 ) ;
#298 = PRESENTATION_STYLE_ASSIGNMENT (( #10 ) ) ;
#299 = ORIENTED_EDGE ( 'NONE', *, *, #192, .T. ) ;
#300 = COLOUR_RGB ( '',1.000000000000000000, 0.000000000000000000, 0.000000000000000000 ) ;
#301 = CARTESIAN_POINT ( 'NONE',  ( 0.000000000000000000, 0.3749999999999999445, 0.000000000000000000 ) ) ;
#302 = ORIENTED_EDGE ( 'NONE', *, *, #8, .T. ) ;
#303 = VERTEX_POINT ( 'NONE', #261 ) ;
#304 = CIRCLE ( 'NONE', #148, 0.06250000000000001388 ) ;
#305 = STYLED_ITEM ( 'NONE', ( #298 ), #258 ) ;
#306 = SURFACE_STYLE_USAGE ( .BOTH. , #200 ) ;
#307 = PRESENTATION_LAYER_ASSIGNMENT (  '', '', ( #2 ) ) ;
#308 = MECHANICAL_DESIGN_GEOMETRIC_PRESENTATION_REPRESENTATION (  '', ( #305 ), #228 ) ;
#309 = PRODUCT_DEFINITION ( 'UNKNOWN', '', #240, #158 ) ;
ENDSEC;
END-ISO-10303-21;
