ISO-10303-21;
HEADER;
FILE_DESCRIPTION (( 'STEP AP214' ),
    '1' );
FILE_NAME ('83427.STEP',
    '2023-06-30T23:19:34',
    ( '' ),
    ( '' ),
    'SwSTEP 2.0',
    'SolidWorks 2023',
    '' );
FILE_SCHEMA (( 'AUTOMOTIVE_DESIGN' ));
ENDSEC;

DATA;
#1 = CARTESIAN_POINT ( 'NONE',  ( 0.000000000000000000, 0.000000000000000000, 0.000000000000000000 ) ) ;
#2 =( NAMED_UNIT ( * ) SI_UNIT ( $, .STERADIAN. ) SOLID_ANGLE_UNIT ( ) );
#3 = CARTESIAN_POINT ( 'NONE',  ( 4.592425496802572986E-17, 2.250000000000000000, 0.3749999999999998335 ) ) ;
#4 =( LENGTH_UNIT ( ) NAMED_UNIT ( * ) SI_UNIT ( $, .METRE. ) );
#5 = DIMENSIONAL_EXPONENTS ( 1.000000000000000000, 0.000000000000000000, 0.000000000000000000, 0.000000000000000000, 0.000000000000000000, 0.000000000000000000, 0.000000000000000000 ) ;
#6 = AXIS2_PLACEMENT_3D ( 'NONE', #333, #81, #31 ) ;
#7 =( NAMED_UNIT ( * ) SI_UNIT ( $, .STERADIAN. ) SOLID_ANGLE_UNIT ( ) );
#8 = ADVANCED_FACE ( 'NONE', ( #369 ), #78, .T. ) ;
#9 = CARTESIAN_POINT ( 'NONE',  ( 0.000000000000000000, 0.000000000000000000, 0.000000000000000000 ) ) ;
#10 = DIRECTION ( 'NONE',  ( 1.000000000000000000, 0.000000000000000000, 0.000000000000000000 ) ) ;
#11 = UNCERTAINTY_MEASURE_WITH_UNIT (LENGTH_MEASURE( 1.000000000000000082E-05 ), #167, 'distance_accuracy_value', 'NONE');
#12 = MECHANICAL_DESIGN_GEOMETRIC_PRESENTATION_REPRESENTATION (  '', ( #164 ), #266 ) ;
#13 = ORIENTED_EDGE ( 'NONE', *, *, #340, .F. ) ;
#14 = PLANE ( 'NONE',  #45 ) ;
#15 =( NAMED_UNIT ( * ) SI_UNIT ( $, .STERADIAN. ) SOLID_ANGLE_UNIT ( ) );
#16 = VECTOR ( 'NONE', #146, 39.37007874015748143 ) ;
#17 = CARTESIAN_POINT ( 'NONE',  ( 0.000000000000000000, 0.000000000000000000, 0.000000000000000000 ) ) ;
#18 = ORIENTED_EDGE ( 'NONE', *, *, #323, .T. ) ;
#19 = FILL_AREA_STYLE_COLOUR ( '', #288 ) ;
#20 = PRESENTATION_STYLE_ASSIGNMENT (( #79 ) ) ;
#21 = ADVANCED_FACE ( 'NONE', ( #212 ), #180, .T. ) ;
#22 =( NAMED_UNIT ( * ) PLANE_ANGLE_UNIT ( ) SI_UNIT ( $, .RADIAN. ) );
#23 = STYLED_ITEM ( 'NONE', ( #328 ), #162 ) ;
#24 = PRESENTATION_LAYER_ASSIGNMENT (  '', '', ( #137 ) ) ;
#25 =( NAMED_UNIT ( * ) SI_UNIT ( $, .STERADIAN. ) SOLID_ANGLE_UNIT ( ) );
#26 = CARTESIAN_POINT ( 'NONE',  ( 0.000000000000000000, 0.3750000000000001665, 0.000000000000000000 ) ) ;
#27 = VERTEX_POINT ( 'NONE', #257 ) ;
#28 = CARTESIAN_POINT ( 'NONE',  ( -0.3750000000000001110, 5.000000000000000000, 0.000000000000000000 ) ) ;
#29 = CIRCLE ( 'NONE', #319, 0.3750000000000001110 ) ;
#30 = PRODUCT_DEFINITION_CONTEXT ( 'detailed design', #232, 'design' ) ;
#31 = DIRECTION ( 'NONE',  ( 1.000000000000000000, 0.000000000000000000, 0.000000000000000000 ) ) ;
#32 = DIRECTION ( 'NONE',  ( -1.273890871941106809E-16, 1.000000000000000000, -0.000000000000000000 ) ) ;
#33 = CYLINDRICAL_SURFACE ( 'NONE', #231, 0.3749999999999998335 ) ;
#34 = DIMENSIONAL_EXPONENTS ( 1.000000000000000000, 0.000000000000000000, 0.000000000000000000, 0.000000000000000000, 0.000000000000000000, 0.000000000000000000, 0.000000000000000000 ) ;
#35 = CARTESIAN_POINT ( 'NONE',  ( 0.000000000000000000, 2.250000000000000000, 0.000000000000000000 ) ) ;
#36 = SURFACE_SIDE_STYLE ('',( #163 ) ) ;
#37 = ADVANCED_FACE ( 'NONE', ( #223 ), #33, .T. ) ;
#38 = ORIENTED_EDGE ( 'NONE', *, *, #118, .F. ) ;
#39 = CIRCLE ( 'NONE', #303, 0.3750000000000001110 ) ;
#40 = MECHANICAL_DESIGN_GEOMETRIC_PRESENTATION_REPRESENTATION (  '', ( #23 ), #77 ) ;
#41 = VECTOR ( 'NONE', #341, 39.37007874015748143 ) ;
#42 = DIRECTION ( 'NONE',  ( 1.224646799147353207E-16, -0.000000000000000000, 1.000000000000000000 ) ) ;
#43 = LINE ( 'NONE', #139, #84 ) ;
#44 = COLOUR_RGB ( '',1.000000000000000000, 0.000000000000000000, 0.000000000000000000 ) ;
#45 = AXIS2_PLACEMENT_3D ( 'NONE', #66, #115, #200 ) ;
#46 = ORIENTED_EDGE ( 'NONE', *, *, #195, .T. ) ;
#47 = SURFACE_STYLE_USAGE ( .BOTH. , #149 ) ;
#48 = VERTEX_POINT ( 'NONE', #54 ) ;
#49 = ADVANCED_FACE ( 'NONE', ( #309 ), #153, .T. ) ;
#50 = FILL_AREA_STYLE ('',( #19 ) ) ;
#51 = STYLED_ITEM ( 'NONE', ( #211 ), #286 ) ;
#52 = VERTEX_POINT ( 'NONE', #348 ) ;
#53 = DIRECTION ( 'NONE',  ( 0.000000000000000000, -0.000000000000000000, 1.000000000000000000 ) ) ;
#54 = CARTESIAN_POINT ( 'NONE',  ( 0.3749999999999998335, 5.000000000000000000, 4.592425496802572986E-17 ) ) ;
#55 = FACE_OUTER_BOUND ( 'NONE', #267, .T. ) ;
#56 = CARTESIAN_POINT ( 'NONE',  ( -2.296212748401288034E-17, 0.000000000000000000, 0.000000000000000000 ) ) ;
#57 = CIRCLE ( 'NONE', #312, 0.3749999999999999445 ) ;
#58 = LINE ( 'NONE', #276, #249 ) ;
#59 = SURFACE_STYLE_FILL_AREA ( #311 ) ;
#60 =( LENGTH_UNIT ( ) NAMED_UNIT ( * ) SI_UNIT ( $, .METRE. ) );
#61 = CARTESIAN_POINT ( 'NONE',  ( -1.224646799147353207E-16, 5.000000000000000000, 0.000000000000000000 ) ) ;
#62 = FILL_AREA_STYLE ('',( #320 ) ) ;
#63 =( LENGTH_UNIT ( ) NAMED_UNIT ( * ) SI_UNIT ( $, .METRE. ) );
#64 = CARTESIAN_POINT ( 'NONE',  ( -4.592425496802576068E-17, 0.3750000000000001110, 0.000000000000000000 ) ) ;
#65 = PRESENTATION_LAYER_ASSIGNMENT (  '', '', ( #23 ) ) ;
#66 = CARTESIAN_POINT ( 'NONE',  ( 2.278553098690689840E-16, 2.250000000000000000, 0.000000000000000000 ) ) ;
#67 = EDGE_CURVE ( 'NONE', #307, #339, #70, .T. ) ;
#68 = DIRECTION ( 'NONE',  ( 0.000000000000000000, 0.000000000000000000, 1.000000000000000000 ) ) ;
#69 = LENGTH_MEASURE_WITH_UNIT ( LENGTH_MEASURE( 0.02539999999999999897 ), #100 );
#70 = CIRCLE ( 'NONE', #358, 0.3749999999999998335 ) ;
#71 = CARTESIAN_POINT ( 'NONE',  ( 2.278553098690690333E-16, 2.250000000000000444, 0.000000000000000000 ) ) ;
#72 = LENGTH_MEASURE_WITH_UNIT ( LENGTH_MEASURE( 0.02539999999999999897 ), #331 );
#73 =( NAMED_UNIT ( * ) PLANE_ANGLE_UNIT ( ) SI_UNIT ( $, .RADIAN. ) );
#74 = LENGTH_MEASURE_WITH_UNIT ( LENGTH_MEASURE( 0.02539999999999999897 ), #334 );
#75 = VERTEX_POINT ( 'NONE', #56 ) ;
#76 = FILL_AREA_STYLE_COLOUR ( '', #326 ) ;
#77 =( GEOMETRIC_REPRESENTATION_CONTEXT ( 3 ) GLOBAL_UNCERTAINTY_ASSIGNED_CONTEXT ( ( #210 ) ) GLOBAL_UNIT_ASSIGNED_CONTEXT ( ( #283, #226, #117 ) ) REPRESENTATION_CONTEXT ( 'NONE', 'WORKASPACE' ) );
#78 = SPHERICAL_SURFACE ( 'NONE', #6, 0.3750000000000001110 ) ;
#79 = SURFACE_STYLE_USAGE ( .BOTH. , #145 ) ;
#80 = FACE_OUTER_BOUND ( 'NONE', #135, .T. ) ;
#81 = DIRECTION ( 'NONE',  ( 0.000000000000000000, 0.000000000000000000, 1.000000000000000000 ) ) ;
#82 = EDGE_CURVE ( 'NONE', #151, #106, #295, .T. ) ;
#83 = FILL_AREA_STYLE_COLOUR ( '', #192 ) ;
#84 = VECTOR ( 'NONE', #366, 39.37007874015748143 ) ;
#85 = CARTESIAN_POINT ( 'NONE',  ( 0.000000000000000000, 2.250000000000000000, -0.3749999999999998335 ) ) ;
#86 = PRESENTATION_LAYER_ASSIGNMENT (  '', '', ( #349 ) ) ;
#87 = PRESENTATION_LAYER_ASSIGNMENT (  '', '', ( #51 ) ) ;
#88 = SURFACE_STYLE_FILL_AREA ( #62 ) ;
#89 = DIRECTION ( 'NONE',  ( -1.000000000000000000, 0.000000000000000000, 0.000000000000000000 ) ) ;
#90 = VERTEX_POINT ( 'NONE', #28 ) ;
#91 = APPLICATION_PROTOCOL_DEFINITION ( 'draft international standard', 'automotive_design', 1998, #232 ) ;
#92 = DIRECTION ( 'NONE',  ( -1.273890871941106809E-16, 1.000000000000000000, -0.000000000000000000 ) ) ;
#93 = COLOUR_RGB ( '',1.000000000000000000, 0.000000000000000000, 0.000000000000000000 ) ;
#94 = CIRCLE ( 'NONE', #238, 0.3749999999999998335 ) ;
#95 = SURFACE_STYLE_USAGE ( .BOTH. , #321 ) ;
#96 = DIRECTION ( 'NONE',  ( 0.000000000000000000, 0.000000000000000000, -1.000000000000000000 ) ) ;
#97 = ADVANCED_FACE ( 'NONE', ( #107 ), #197, .T. ) ;
#98 = SURFACE_STYLE_FILL_AREA ( #301 ) ;
#99 = CIRCLE ( 'NONE', #116, 0.3749999999999996114 ) ;
#100 =( LENGTH_UNIT ( ) NAMED_UNIT ( * ) SI_UNIT ( $, .METRE. ) );
#101 = ORIENTED_EDGE ( 'NONE', *, *, #179, .T. ) ;
#102 = DIRECTION ( 'NONE',  ( -0.000000000000000000, -1.000000000000000000, -0.000000000000000000 ) ) ;
#103 = ORIENTED_EDGE ( 'NONE', *, *, #129, .F. ) ;
#104 = PRODUCT ( '83427', '83427', '', ( #196 ) ) ;
#105 = PLANE ( 'NONE',  #176 ) ;
#106 = VERTEX_POINT ( 'NONE', #217 ) ;
#107 = FACE_OUTER_BOUND ( 'NONE', #175, .T. ) ;
#108 = EDGE_CURVE ( 'NONE', #27, #52, #99, .T. ) ;
#109 = CARTESIAN_POINT ( 'NONE',  ( 0.3749999999999998335, 5.000000000000000000, 0.000000000000000000 ) ) ;
#110 = DIRECTION ( 'NONE',  ( 0.000000000000000000, 0.000000000000000000, -1.000000000000000000 ) ) ;
#111 = CIRCLE ( 'NONE', #227, 0.3750000000000001110 ) ;
#112 = DIRECTION ( 'NONE',  ( -1.273890871941106809E-16, 1.000000000000000000, -0.000000000000000000 ) ) ;
#113 = CARTESIAN_POINT ( 'NONE',  ( -1.224646799147353207E-16, 5.000000000000000000, 0.000000000000000000 ) ) ;
#114 = ORIENTED_EDGE ( 'NONE', *, *, #268, .T. ) ;
#115 = DIRECTION ( 'NONE',  ( -1.273890871941106809E-16, 1.000000000000000000, 0.000000000000000000 ) ) ;
#116 = AXIS2_PLACEMENT_3D ( 'NONE', #292, #202, #357 ) ;
#117 =( NAMED_UNIT ( * ) SI_UNIT ( $, .STERADIAN. ) SOLID_ANGLE_UNIT ( ) );
#118 = EDGE_CURVE ( 'NONE', #339, #307, #94, .T. ) ;
#119 = CARTESIAN_POINT ( 'NONE',  ( 0.000000000000000000, 0.3750000000000001665, 0.000000000000000000 ) ) ;
#120 = ORIENTED_EDGE ( 'NONE', *, *, #67, .F. ) ;
#121 = PRESENTATION_LAYER_ASSIGNMENT (  '', '', ( #287 ) ) ;
#122 = STYLED_ITEM ( 'NONE', ( #363 ), #221 ) ;
#123 =( NAMED_UNIT ( * ) SI_UNIT ( $, .STERADIAN. ) SOLID_ANGLE_UNIT ( ) );
#124 = ORIENTED_EDGE ( 'NONE', *, *, #262, .T. ) ;
#125 = FILL_AREA_STYLE_COLOUR ( '', #44 ) ;
#126 = CLOSED_SHELL ( 'NONE', ( #37, #189, #49, #354 ) ) ;
#127 = CIRCLE ( 'NONE', #272, 0.3750000000000001110 ) ;
#128 = DIRECTION ( 'NONE',  ( -1.000000000000000000, 0.000000000000000000, 0.000000000000000000 ) ) ;
#129 = EDGE_CURVE ( 'NONE', #215, #75, #39, .T. ) ;
#130 = FILL_AREA_STYLE ('',( #253 ) ) ;
#131 =( NAMED_UNIT ( * ) PLANE_ANGLE_UNIT ( ) SI_UNIT ( $, .RADIAN. ) );
#132 = CARTESIAN_POINT ( 'NONE',  ( 0.000000000000000000, 0.3750000000000001665, -0.3750000000000001110 ) ) ;
#133 = EDGE_LOOP ( 'NONE', ( #173, #298, #236, #285 ) ) ;
#134 = DIRECTION ( 'NONE',  ( 0.000000000000000000, 0.000000000000000000, -1.000000000000000000 ) ) ;
#135 = EDGE_LOOP ( 'NONE', ( #101, #364 ) ) ;
#136 = COLOUR_RGB ( '',0.7921568627450980005, 0.8196078431372548767, 0.9333333333333333481 ) ;
#137 = STYLED_ITEM ( 'NONE', ( #156 ), #365 ) ;
#138 = UNCERTAINTY_MEASURE_WITH_UNIT (LENGTH_MEASURE( 1.000000000000000082E-05 ), #282, 'distance_accuracy_value', 'NONE');
#139 = CARTESIAN_POINT ( 'NONE',  ( 0.000000000000000000, 0.000000000000000000, -0.3749999999999999445 ) ) ;
#140 = DIRECTION ( 'NONE',  ( 1.000000000000000000, 0.000000000000000000, 0.000000000000000000 ) ) ;
#141 = AXIS2_PLACEMENT_3D ( 'NONE', #352, #355, #89 ) ;
#142 = UNCERTAINTY_MEASURE_WITH_UNIT (LENGTH_MEASURE( 1.000000000000000082E-05 ), #336, 'distance_accuracy_value', 'NONE');
#143 = ORIENTED_EDGE ( 'NONE', *, *, #152, .F. ) ;
#144 = CYLINDRICAL_SURFACE ( 'NONE', #247, 0.3749999999999999445 ) ;
#145 = SURFACE_SIDE_STYLE ('',( #98 ) ) ;
#146 = DIRECTION ( 'NONE',  ( -1.273890871941106809E-16, 1.000000000000000000, -0.000000000000000000 ) ) ;
#147 = AXIS2_PLACEMENT_3D ( 'NONE', #284, #68, #140 ) ;
#148 =( GEOMETRIC_REPRESENTATION_CONTEXT ( 3 ) GLOBAL_UNCERTAINTY_ASSIGNED_CONTEXT ( ( #330 ) ) GLOBAL_UNIT_ASSIGNED_CONTEXT ( ( #222, #131, #7 ) ) REPRESENTATION_CONTEXT ( 'NONE', 'WORKASPACE' ) );
#149 = SURFACE_SIDE_STYLE ('',( #270 ) ) ;
#150 = ORIENTED_EDGE ( 'NONE', *, *, #67, .T. ) ;
#151 = VERTEX_POINT ( 'NONE', #322 ) ;
#152 = EDGE_CURVE ( 'NONE', #48, #90, #57, .T. ) ;
#153 = CYLINDRICAL_SURFACE ( 'NONE', #255, 0.3749999999999998335 ) ;
#154 = CIRCLE ( 'NONE', #193, 0.3749999999999996114 ) ;
#155 = SURFACE_SIDE_STYLE ('',( #59 ) ) ;
#156 = PRESENTATION_STYLE_ASSIGNMENT (( #308 ) ) ;
#157 = DIRECTION ( 'NONE',  ( 0.000000000000000000, 0.000000000000000000, -1.000000000000000000 ) ) ;
#158 = DIRECTION ( 'NONE',  ( -0.000000000000000000, -1.000000000000000000, -0.000000000000000000 ) ) ;
#159 = PRESENTATION_STYLE_ASSIGNMENT (( #278 ) ) ;
#160 = PRODUCT_RELATED_PRODUCT_CATEGORY ( 'part', '', ( #104 ) ) ;
#161 = FILL_AREA_STYLE_COLOUR ( '', #372 ) ;
#162 = MANIFOLD_SOLID_BREP ( 'Revolve - Cutting Edge', #183 ) ;
#163 = SURFACE_STYLE_FILL_AREA ( #130 ) ;
#164 = STYLED_ITEM ( 'NONE', ( #315 ), #97 ) ;
#165 = DIMENSIONAL_EXPONENTS ( 1.000000000000000000, 0.000000000000000000, 0.000000000000000000, 0.000000000000000000, 0.000000000000000000, 0.000000000000000000, 0.000000000000000000 ) ;
#166 = VERTEX_POINT ( 'NONE', #132 ) ;
#167 =( CONVERSION_BASED_UNIT ( 'INCH', #346 ) LENGTH_UNIT ( ) NAMED_UNIT ( #181 ) );
#168 = MECHANICAL_DESIGN_GEOMETRIC_PRESENTATION_REPRESENTATION (  '', ( #287 ), #325 ) ;
#169 = EDGE_LOOP ( 'NONE', ( #170, #261, #114, #229 ) ) ;
#170 = ORIENTED_EDGE ( 'NONE', *, *, #174, .F. ) ;
#171 = MECHANICAL_DESIGN_GEOMETRIC_PRESENTATION_REPRESENTATION (  '', ( #51 ), #290 ) ;
#172 = CARTESIAN_POINT ( 'NONE',  ( 0.3749999999999996669, 5.000000000000000000, 4.592425496802572370E-17 ) ) ;
#173 = ORIENTED_EDGE ( 'NONE', *, *, #291, .T. ) ;
#174 = EDGE_CURVE ( 'NONE', #106, #75, #185, .T. ) ;
#175 = EDGE_LOOP ( 'NONE', ( #362, #353, #103, #124 ) ) ;
#176 = AXIS2_PLACEMENT_3D ( 'NONE', #35, #187, #53 ) ;
#177 = DIRECTION ( 'NONE',  ( 0.000000000000000000, 0.000000000000000000, -1.000000000000000000 ) ) ;
#178 = EDGE_LOOP ( 'NONE', ( #13, #335, #46, #367, #205 ) ) ;
#179 = EDGE_CURVE ( 'NONE', #90, #48, #239, .T. ) ;
#180 = CYLINDRICAL_SURFACE ( 'NONE', #201, 0.3749999999999999445 ) ;
#181 = DIMENSIONAL_EXPONENTS ( 1.000000000000000000, 0.000000000000000000, 0.000000000000000000, 0.000000000000000000, 0.000000000000000000, 0.000000000000000000, 0.000000000000000000 ) ;
#182 = DIRECTION ( 'NONE',  ( -0.000000000000000000, -1.000000000000000000, -0.000000000000000000 ) ) ;
#183 = CLOSED_SHELL ( 'NONE', ( #97, #21, #365, #221, #8 ) ) ;
#184 = DIRECTION ( 'NONE',  ( -1.000000000000000000, 0.000000000000000000, 0.000000000000000000 ) ) ;
#185 = CIRCLE ( 'NONE', #337, 0.3750000000000001110 ) ;
#186 = SURFACE_STYLE_USAGE ( .BOTH. , #155 ) ;
#187 = DIRECTION ( 'NONE',  ( 0.000000000000000000, 1.000000000000000000, 0.000000000000000000 ) ) ;
#188 = DIRECTION ( 'NONE',  ( -1.273890871941106809E-16, 1.000000000000000000, -0.000000000000000000 ) ) ;
#189 = ADVANCED_FACE ( 'NONE', ( #260 ), #14, .F. ) ;
#190 = CARTESIAN_POINT ( 'NONE',  ( 0.000000000000000000, 0.3750000000000001665, 0.000000000000000000 ) ) ;
#191 = DIMENSIONAL_EXPONENTS ( 1.000000000000000000, 0.000000000000000000, 0.000000000000000000, 0.000000000000000000, 0.000000000000000000, 0.000000000000000000, 0.000000000000000000 ) ;
#192 = COLOUR_RGB ( '',1.000000000000000000, 0.000000000000000000, 0.000000000000000000 ) ;
#193 = AXIS2_PLACEMENT_3D ( 'NONE', #71, #112, #184 ) ;
#194 = UNCERTAINTY_MEASURE_WITH_UNIT (LENGTH_MEASURE( 1.000000000000000082E-05 ), #317, 'distance_accuracy_value', 'NONE');
#195 = EDGE_CURVE ( 'NONE', #307, #166, #43, .T. ) ;
#196 = PRODUCT_CONTEXT ( 'NONE', #248, 'mechanical' ) ;
#197 = SPHERICAL_SURFACE ( 'NONE', #147, 0.3750000000000001110 ) ;
#198 = DIRECTION ( 'NONE',  ( -1.000000000000000000, 0.000000000000000000, 0.000000000000000000 ) ) ;
#199 = SHAPE_DEFINITION_REPRESENTATION ( #241, #306 ) ;
#200 = DIRECTION ( 'NONE',  ( -1.000000000000000000, -1.273890871941106809E-16, 0.000000000000000000 ) ) ;
#201 = AXIS2_PLACEMENT_3D ( 'NONE', #9, #224, #157 ) ;
#202 = DIRECTION ( 'NONE',  ( -1.273890871941106809E-16, 1.000000000000000000, -0.000000000000000000 ) ) ;
#203 = UNCERTAINTY_MEASURE_WITH_UNIT (LENGTH_MEASURE( 1.000000000000000082E-05 ), #368, 'distance_accuracy_value', 'NONE');
#204 = DIRECTION ( 'NONE',  ( 0.000000000000000000, 0.000000000000000000, -1.000000000000000000 ) ) ;
#205 = ORIENTED_EDGE ( 'NONE', *, *, #82, .F. ) ;
#206 = PRODUCT_DEFINITION_FORMATION_WITH_SPECIFIED_SOURCE ( 'ANY', '', #104, .NOT_KNOWN. ) ;
#207 = ORIENTED_EDGE ( 'NONE', *, *, #262, .F. ) ;
#208 = CARTESIAN_POINT ( 'NONE',  ( 0.3750000000000001110, 0.3750000000000001665, 0.000000000000000000 ) ) ;
#209 = EDGE_LOOP ( 'NONE', ( #275, #240 ) ) ;
#210 = UNCERTAINTY_MEASURE_WITH_UNIT (LENGTH_MEASURE( 1.000000000000000082E-05 ), #283, 'distance_accuracy_value', 'NONE');
#211 = PRESENTATION_STYLE_ASSIGNMENT (( #360 ) ) ;
#212 = FACE_OUTER_BOUND ( 'NONE', #271, .T. ) ;
#213 =( GEOMETRIC_REPRESENTATION_CONTEXT ( 3 ) GLOBAL_UNCERTAINTY_ASSIGNED_CONTEXT ( ( #234 ) ) GLOBAL_UNIT_ASSIGNED_CONTEXT ( ( #329, #22, #123 ) ) REPRESENTATION_CONTEXT ( 'NONE', 'WORKASPACE' ) );
#214 =( NAMED_UNIT ( * ) PLANE_ANGLE_UNIT ( ) SI_UNIT ( $, .RADIAN. ) );
#215 = VERTEX_POINT ( 'NONE', #208 ) ;
#216 = EDGE_CURVE ( 'NONE', #27, #48, #300, .T. ) ;
#217 = CARTESIAN_POINT ( 'NONE',  ( -0.3750000000000001110, 0.3750000000000001665, 4.592425496802575451E-17 ) ) ;
#218 = DIRECTION ( 'NONE',  ( 1.000000000000000000, 1.273890871941106809E-16, 0.000000000000000000 ) ) ;
#219 = DIRECTION ( 'NONE',  ( -0.000000000000000000, -1.000000000000000000, -0.000000000000000000 ) ) ;
#220 = DIMENSIONAL_EXPONENTS ( 1.000000000000000000, 0.000000000000000000, 0.000000000000000000, 0.000000000000000000, 0.000000000000000000, 0.000000000000000000, 0.000000000000000000 ) ;
#221 = ADVANCED_FACE ( 'NONE', ( #235 ), #144, .T. ) ;
#222 =( CONVERSION_BASED_UNIT ( 'INCH', #370 ) LENGTH_UNIT ( ) NAMED_UNIT ( #191 ) );
#223 = FACE_OUTER_BOUND ( 'NONE', #133, .T. ) ;
#224 = DIRECTION ( 'NONE',  ( -0.000000000000000000, -1.000000000000000000, -0.000000000000000000 ) ) ;
#225 = DIMENSIONAL_EXPONENTS ( 1.000000000000000000, 0.000000000000000000, 0.000000000000000000, 0.000000000000000000, 0.000000000000000000, 0.000000000000000000, 0.000000000000000000 ) ;
#226 =( NAMED_UNIT ( * ) PLANE_ANGLE_UNIT ( ) SI_UNIT ( $, .RADIAN. ) );
#227 = AXIS2_PLACEMENT_3D ( 'NONE', #237, #102, #204 ) ;
#228 =( GEOMETRIC_REPRESENTATION_CONTEXT ( 3 ) GLOBAL_UNCERTAINTY_ASSIGNED_CONTEXT ( ( #194 ) ) GLOBAL_UNIT_ASSIGNED_CONTEXT ( ( #317, #214, #338 ) ) REPRESENTATION_CONTEXT ( 'NONE', 'WORKASPACE' ) );
#229 = ORIENTED_EDGE ( 'NONE', *, *, #129, .T. ) ;
#230 = DIRECTION ( 'NONE',  ( -1.000000000000000000, 0.000000000000000000, 0.000000000000000000 ) ) ;
#231 = AXIS2_PLACEMENT_3D ( 'NONE', #61, #188, #256 ) ;
#232 = APPLICATION_CONTEXT ( 'automotive_design' ) ;
#233 = DIRECTION ( 'NONE',  ( 1.000000000000000000, 0.000000000000000000, -1.224646799147353207E-16 ) ) ;
#234 = UNCERTAINTY_MEASURE_WITH_UNIT (LENGTH_MEASURE( 1.000000000000000082E-05 ), #329, 'distance_accuracy_value', 'NONE');
#235 = FACE_OUTER_BOUND ( 'NONE', #178, .T. ) ;
#236 = ORIENTED_EDGE ( 'NONE', *, *, #179, .F. ) ;
#237 = CARTESIAN_POINT ( 'NONE',  ( 0.000000000000000000, 0.3750000000000001665, 0.000000000000000000 ) ) ;
#238 = AXIS2_PLACEMENT_3D ( 'NONE', #293, #264, #359 ) ;
#239 = CIRCLE ( 'NONE', #141, 0.3749999999999999445 ) ;
#240 = ORIENTED_EDGE ( 'NONE', *, *, #108, .F. ) ;
#241 = PRODUCT_DEFINITION_SHAPE ( 'NONE', 'NONE',  #304 ) ;
#242 =( NAMED_UNIT ( * ) SI_UNIT ( $, .STERADIAN. ) SOLID_ANGLE_UNIT ( ) );
#243 = ORIENTED_EDGE ( 'NONE', *, *, #195, .F. ) ;
#244 = CARTESIAN_POINT ( 'NONE',  ( -0.3749999999999999445, 5.000000000000000000, 0.000000000000000000 ) ) ;
#245 =( NAMED_UNIT ( * ) PLANE_ANGLE_UNIT ( ) SI_UNIT ( $, .RADIAN. ) );
#246 = DIMENSIONAL_EXPONENTS ( 1.000000000000000000, 0.000000000000000000, 0.000000000000000000, 0.000000000000000000, 0.000000000000000000, 0.000000000000000000, 0.000000000000000000 ) ;
#247 = AXIS2_PLACEMENT_3D ( 'NONE', #17, #273, #96 ) ;
#248 = APPLICATION_CONTEXT ( 'automotive_design' ) ;
#249 = VECTOR ( 'NONE', #158, 39.37007874015748143 ) ;
#250 = LENGTH_MEASURE_WITH_UNIT ( LENGTH_MEASURE( 0.02539999999999999897 ), #280 );
#251 =( LENGTH_UNIT ( ) NAMED_UNIT ( * ) SI_UNIT ( $, .METRE. ) );
#252 = APPLICATION_PROTOCOL_DEFINITION ( 'draft international standard', 'automotive_design', 1998, #248 ) ;
#253 = FILL_AREA_STYLE_COLOUR ( '', #93 ) ;
#254 = LINE ( 'NONE', #244, #41 ) ;
#255 = AXIS2_PLACEMENT_3D ( 'NONE', #277, #32, #128 ) ;
#256 = DIRECTION ( 'NONE',  ( -1.000000000000000000, 0.000000000000000000, 0.000000000000000000 ) ) ;
#257 = CARTESIAN_POINT ( 'NONE',  ( 0.3749999999999998335, 2.250000000000000444, 4.592425496802572986E-17 ) ) ;
#258 = CARTESIAN_POINT ( 'NONE',  ( -4.592425496802576068E-17, 0.3750000000000001110, 0.000000000000000000 ) ) ;
#259 = PRESENTATION_LAYER_ASSIGNMENT (  '', '', ( #164 ) ) ;
#260 = FACE_OUTER_BOUND ( 'NONE', #209, .T. ) ;
#261 = ORIENTED_EDGE ( 'NONE', *, *, #279, .T. ) ;
#262 = EDGE_CURVE ( 'NONE', #215, #151, #127, .T. ) ;
#263 =( NAMED_UNIT ( * ) PLANE_ANGLE_UNIT ( ) SI_UNIT ( $, .RADIAN. ) );
#264 = DIRECTION ( 'NONE',  ( -0.000000000000000000, -1.000000000000000000, -0.000000000000000000 ) ) ;
#265 =( GEOMETRIC_REPRESENTATION_CONTEXT ( 3 ) GLOBAL_UNCERTAINTY_ASSIGNED_CONTEXT ( ( #138 ) ) GLOBAL_UNIT_ASSIGNED_CONTEXT ( ( #282, #318, #2 ) ) REPRESENTATION_CONTEXT ( 'NONE', 'WORKASPACE' ) );
#266 =( GEOMETRIC_REPRESENTATION_CONTEXT ( 3 ) GLOBAL_UNCERTAINTY_ASSIGNED_CONTEXT ( ( #11 ) ) GLOBAL_UNIT_ASSIGNED_CONTEXT ( ( #167, #263, #15 ) ) REPRESENTATION_CONTEXT ( 'NONE', 'WORKASPACE' ) );
#267 = EDGE_LOOP ( 'NONE', ( #120, #38 ) ) ;
#268 = EDGE_CURVE ( 'NONE', #166, #215, #29, .T. ) ;
#269 = DIRECTION ( 'NONE',  ( -0.000000000000000000, -1.000000000000000000, -0.000000000000000000 ) ) ;
#270 = SURFACE_STYLE_FILL_AREA ( #50 ) ;
#271 = EDGE_LOOP ( 'NONE', ( #150, #324, #207, #356, #243 ) ) ;
#272 = AXIS2_PLACEMENT_3D ( 'NONE', #119, #297, #361 ) ;
#273 = DIRECTION ( 'NONE',  ( -0.000000000000000000, -1.000000000000000000, -0.000000000000000000 ) ) ;
#274 = EDGE_LOOP ( 'NONE', ( #296, #299, #18, #143 ) ) ;
#275 = ORIENTED_EDGE ( 'NONE', *, *, #291, .F. ) ;
#276 = CARTESIAN_POINT ( 'NONE',  ( 4.592425496802573602E-17, 0.000000000000000000, 0.3749999999999999445 ) ) ;
#277 = CARTESIAN_POINT ( 'NONE',  ( -1.224646799147353207E-16, 5.000000000000000000, 0.000000000000000000 ) ) ;
#278 = SURFACE_STYLE_USAGE ( .BOTH. , #36 ) ;
#279 = EDGE_CURVE ( 'NONE', #106, #166, #111, .T. ) ;
#280 =( LENGTH_UNIT ( ) NAMED_UNIT ( * ) SI_UNIT ( $, .METRE. ) );
#281 = MECHANICAL_DESIGN_GEOMETRIC_PRESENTATION_REPRESENTATION (  '', ( #137 ), #148 ) ;
#282 =( CONVERSION_BASED_UNIT ( 'INCH', #342 ) LENGTH_UNIT ( ) NAMED_UNIT ( #5 ) );
#283 =( CONVERSION_BASED_UNIT ( 'INCH', #289 ) LENGTH_UNIT ( ) NAMED_UNIT ( #225 ) );
#284 = CARTESIAN_POINT ( 'NONE',  ( -4.592425496802576068E-17, 0.3750000000000001110, 0.000000000000000000 ) ) ;
#285 = ORIENTED_EDGE ( 'NONE', *, *, #323, .F. ) ;
#286 = MANIFOLD_SOLID_BREP ( 'Revolve - Tool Body (Straight Shanked)', #126 ) ;
#287 = STYLED_ITEM ( 'NONE', ( #20 ), #8 ) ;
#288 = COLOUR_RGB ( '',1.000000000000000000, 0.000000000000000000, 0.000000000000000000 ) ;
#289 = LENGTH_MEASURE_WITH_UNIT ( LENGTH_MEASURE( 0.02539999999999999897 ), #63 );
#290 =( GEOMETRIC_REPRESENTATION_CONTEXT ( 3 ) GLOBAL_UNCERTAINTY_ASSIGNED_CONTEXT ( ( #203 ) ) GLOBAL_UNIT_ASSIGNED_CONTEXT ( ( #368, #73, #242 ) ) REPRESENTATION_CONTEXT ( 'NONE', 'WORKASPACE' ) );
#291 = EDGE_CURVE ( 'NONE', #52, #27, #154, .T. ) ;
#292 = CARTESIAN_POINT ( 'NONE',  ( 2.278553098690690333E-16, 2.250000000000000444, 0.000000000000000000 ) ) ;
#293 = CARTESIAN_POINT ( 'NONE',  ( 0.000000000000000000, 2.250000000000000000, 0.000000000000000000 ) ) ;
#294 = SURFACE_SIDE_STYLE ('',( #305 ) ) ;
#295 = CIRCLE ( 'NONE', #350, 0.3750000000000001110 ) ;
#296 = ORIENTED_EDGE ( 'NONE', *, *, #216, .F. ) ;
#297 = DIRECTION ( 'NONE',  ( -0.000000000000000000, -1.000000000000000000, -0.000000000000000000 ) ) ;
#298 = ORIENTED_EDGE ( 'NONE', *, *, #216, .T. ) ;
#299 = ORIENTED_EDGE ( 'NONE', *, *, #108, .T. ) ;
#300 = LINE ( 'NONE', #172, #16 ) ;
#301 = FILL_AREA_STYLE ('',( #125 ) ) ;
#302 = MECHANICAL_DESIGN_GEOMETRIC_PRESENTATION_REPRESENTATION (  '', ( #349 ), #265 ) ;
#303 = AXIS2_PLACEMENT_3D ( 'NONE', #64, #134, #198 ) ;
#304 = PRODUCT_DEFINITION ( 'UNKNOWN', '', #206, #30 ) ;
#305 = SURFACE_STYLE_FILL_AREA ( #332 ) ;
#306 = ADVANCED_BREP_SHAPE_REPRESENTATION ( '83427', ( #162, #286, #327 ), #228 ) ;
#307 = VERTEX_POINT ( 'NONE', #85 ) ;
#308 = SURFACE_STYLE_USAGE ( .BOTH. , #343 ) ;
#309 = FACE_OUTER_BOUND ( 'NONE', #274, .T. ) ;
#310 = PLANE ( 'NONE',  #313 ) ;
#311 = FILL_AREA_STYLE ('',( #83 ) ) ;
#312 = AXIS2_PLACEMENT_3D ( 'NONE', #113, #92, #230 ) ;
#313 = AXIS2_PLACEMENT_3D ( 'NONE', #109, #347, #218 ) ;
#314 = SURFACE_STYLE_FILL_AREA ( #373 ) ;
#315 = PRESENTATION_STYLE_ASSIGNMENT (( #186 ) ) ;
#316 = CARTESIAN_POINT ( 'NONE',  ( 0.000000000000000000, 2.250000000000000000, 0.000000000000000000 ) ) ;
#317 =( CONVERSION_BASED_UNIT ( 'INCH', #250 ) LENGTH_UNIT ( ) NAMED_UNIT ( #246 ) );
#318 =( NAMED_UNIT ( * ) PLANE_ANGLE_UNIT ( ) SI_UNIT ( $, .RADIAN. ) );
#319 = AXIS2_PLACEMENT_3D ( 'NONE', #26, #269, #177 ) ;
#320 = FILL_AREA_STYLE_COLOUR ( '', #136 ) ;
#321 = SURFACE_SIDE_STYLE ('',( #88 ) ) ;
#322 = CARTESIAN_POINT ( 'NONE',  ( 4.592425496802576068E-17, 0.3750000000000001665, 0.3750000000000001110 ) ) ;
#323 = EDGE_CURVE ( 'NONE', #52, #90, #254, .T. ) ;
#324 = ORIENTED_EDGE ( 'NONE', *, *, #340, .T. ) ;
#325 =( GEOMETRIC_REPRESENTATION_CONTEXT ( 3 ) GLOBAL_UNCERTAINTY_ASSIGNED_CONTEXT ( ( #142 ) ) GLOBAL_UNIT_ASSIGNED_CONTEXT ( ( #336, #245, #25 ) ) REPRESENTATION_CONTEXT ( 'NONE', 'WORKASPACE' ) );
#326 = COLOUR_RGB ( '',0.7921568627450980005, 0.8196078431372548767, 0.9333333333333333481 ) ;
#327 = AXIS2_PLACEMENT_3D ( 'NONE', #1, #351, #10 ) ;
#328 = PRESENTATION_STYLE_ASSIGNMENT (( #95 ) ) ;
#329 =( CONVERSION_BASED_UNIT ( 'INCH', #74 ) LENGTH_UNIT ( ) NAMED_UNIT ( #220 ) );
#330 = UNCERTAINTY_MEASURE_WITH_UNIT (LENGTH_MEASURE( 1.000000000000000082E-05 ), #222, 'distance_accuracy_value', 'NONE');
#331 =( LENGTH_UNIT ( ) NAMED_UNIT ( * ) SI_UNIT ( $, .METRE. ) );
#332 = FILL_AREA_STYLE ('',( #76 ) ) ;
#333 = CARTESIAN_POINT ( 'NONE',  ( -4.592425496802576068E-17, 0.3750000000000001110, 0.000000000000000000 ) ) ;
#334 =( LENGTH_UNIT ( ) NAMED_UNIT ( * ) SI_UNIT ( $, .METRE. ) );
#335 = ORIENTED_EDGE ( 'NONE', *, *, #118, .T. ) ;
#336 =( CONVERSION_BASED_UNIT ( 'INCH', #72 ) LENGTH_UNIT ( ) NAMED_UNIT ( #34 ) );
#337 = AXIS2_PLACEMENT_3D ( 'NONE', #258, #42, #233 ) ;
#338 =( NAMED_UNIT ( * ) SI_UNIT ( $, .STERADIAN. ) SOLID_ANGLE_UNIT ( ) );
#339 = VERTEX_POINT ( 'NONE', #3 ) ;
#340 = EDGE_CURVE ( 'NONE', #339, #151, #58, .T. ) ;
#341 = DIRECTION ( 'NONE',  ( -1.273890871941106809E-16, 1.000000000000000000, -0.000000000000000000 ) ) ;
#342 = LENGTH_MEASURE_WITH_UNIT ( LENGTH_MEASURE( 0.02539999999999999897 ), #251 );
#343 = SURFACE_SIDE_STYLE ('',( #314 ) ) ;
#344 = DIRECTION ( 'NONE',  ( 0.000000000000000000, 0.000000000000000000, -1.000000000000000000 ) ) ;
#345 = PRESENTATION_LAYER_ASSIGNMENT (  '', '', ( #122 ) ) ;
#346 = LENGTH_MEASURE_WITH_UNIT ( LENGTH_MEASURE( 0.02539999999999999897 ), #4 );
#347 = DIRECTION ( 'NONE',  ( 1.273890871941106809E-16, -1.000000000000000000, 0.000000000000000000 ) ) ;
#348 = CARTESIAN_POINT ( 'NONE',  ( -0.3749999999999993894, 2.250000000000000444, 0.000000000000000000 ) ) ;
#349 = STYLED_ITEM ( 'NONE', ( #159 ), #21 ) ;
#350 = AXIS2_PLACEMENT_3D ( 'NONE', #190, #182, #344 ) ;
#351 = DIRECTION ( 'NONE',  ( 0.000000000000000000, 0.000000000000000000, 1.000000000000000000 ) ) ;
#352 = CARTESIAN_POINT ( 'NONE',  ( -1.224646799147353207E-16, 5.000000000000000000, 0.000000000000000000 ) ) ;
#353 = ORIENTED_EDGE ( 'NONE', *, *, #174, .T. ) ;
#354 = ADVANCED_FACE ( 'NONE', ( #80 ), #310, .F. ) ;
#355 = DIRECTION ( 'NONE',  ( -1.273890871941106809E-16, 1.000000000000000000, -0.000000000000000000 ) ) ;
#356 = ORIENTED_EDGE ( 'NONE', *, *, #268, .F. ) ;
#357 = DIRECTION ( 'NONE',  ( -1.000000000000000000, 0.000000000000000000, 0.000000000000000000 ) ) ;
#358 = AXIS2_PLACEMENT_3D ( 'NONE', #316, #219, #110 ) ;
#359 = DIRECTION ( 'NONE',  ( 0.000000000000000000, 0.000000000000000000, -1.000000000000000000 ) ) ;
#360 = SURFACE_STYLE_USAGE ( .BOTH. , #294 ) ;
#361 = DIRECTION ( 'NONE',  ( 0.000000000000000000, 0.000000000000000000, -1.000000000000000000 ) ) ;
#362 = ORIENTED_EDGE ( 'NONE', *, *, #82, .T. ) ;
#363 = PRESENTATION_STYLE_ASSIGNMENT (( #47 ) ) ;
#364 = ORIENTED_EDGE ( 'NONE', *, *, #152, .T. ) ;
#365 = ADVANCED_FACE ( 'NONE', ( #55 ), #105, .T. ) ;
#366 = DIRECTION ( 'NONE',  ( -0.000000000000000000, -1.000000000000000000, -0.000000000000000000 ) ) ;
#367 = ORIENTED_EDGE ( 'NONE', *, *, #279, .F. ) ;
#368 =( CONVERSION_BASED_UNIT ( 'INCH', #69 ) LENGTH_UNIT ( ) NAMED_UNIT ( #165 ) );
#369 = FACE_OUTER_BOUND ( 'NONE', #169, .T. ) ;
#370 = LENGTH_MEASURE_WITH_UNIT ( LENGTH_MEASURE( 0.02539999999999999897 ), #60 );
#371 = MECHANICAL_DESIGN_GEOMETRIC_PRESENTATION_REPRESENTATION (  '', ( #122 ), #213 ) ;
#372 = COLOUR_RGB ( '',1.000000000000000000, 0.000000000000000000, 0.000000000000000000 ) ;
#373 = FILL_AREA_STYLE ('',( #161 ) ) ;
ENDSEC;
END-ISO-10303-21;
