ISO-10303-21;
HEADER;
FILE_DESCRIPTION (( 'STEP AP214' ),
    '1' );
FILE_NAME ('86074.STEP',
    '2023-06-30T23:59:50',
    ( '' ),
    ( '' ),
    'SwSTEP 2.0',
    'SolidWorks 2023',
    '' );
FILE_SCHEMA (( 'AUTOMOTIVE_DESIGN' ));
ENDSEC;

DATA;
#1 = MECHANICAL_DESIGN_GEOMETRIC_PRESENTATION_REPRESENTATION (  '', ( #108 ), #275 ) ;
#2 = CARTESIAN_POINT ( 'NONE',  ( 0.06249999999999988204, 2.500000000000000000, 0.000000000000000000 ) ) ;
#3 = DIRECTION ( 'NONE',  ( -1.253589134178188357E-16, 1.000000000000000000, -0.000000000000000000 ) ) ;
#4 = ORIENTED_EDGE ( 'NONE', *, *, #244, .F. ) ;
#5 = ADVANCED_FACE ( 'NONE', ( #79 ), #194, .T. ) ;
#6 = DIRECTION ( 'NONE',  ( -1.253589134178188357E-16, 1.000000000000000000, -0.000000000000000000 ) ) ;
#7 = CIRCLE ( 'NONE', #274, 0.06249999999999936856 ) ;
#8 = STYLED_ITEM ( 'NONE', ( #248 ), #250 ) ;
#9 = UNCERTAINTY_MEASURE_WITH_UNIT (LENGTH_MEASURE( 1.000000000000000082E-05 ), #366, 'distance_accuracy_value', 'NONE');
#10 = SURFACE_SIDE_STYLE ('',( #143 ) ) ;
#11 =( GEOMETRIC_REPRESENTATION_CONTEXT ( 3 ) GLOBAL_UNCERTAINTY_ASSIGNED_CONTEXT ( ( #300 ) ) GLOBAL_UNIT_ASSIGNED_CONTEXT ( ( #153, #179, #121 ) ) REPRESENTATION_CONTEXT ( 'NONE', 'WORKASPACE' ) );
#12 = CARTESIAN_POINT ( 'NONE',  ( 0.000000000000000000, 0.06250000000000001388, 0.000000000000000000 ) ) ;
#13 = ORIENTED_EDGE ( 'NONE', *, *, #244, .T. ) ;
#14 = FACE_OUTER_BOUND ( 'NONE', #223, .T. ) ;
#15 = PRESENTATION_LAYER_ASSIGNMENT (  '', '', ( #344 ) ) ;
#16 = AXIS2_PLACEMENT_3D ( 'NONE', #76, #161, #279 ) ;
#17 =( NAMED_UNIT ( * ) SI_UNIT ( $, .STERADIAN. ) SOLID_ANGLE_UNIT ( ) );
#18 = ORIENTED_EDGE ( 'NONE', *, *, #35, .T. ) ;
#19 = EDGE_CURVE ( 'NONE', #191, #93, #102, .T. ) ;
#20 = ORIENTED_EDGE ( 'NONE', *, *, #247, .F. ) ;
#21 = PRODUCT_DEFINITION ( 'UNKNOWN', '', #119, #72 ) ;
#22 = STYLED_ITEM ( 'NONE', ( #94 ), #154 ) ;
#23 = ORIENTED_EDGE ( 'NONE', *, *, #198, .T. ) ;
#24 = EDGE_CURVE ( 'NONE', #78, #142, #262, .T. ) ;
#25 = ADVANCED_BREP_SHAPE_REPRESENTATION ( '86074', ( #367, #239, #81 ), #234 ) ;
#26 = CARTESIAN_POINT ( 'NONE',  ( 0.000000000000000000, 0.8749999999999997780, -0.06249999999999988204 ) ) ;
#27 = COLOUR_RGB ( '',1.000000000000000000, 0.000000000000000000, 0.000000000000000000 ) ;
#28 = DIRECTION ( 'NONE',  ( -1.000000000000000000, 0.000000000000000000, 0.000000000000000000 ) ) ;
#29 = ORIENTED_EDGE ( 'NONE', *, *, #233, .F. ) ;
#30 = LENGTH_MEASURE_WITH_UNIT ( LENGTH_MEASURE( 0.02539999999999999897 ), #171 );
#31 =( CONVERSION_BASED_UNIT ( 'INCH', #199 ) LENGTH_UNIT ( ) NAMED_UNIT ( #226 ) );
#32 = PRESENTATION_STYLE_ASSIGNMENT (( #204 ) ) ;
#33 = DIRECTION ( 'NONE',  ( -1.253589134178188357E-16, 1.000000000000000000, -0.000000000000000000 ) ) ;
#34 = FILL_AREA_STYLE ('',( #355 ) ) ;
#35 = EDGE_CURVE ( 'NONE', #273, #191, #289, .T. ) ;
#36 = CARTESIAN_POINT ( 'NONE',  ( 3.061616997868383141E-16, 2.500000000000000000, 0.000000000000000000 ) ) ;
#37 = ORIENTED_EDGE ( 'NONE', *, *, #330, .F. ) ;
#38 = PRESENTATION_LAYER_ASSIGNMENT (  '', '', ( #8 ) ) ;
#39 = EDGE_LOOP ( 'NONE', ( #249, #313 ) ) ;
#40 = CARTESIAN_POINT ( 'NONE',  ( 0.06249999999999977796, 2.500000000000000000, 7.654042494670892834E-18 ) ) ;
#41 =( LENGTH_UNIT ( ) NAMED_UNIT ( * ) SI_UNIT ( $, .METRE. ) );
#42 =( GEOMETRIC_REPRESENTATION_CONTEXT ( 3 ) GLOBAL_UNCERTAINTY_ASSIGNED_CONTEXT ( ( #209 ) ) GLOBAL_UNIT_ASSIGNED_CONTEXT ( ( #227, #347, #352 ) ) REPRESENTATION_CONTEXT ( 'NONE', 'WORKASPACE' ) );
#43 =( CONVERSION_BASED_UNIT ( 'INCH', #340 ) LENGTH_UNIT ( ) NAMED_UNIT ( #259 ) );
#44 = DIMENSIONAL_EXPONENTS ( 1.000000000000000000, 0.000000000000000000, 0.000000000000000000, 0.000000000000000000, 0.000000000000000000, 0.000000000000000000, 0.000000000000000000 ) ;
#45 = SURFACE_STYLE_USAGE ( .BOTH. , #104 ) ;
#46 =( NAMED_UNIT ( * ) PLANE_ANGLE_UNIT ( ) SI_UNIT ( $, .RADIAN. ) );
#47 =( CONVERSION_BASED_UNIT ( 'INCH', #99 ) LENGTH_UNIT ( ) NAMED_UNIT ( #44 ) );
#48 = CIRCLE ( 'NONE', #97, 0.06249999999999995143 ) ;
#49 = AXIS2_PLACEMENT_3D ( 'NONE', #271, #122, #96 ) ;
#50 = PRESENTATION_STYLE_ASSIGNMENT (( #45 ) ) ;
#51 = DIRECTION ( 'NONE',  ( 0.000000000000000000, 0.000000000000000000, 1.000000000000000000 ) ) ;
#52 = DIRECTION ( 'NONE',  ( -1.000000000000000000, 0.000000000000000000, 0.000000000000000000 ) ) ;
#53 = CARTESIAN_POINT ( 'NONE',  ( 3.061616997868383141E-16, 2.500000000000000000, 0.000000000000000000 ) ) ;
#54 = CIRCLE ( 'NONE', #49, 0.06249999999999995143 ) ;
#55 = SURFACE_STYLE_FILL_AREA ( #293 ) ;
#56 = FILL_AREA_STYLE_COLOUR ( '', #80 ) ;
#57 = FILL_AREA_STYLE_COLOUR ( '', #159 ) ;
#58 = ADVANCED_FACE ( 'NONE', ( #348 ), #133, .T. ) ;
#59 = CIRCLE ( 'NONE', #353, 0.06249999999999997918 ) ;
#60 = CARTESIAN_POINT ( 'NONE',  ( -7.654042494670957545E-18, 0.06250000000000001388, 0.000000000000000000 ) ) ;
#61 = ORIENTED_EDGE ( 'NONE', *, *, #140, .T. ) ;
#62 = CARTESIAN_POINT ( 'NONE',  ( -0.06249999999999926448, 2.500000000000000000, 0.000000000000000000 ) ) ;
#63 = SURFACE_STYLE_USAGE ( .BOTH. , #362 ) ;
#64 = UNCERTAINTY_MEASURE_WITH_UNIT (LENGTH_MEASURE( 1.000000000000000082E-05 ), #253, 'distance_accuracy_value', 'NONE');
#65 = DIRECTION ( 'NONE',  ( -1.253589134178188357E-16, 1.000000000000000000, -0.000000000000000000 ) ) ;
#66 = ADVANCED_FACE ( 'NONE', ( #106 ), #224, .F. ) ;
#67 = DIRECTION ( 'NONE',  ( 0.000000000000000000, -0.000000000000000000, 1.000000000000000000 ) ) ;
#68 = FILL_AREA_STYLE_COLOUR ( '', #98 ) ;
#69 =( NAMED_UNIT ( * ) SI_UNIT ( $, .STERADIAN. ) SOLID_ANGLE_UNIT ( ) );
#70 = FILL_AREA_STYLE_COLOUR ( '', #295 ) ;
#71 = AXIS2_PLACEMENT_3D ( 'NONE', #12, #207, #359 ) ;
#72 = PRODUCT_DEFINITION_CONTEXT ( 'detailed design', #290, 'design' ) ;
#73 = LINE ( 'NONE', #40, #164 ) ;
#74 = DIMENSIONAL_EXPONENTS ( 1.000000000000000000, 0.000000000000000000, 0.000000000000000000, 0.000000000000000000, 0.000000000000000000, 0.000000000000000000, 0.000000000000000000 ) ;
#75 = VERTEX_POINT ( 'NONE', #317 ) ;
#76 = CARTESIAN_POINT ( 'NONE',  ( 0.000000000000000000, 0.06250000000000001388, 0.000000000000000000 ) ) ;
#77 = CARTESIAN_POINT ( 'NONE',  ( -0.06249999999999885508, 0.8749999999999997780, 0.000000000000000000 ) ) ;
#78 = VERTEX_POINT ( 'NONE', #26 ) ;
#79 = FACE_OUTER_BOUND ( 'NONE', #254, .T. ) ;
#80 = COLOUR_RGB ( '',1.000000000000000000, 0.000000000000000000, 0.000000000000000000 ) ;
#81 = AXIS2_PLACEMENT_3D ( 'NONE', #232, #146, #117 ) ;
#82 = DIRECTION ( 'NONE',  ( 1.253589134178188357E-16, -1.000000000000000000, 0.000000000000000000 ) ) ;
#83 = FACE_OUTER_BOUND ( 'NONE', #372, .T. ) ;
#84 = VERTEX_POINT ( 'NONE', #202 ) ;
#85 = PRESENTATION_LAYER_ASSIGNMENT (  '', '', ( #206 ) ) ;
#86 = EDGE_CURVE ( 'NONE', #229, #75, #59, .T. ) ;
#87 = CARTESIAN_POINT ( 'NONE',  ( 5.098699340907939775E-16, 0.8749999999999997780, 0.000000000000000000 ) ) ;
#88 = CARTESIAN_POINT ( 'NONE',  ( 7.654042494670945219E-18, 0.8749999999999997780, 0.06249999999999988204 ) ) ;
#89 = ORIENTED_EDGE ( 'NONE', *, *, #301, .T. ) ;
#90 = PRESENTATION_LAYER_ASSIGNMENT (  '', '', ( #22 ) ) ;
#91 = FACE_OUTER_BOUND ( 'NONE', #132, .T. ) ;
#92 = AXIS2_PLACEMENT_3D ( 'NONE', #333, #335, #67 ) ;
#93 = VERTEX_POINT ( 'NONE', #110 ) ;
#94 = PRESENTATION_STYLE_ASSIGNMENT (( #63 ) ) ;
#95 = CARTESIAN_POINT ( 'NONE',  ( 0.000000000000000000, 0.8749999999999997780, 0.000000000000000000 ) ) ;
#96 = DIRECTION ( 'NONE',  ( 0.000000000000000000, 0.000000000000000000, -1.000000000000000000 ) ) ;
#97 = AXIS2_PLACEMENT_3D ( 'NONE', #208, #294, #214 ) ;
#98 = COLOUR_RGB ( '',1.000000000000000000, 0.000000000000000000, 0.000000000000000000 ) ;
#99 = LENGTH_MEASURE_WITH_UNIT ( LENGTH_MEASURE( 0.02539999999999999897 ), #371 );
#100 = UNCERTAINTY_MEASURE_WITH_UNIT (LENGTH_MEASURE( 1.000000000000000082E-05 ), #369, 'distance_accuracy_value', 'NONE');
#101 =( LENGTH_UNIT ( ) NAMED_UNIT ( * ) SI_UNIT ( $, .METRE. ) );
#102 = CIRCLE ( 'NONE', #325, 0.06249999999999956979 ) ;
#103 = STYLED_ITEM ( 'NONE', ( #241 ), #367 ) ;
#104 = SURFACE_SIDE_STYLE ('',( #316 ) ) ;
#105 = CARTESIAN_POINT ( 'NONE',  ( -7.654042494670957545E-18, 0.06250000000000001388, 0.000000000000000000 ) ) ;
#106 = FACE_OUTER_BOUND ( 'NONE', #205, .T. ) ;
#107 = DIRECTION ( 'NONE',  ( -0.000000000000000000, -1.000000000000000000, -0.000000000000000000 ) ) ;
#108 = STYLED_ITEM ( 'NONE', ( #276 ), #239 ) ;
#109 = LENGTH_MEASURE_WITH_UNIT ( LENGTH_MEASURE( 0.02539999999999999897 ), #101 );
#110 = CARTESIAN_POINT ( 'NONE',  ( 0.06249999999999988898, 2.500000000000000000, 7.654042494670898997E-18 ) ) ;
#111 = SPHERICAL_SURFACE ( 'NONE', #305, 0.06249999999999997918 ) ;
#112 = DIRECTION ( 'NONE',  ( -1.000000000000000000, 0.000000000000000000, 0.000000000000000000 ) ) ;
#113 = PRODUCT_RELATED_PRODUCT_CATEGORY ( 'part', '', ( #328 ) ) ;
#114 = AXIS2_PLACEMENT_3D ( 'NONE', #228, #255, #141 ) ;
#115 = DIRECTION ( 'NONE',  ( -0.000000000000000000, -1.000000000000000000, -0.000000000000000000 ) ) ;
#116 = DIRECTION ( 'NONE',  ( 1.000000000000000000, 0.000000000000000000, -1.224646799147353454E-16 ) ) ;
#117 = DIRECTION ( 'NONE',  ( 1.000000000000000000, 0.000000000000000000, 0.000000000000000000 ) ) ;
#118 = DIRECTION ( 'NONE',  ( 0.000000000000000000, 0.000000000000000000, 1.000000000000000000 ) ) ;
#119 = PRODUCT_DEFINITION_FORMATION_WITH_SPECIFIED_SOURCE ( 'ANY', '', #328, .NOT_KNOWN. ) ;
#120 = ORIENTED_EDGE ( 'NONE', *, *, #233, .T. ) ;
#121 =( NAMED_UNIT ( * ) SI_UNIT ( $, .STERADIAN. ) SOLID_ANGLE_UNIT ( ) );
#122 = DIRECTION ( 'NONE',  ( -0.000000000000000000, -1.000000000000000000, -0.000000000000000000 ) ) ;
#123 = SURFACE_STYLE_USAGE ( .BOTH. , #246 ) ;
#124 =( GEOMETRIC_REPRESENTATION_CONTEXT ( 3 ) GLOBAL_UNCERTAINTY_ASSIGNED_CONTEXT ( ( #9 ) ) GLOBAL_UNIT_ASSIGNED_CONTEXT ( ( #366, #277, #126 ) ) REPRESENTATION_CONTEXT ( 'NONE', 'WORKASPACE' ) );
#125 = SURFACE_STYLE_FILL_AREA ( #310 ) ;
#126 =( NAMED_UNIT ( * ) SI_UNIT ( $, .STERADIAN. ) SOLID_ANGLE_UNIT ( ) );
#127 = ADVANCED_FACE ( 'NONE', ( #83 ), #318, .T. ) ;
#128 = SURFACE_STYLE_USAGE ( .BOTH. , #217 ) ;
#129 = ORIENTED_EDGE ( 'NONE', *, *, #330, .T. ) ;
#130 = STYLED_ITEM ( 'NONE', ( #168 ), #308 ) ;
#131 = PLANE ( 'NONE',  #92 ) ;
#132 = EDGE_LOOP ( 'NONE', ( #20, #160, #18, #303 ) ) ;
#133 = CYLINDRICAL_SURFACE ( 'NONE', #114, 0.06249999999999991673 ) ;
#134 = CARTESIAN_POINT ( 'NONE',  ( 7.654042494670951382E-18, 0.06250000000000001388, 0.06249999999999993755 ) ) ;
#135 = DIRECTION ( 'NONE',  ( 1.000000000000000000, 0.000000000000000000, 0.000000000000000000 ) ) ;
#136 = DIRECTION ( 'NONE',  ( -1.000000000000000000, 0.000000000000000000, 0.000000000000000000 ) ) ;
#137 = VECTOR ( 'NONE', #197, 39.37007874015748143 ) ;
#138 = AXIS2_PLACEMENT_3D ( 'NONE', #266, #280, #193 ) ;
#139 = DIRECTION ( 'NONE',  ( 0.000000000000000000, 0.000000000000000000, -1.000000000000000000 ) ) ;
#140 = EDGE_CURVE ( 'NONE', #273, #297, #182, .T. ) ;
#141 = DIRECTION ( 'NONE',  ( 0.000000000000000000, 0.000000000000000000, -1.000000000000000000 ) ) ;
#142 = VERTEX_POINT ( 'NONE', #231 ) ;
#143 = SURFACE_STYLE_FILL_AREA ( #288 ) ;
#144 = AXIS2_PLACEMENT_3D ( 'NONE', #174, #145, #116 ) ;
#145 = DIRECTION ( 'NONE',  ( 1.224646799147353207E-16, -0.000000000000000000, 1.000000000000000000 ) ) ;
#146 = DIRECTION ( 'NONE',  ( 0.000000000000000000, 0.000000000000000000, 1.000000000000000000 ) ) ;
#147 = FILL_AREA_STYLE ('',( #57 ) ) ;
#148 = UNCERTAINTY_MEASURE_WITH_UNIT (LENGTH_MEASURE( 1.000000000000000082E-05 ), #43, 'distance_accuracy_value', 'NONE');
#149 = ORIENTED_EDGE ( 'NONE', *, *, #185, .T. ) ;
#150 =( LENGTH_UNIT ( ) NAMED_UNIT ( * ) SI_UNIT ( $, .METRE. ) );
#151 = MECHANICAL_DESIGN_GEOMETRIC_PRESENTATION_REPRESENTATION (  '', ( #103 ), #252 ) ;
#152 = SURFACE_STYLE_USAGE ( .BOTH. , #10 ) ;
#153 =( CONVERSION_BASED_UNIT ( 'INCH', #298 ) LENGTH_UNIT ( ) NAMED_UNIT ( #354 ) );
#154 = ADVANCED_FACE ( 'NONE', ( #350 ), #331, .T. ) ;
#155 = DIRECTION ( 'NONE',  ( -1.000000000000000000, 0.000000000000000000, 0.000000000000000000 ) ) ;
#156 = VERTEX_POINT ( 'NONE', #88 ) ;
#157 = UNCERTAINTY_MEASURE_WITH_UNIT (LENGTH_MEASURE( 1.000000000000000082E-05 ), #47, 'distance_accuracy_value', 'NONE');
#158 =( LENGTH_UNIT ( ) NAMED_UNIT ( * ) SI_UNIT ( $, .METRE. ) );
#159 = COLOUR_RGB ( '',1.000000000000000000, 0.000000000000000000, 0.000000000000000000 ) ;
#160 = ORIENTED_EDGE ( 'NONE', *, *, #196, .T. ) ;
#161 = DIRECTION ( 'NONE',  ( -0.000000000000000000, -1.000000000000000000, -0.000000000000000000 ) ) ;
#162 = ORIENTED_EDGE ( 'NONE', *, *, #237, .T. ) ;
#163 = AXIS2_PLACEMENT_3D ( 'NONE', #36, #65, #329 ) ;
#164 = VECTOR ( 'NONE', #365, 39.37007874015748143 ) ;
#165 = CARTESIAN_POINT ( 'NONE',  ( 0.000000000000000000, 0.000000000000000000, -0.06249999999999991673 ) ) ;
#166 = DIRECTION ( 'NONE',  ( 0.000000000000000000, 0.000000000000000000, -1.000000000000000000 ) ) ;
#167 = DIRECTION ( 'NONE',  ( -1.000000000000000000, -1.253589134178188357E-16, 0.000000000000000000 ) ) ;
#168 = PRESENTATION_STYLE_ASSIGNMENT (( #302 ) ) ;
#169 = CARTESIAN_POINT ( 'NONE',  ( -0.06249999999999916039, 2.500000000000000000, 0.000000000000000000 ) ) ;
#170 = ADVANCED_FACE ( 'NONE', ( #91 ), #324, .T. ) ;
#171 =( LENGTH_UNIT ( ) NAMED_UNIT ( * ) SI_UNIT ( $, .METRE. ) );
#172 = SURFACE_SIDE_STYLE ('',( #55 ) ) ;
#173 = DIRECTION ( 'NONE',  ( -0.000000000000000000, -1.000000000000000000, -0.000000000000000000 ) ) ;
#174 = CARTESIAN_POINT ( 'NONE',  ( -7.654042494670957545E-18, 0.06250000000000001388, 0.000000000000000000 ) ) ;
#175 = UNCERTAINTY_MEASURE_WITH_UNIT (LENGTH_MEASURE( 1.000000000000000082E-05 ), #31, 'distance_accuracy_value', 'NONE');
#176 = CLOSED_SHELL ( 'NONE', ( #308, #58, #250, #5, #154 ) ) ;
#177 = APPLICATION_PROTOCOL_DEFINITION ( 'draft international standard', 'automotive_design', 1998, #368 ) ;
#178 =( GEOMETRIC_REPRESENTATION_CONTEXT ( 3 ) GLOBAL_UNCERTAINTY_ASSIGNED_CONTEXT ( ( #157 ) ) GLOBAL_UNIT_ASSIGNED_CONTEXT ( ( #47, #307, #69 ) ) REPRESENTATION_CONTEXT ( 'NONE', 'WORKASPACE' ) );
#179 =( NAMED_UNIT ( * ) PLANE_ANGLE_UNIT ( ) SI_UNIT ( $, .RADIAN. ) );
#180 = SURFACE_STYLE_FILL_AREA ( #147 ) ;
#181 = ORIENTED_EDGE ( 'NONE', *, *, #198, .F. ) ;
#182 = CIRCLE ( 'NONE', #256, 0.06249999999999936856 ) ;
#183 = MECHANICAL_DESIGN_GEOMETRIC_PRESENTATION_REPRESENTATION (  '', ( #8 ), #178 ) ;
#184 = CARTESIAN_POINT ( 'NONE',  ( 0.06249999999999988898, 0.8749999999999997780, 7.654042494670898997E-18 ) ) ;
#185 = EDGE_CURVE ( 'NONE', #142, #229, #357, .T. ) ;
#186 = SURFACE_SIDE_STYLE ('',( #338 ) ) ;
#187 = ORIENTED_EDGE ( 'NONE', *, *, #237, .F. ) ;
#188 = FACE_OUTER_BOUND ( 'NONE', #341, .T. ) ;
#189 = AXIS2_PLACEMENT_3D ( 'NONE', #95, #243, #296 ) ;
#190 = COLOUR_RGB ( '',0.7921568627450980005, 0.8196078431372548767, 0.9333333333333333481 ) ;
#191 = VERTEX_POINT ( 'NONE', #62 ) ;
#192 = LENGTH_MEASURE_WITH_UNIT ( LENGTH_MEASURE( 0.02539999999999999897 ), #343 );
#193 = DIRECTION ( 'NONE',  ( 0.000000000000000000, 0.000000000000000000, -1.000000000000000000 ) ) ;
#194 = CYLINDRICAL_SURFACE ( 'NONE', #370, 0.06249999999999991673 ) ;
#195 = PRESENTATION_LAYER_ASSIGNMENT (  '', '', ( #108 ) ) ;
#196 = EDGE_CURVE ( 'NONE', #297, #273, #7, .T. ) ;
#197 = DIRECTION ( 'NONE',  ( -1.253589134178188357E-16, 1.000000000000000000, -0.000000000000000000 ) ) ;
#198 = EDGE_CURVE ( 'NONE', #156, #78, #213, .T. ) ;
#199 = LENGTH_MEASURE_WITH_UNIT ( LENGTH_MEASURE( 0.02539999999999999897 ), #292 );
#200 = DIRECTION ( 'NONE',  ( 1.000000000000000000, 1.253589134178188357E-16, 0.000000000000000000 ) ) ;
#201 = AXIS2_PLACEMENT_3D ( 'NONE', #272, #299, #155 ) ;
#202 = CARTESIAN_POINT ( 'NONE',  ( -0.06249999999999996531, 0.06250000000000001388, 7.654042494670952923E-18 ) ) ;
#203 = PRODUCT_CONTEXT ( 'NONE', #368, 'mechanical' ) ;
#204 = SURFACE_STYLE_USAGE ( .BOTH. , #172 ) ;
#205 = EDGE_LOOP ( 'NONE', ( #361, #89 ) ) ;
#206 = STYLED_ITEM ( 'NONE', ( #50 ), #5 ) ;
#207 = DIRECTION ( 'NONE',  ( -0.000000000000000000, -1.000000000000000000, -0.000000000000000000 ) ) ;
#208 = CARTESIAN_POINT ( 'NONE',  ( 0.000000000000000000, 0.06250000000000001388, 0.000000000000000000 ) ) ;
#209 = UNCERTAINTY_MEASURE_WITH_UNIT (LENGTH_MEASURE( 1.000000000000000082E-05 ), #227, 'distance_accuracy_value', 'NONE');
#210 = DIRECTION ( 'NONE',  ( -1.000000000000000000, 0.000000000000000000, 0.000000000000000000 ) ) ;
#211 = ORIENTED_EDGE ( 'NONE', *, *, #336, .F. ) ;
#212 = AXIS2_PLACEMENT_3D ( 'NONE', #2, #82, #200 ) ;
#213 = CIRCLE ( 'NONE', #189, 0.06249999999999988204 ) ;
#214 = DIRECTION ( 'NONE',  ( 0.000000000000000000, 0.000000000000000000, -1.000000000000000000 ) ) ;
#215 = FACE_OUTER_BOUND ( 'NONE', #39, .T. ) ;
#216 = LENGTH_MEASURE_WITH_UNIT ( LENGTH_MEASURE( 0.02539999999999999897 ), #41 );
#217 = SURFACE_SIDE_STYLE ('',( #125 ) ) ;
#218 = FILL_AREA_STYLE ('',( #68 ) ) ;
#219 = MECHANICAL_DESIGN_GEOMETRIC_PRESENTATION_REPRESENTATION (  '', ( #344 ), #225 ) ;
#220 = FILL_AREA_STYLE ('',( #70 ) ) ;
#221 = SURFACE_STYLE_FILL_AREA ( #34 ) ;
#222 = EDGE_LOOP ( 'NONE', ( #187, #327, #149, #319 ) ) ;
#223 = EDGE_LOOP ( 'NONE', ( #261, #162, #311, #120 ) ) ;
#224 = PLANE ( 'NONE',  #212 ) ;
#225 =( GEOMETRIC_REPRESENTATION_CONTEXT ( 3 ) GLOBAL_UNCERTAINTY_ASSIGNED_CONTEXT ( ( #175 ) ) GLOBAL_UNIT_ASSIGNED_CONTEXT ( ( #31, #323, #285 ) ) REPRESENTATION_CONTEXT ( 'NONE', 'WORKASPACE' ) );
#226 = DIMENSIONAL_EXPONENTS ( 1.000000000000000000, 0.000000000000000000, 0.000000000000000000, 0.000000000000000000, 0.000000000000000000, 0.000000000000000000, 0.000000000000000000 ) ;
#227 =( CONVERSION_BASED_UNIT ( 'INCH', #30 ) LENGTH_UNIT ( ) NAMED_UNIT ( #74 ) );
#228 = CARTESIAN_POINT ( 'NONE',  ( 0.000000000000000000, 0.000000000000000000, 0.000000000000000000 ) ) ;
#229 = VERTEX_POINT ( 'NONE', #242 ) ;
#230 = DIMENSIONAL_EXPONENTS ( 1.000000000000000000, 0.000000000000000000, 0.000000000000000000, 0.000000000000000000, 0.000000000000000000, 0.000000000000000000, 0.000000000000000000 ) ;
#231 = CARTESIAN_POINT ( 'NONE',  ( 0.000000000000000000, 0.06250000000000001388, -0.06249999999999995143 ) ) ;
#232 = CARTESIAN_POINT ( 'NONE',  ( 0.000000000000000000, 0.000000000000000000, 0.000000000000000000 ) ) ;
#233 = EDGE_CURVE ( 'NONE', #229, #334, #54, .T. ) ;
#234 =( GEOMETRIC_REPRESENTATION_CONTEXT ( 3 ) GLOBAL_UNCERTAINTY_ASSIGNED_CONTEXT ( ( #100 ) ) GLOBAL_UNIT_ASSIGNED_CONTEXT ( ( #369, #306, #17 ) ) REPRESENTATION_CONTEXT ( 'NONE', 'WORKASPACE' ) );
#235 = CARTESIAN_POINT ( 'NONE',  ( 3.061616997868383141E-16, 2.500000000000000000, 0.000000000000000000 ) ) ;
#236 = EDGE_CURVE ( 'NONE', #334, #84, #48, .T. ) ;
#237 = EDGE_CURVE ( 'NONE', #84, #75, #314, .T. ) ;
#238 = AXIS2_PLACEMENT_3D ( 'NONE', #53, #291, #28 ) ;
#239 = MANIFOLD_SOLID_BREP ( 'Revolve - Tool Body (Straight Shanked)', #245 ) ;
#240 = CIRCLE ( 'NONE', #16, 0.06249999999999995143 ) ;
#241 = PRESENTATION_STYLE_ASSIGNMENT (( #152 ) ) ;
#242 = CARTESIAN_POINT ( 'NONE',  ( 0.06249999999999996531, 0.06250000000000001388, 0.000000000000000000 ) ) ;
#243 = DIRECTION ( 'NONE',  ( -0.000000000000000000, -1.000000000000000000, -0.000000000000000000 ) ) ;
#244 = EDGE_CURVE ( 'NONE', #78, #156, #321, .T. ) ;
#245 = CLOSED_SHELL ( 'NONE', ( #127, #312, #170, #66 ) ) ;
#246 = SURFACE_SIDE_STYLE ('',( #221 ) ) ;
#247 = EDGE_CURVE ( 'NONE', #297, #93, #73, .T. ) ;
#248 = PRESENTATION_STYLE_ASSIGNMENT (( #128 ) ) ;
#249 = ORIENTED_EDGE ( 'NONE', *, *, #140, .F. ) ;
#250 = ADVANCED_FACE ( 'NONE', ( #188 ), #131, .T. ) ;
#251 = FILL_AREA_STYLE_COLOUR ( '', #27 ) ;
#252 =( GEOMETRIC_REPRESENTATION_CONTEXT ( 3 ) GLOBAL_UNCERTAINTY_ASSIGNED_CONTEXT ( ( #64 ) ) GLOBAL_UNIT_ASSIGNED_CONTEXT ( ( #253, #46, #346 ) ) REPRESENTATION_CONTEXT ( 'NONE', 'WORKASPACE' ) );
#253 =( CONVERSION_BASED_UNIT ( 'INCH', #192 ) LENGTH_UNIT ( ) NAMED_UNIT ( #349 ) );
#254 = EDGE_LOOP ( 'NONE', ( #37, #23, #309, #211, #269 ) ) ;
#255 = DIRECTION ( 'NONE',  ( -0.000000000000000000, -1.000000000000000000, -0.000000000000000000 ) ) ;
#256 = AXIS2_PLACEMENT_3D ( 'NONE', #260, #3, #112 ) ;
#257 = ORIENTED_EDGE ( 'NONE', *, *, #19, .F. ) ;
#258 = SHAPE_DEFINITION_REPRESENTATION ( #270, #25 ) ;
#259 = DIMENSIONAL_EXPONENTS ( 1.000000000000000000, 0.000000000000000000, 0.000000000000000000, 0.000000000000000000, 0.000000000000000000, 0.000000000000000000, 0.000000000000000000 ) ;
#260 = CARTESIAN_POINT ( 'NONE',  ( 5.098699340907939775E-16, 0.8749999999999997780, 0.000000000000000000 ) ) ;
#261 = ORIENTED_EDGE ( 'NONE', *, *, #236, .T. ) ;
#262 = LINE ( 'NONE', #165, #304 ) ;
#263 = AXIS2_PLACEMENT_3D ( 'NONE', #60, #118, #326 ) ;
#264 = PRESENTATION_LAYER_ASSIGNMENT (  '', '', ( #130 ) ) ;
#265 = CIRCLE ( 'NONE', #201, 0.06249999999999956979 ) ;
#266 = CARTESIAN_POINT ( 'NONE',  ( 0.000000000000000000, 0.8749999999999997780, 0.000000000000000000 ) ) ;
#267 = CARTESIAN_POINT ( 'NONE',  ( 5.098699340907939775E-16, 0.8749999999999997780, 0.000000000000000000 ) ) ;
#268 = MECHANICAL_DESIGN_GEOMETRIC_PRESENTATION_REPRESENTATION (  '', ( #206 ), #124 ) ;
#269 = ORIENTED_EDGE ( 'NONE', *, *, #236, .F. ) ;
#270 = PRODUCT_DEFINITION_SHAPE ( 'NONE', 'NONE',  #21 ) ;
#271 = CARTESIAN_POINT ( 'NONE',  ( 0.000000000000000000, 0.06250000000000001388, 0.000000000000000000 ) ) ;
#272 = CARTESIAN_POINT ( 'NONE',  ( 3.061616997868383141E-16, 2.500000000000000000, 0.000000000000000000 ) ) ;
#273 = VERTEX_POINT ( 'NONE', #77 ) ;
#274 = AXIS2_PLACEMENT_3D ( 'NONE', #267, #33, #210 ) ;
#275 =( GEOMETRIC_REPRESENTATION_CONTEXT ( 3 ) GLOBAL_UNCERTAINTY_ASSIGNED_CONTEXT ( ( #148 ) ) GLOBAL_UNIT_ASSIGNED_CONTEXT ( ( #43, #373, #278 ) ) REPRESENTATION_CONTEXT ( 'NONE', 'WORKASPACE' ) );
#276 = PRESENTATION_STYLE_ASSIGNMENT (( #123 ) ) ;
#277 =( NAMED_UNIT ( * ) PLANE_ANGLE_UNIT ( ) SI_UNIT ( $, .RADIAN. ) );
#278 =( NAMED_UNIT ( * ) SI_UNIT ( $, .STERADIAN. ) SOLID_ANGLE_UNIT ( ) );
#279 = DIRECTION ( 'NONE',  ( 0.000000000000000000, 0.000000000000000000, -1.000000000000000000 ) ) ;
#280 = DIRECTION ( 'NONE',  ( -0.000000000000000000, -1.000000000000000000, -0.000000000000000000 ) ) ;
#281 = MECHANICAL_DESIGN_GEOMETRIC_PRESENTATION_REPRESENTATION (  '', ( #22 ), #11 ) ;
#282 = MECHANICAL_DESIGN_GEOMETRIC_PRESENTATION_REPRESENTATION (  '', ( #130 ), #42 ) ;
#283 = EDGE_LOOP ( 'NONE', ( #13, #129, #29, #337, #356 ) ) ;
#284 = FILL_AREA_STYLE_COLOUR ( '', #190 ) ;
#285 =( NAMED_UNIT ( * ) SI_UNIT ( $, .STERADIAN. ) SOLID_ANGLE_UNIT ( ) );
#286 = DIRECTION ( 'NONE',  ( -1.253589134178188357E-16, 1.000000000000000000, 0.000000000000000000 ) ) ;
#287 = DIMENSIONAL_EXPONENTS ( 1.000000000000000000, 0.000000000000000000, 0.000000000000000000, 0.000000000000000000, 0.000000000000000000, 0.000000000000000000, 0.000000000000000000 ) ;
#288 = FILL_AREA_STYLE ('',( #284 ) ) ;
#289 = LINE ( 'NONE', #169, #137 ) ;
#290 = APPLICATION_CONTEXT ( 'automotive_design' ) ;
#291 = DIRECTION ( 'NONE',  ( -1.253589134178188357E-16, 1.000000000000000000, -0.000000000000000000 ) ) ;
#292 =( LENGTH_UNIT ( ) NAMED_UNIT ( * ) SI_UNIT ( $, .METRE. ) );
#293 = FILL_AREA_STYLE ('',( #56 ) ) ;
#294 = DIRECTION ( 'NONE',  ( -0.000000000000000000, -1.000000000000000000, -0.000000000000000000 ) ) ;
#295 = COLOUR_RGB ( '',1.000000000000000000, 0.000000000000000000, 0.000000000000000000 ) ;
#296 = DIRECTION ( 'NONE',  ( 0.000000000000000000, 0.000000000000000000, -1.000000000000000000 ) ) ;
#297 = VERTEX_POINT ( 'NONE', #184 ) ;
#298 = LENGTH_MEASURE_WITH_UNIT ( LENGTH_MEASURE( 0.02539999999999999897 ), #150 );
#299 = DIRECTION ( 'NONE',  ( -1.253589134178188357E-16, 1.000000000000000000, -0.000000000000000000 ) ) ;
#300 = UNCERTAINTY_MEASURE_WITH_UNIT (LENGTH_MEASURE( 1.000000000000000082E-05 ), #153, 'distance_accuracy_value', 'NONE');
#301 = EDGE_CURVE ( 'NONE', #93, #191, #265, .T. ) ;
#302 = SURFACE_STYLE_USAGE ( .BOTH. , #186 ) ;
#303 = ORIENTED_EDGE ( 'NONE', *, *, #301, .F. ) ;
#304 = VECTOR ( 'NONE', #115, 39.37007874015748143 ) ;
#305 = AXIS2_PLACEMENT_3D ( 'NONE', #105, #51, #135 ) ;
#306 =( NAMED_UNIT ( * ) PLANE_ANGLE_UNIT ( ) SI_UNIT ( $, .RADIAN. ) );
#307 =( NAMED_UNIT ( * ) PLANE_ANGLE_UNIT ( ) SI_UNIT ( $, .RADIAN. ) );
#308 = ADVANCED_FACE ( 'NONE', ( #14 ), #111, .T. ) ;
#309 = ORIENTED_EDGE ( 'NONE', *, *, #24, .T. ) ;
#310 = FILL_AREA_STYLE ('',( #251 ) ) ;
#311 = ORIENTED_EDGE ( 'NONE', *, *, #86, .F. ) ;
#312 = ADVANCED_FACE ( 'NONE', ( #215 ), #360, .F. ) ;
#313 = ORIENTED_EDGE ( 'NONE', *, *, #196, .F. ) ;
#314 = CIRCLE ( 'NONE', #144, 0.06249999999999997918 ) ;
#315 = AXIS2_PLACEMENT_3D ( 'NONE', #87, #286, #167 ) ;
#316 = SURFACE_STYLE_FILL_AREA ( #220 ) ;
#317 = CARTESIAN_POINT ( 'NONE',  ( -3.827021247335479543E-18, 3.414809992080329023E-17, 0.000000000000000000 ) ) ;
#318 = CYLINDRICAL_SURFACE ( 'NONE', #238, 0.06249999999999947264 ) ;
#319 = ORIENTED_EDGE ( 'NONE', *, *, #86, .T. ) ;
#320 = CARTESIAN_POINT ( 'NONE',  ( 0.000000000000000000, 0.000000000000000000, 0.000000000000000000 ) ) ;
#321 = CIRCLE ( 'NONE', #138, 0.06249999999999988204 ) ;
#322 = CARTESIAN_POINT ( 'NONE',  ( -7.654042494670957545E-18, 0.06250000000000001388, 0.000000000000000000 ) ) ;
#323 =( NAMED_UNIT ( * ) PLANE_ANGLE_UNIT ( ) SI_UNIT ( $, .RADIAN. ) );
#324 = CYLINDRICAL_SURFACE ( 'NONE', #163, 0.06249999999999947264 ) ;
#325 = AXIS2_PLACEMENT_3D ( 'NONE', #235, #6, #52 ) ;
#326 = DIRECTION ( 'NONE',  ( 1.000000000000000000, 0.000000000000000000, 0.000000000000000000 ) ) ;
#327 = ORIENTED_EDGE ( 'NONE', *, *, #336, .T. ) ;
#328 = PRODUCT ( '86074', '86074', '', ( #203 ) ) ;
#329 = DIRECTION ( 'NONE',  ( -1.000000000000000000, 0.000000000000000000, 0.000000000000000000 ) ) ;
#330 = EDGE_CURVE ( 'NONE', #156, #334, #342, .T. ) ;
#331 = SPHERICAL_SURFACE ( 'NONE', #263, 0.06249999999999997918 ) ;
#332 = ORIENTED_EDGE ( 'NONE', *, *, #35, .F. ) ;
#333 = CARTESIAN_POINT ( 'NONE',  ( 0.000000000000000000, 0.8749999999999997780, 0.000000000000000000 ) ) ;
#334 = VERTEX_POINT ( 'NONE', #134 ) ;
#335 = DIRECTION ( 'NONE',  ( 0.000000000000000000, 1.000000000000000000, 0.000000000000000000 ) ) ;
#336 = EDGE_CURVE ( 'NONE', #84, #142, #240, .T. ) ;
#337 = ORIENTED_EDGE ( 'NONE', *, *, #185, .F. ) ;
#338 = SURFACE_STYLE_FILL_AREA ( #218 ) ;
#339 = CARTESIAN_POINT ( 'NONE',  ( 7.654042494670946760E-18, 0.000000000000000000, 0.06249999999999991673 ) ) ;
#340 = LENGTH_MEASURE_WITH_UNIT ( LENGTH_MEASURE( 0.02539999999999999897 ), #158 );
#341 = EDGE_LOOP ( 'NONE', ( #4, #181 ) ) ;
#342 = LINE ( 'NONE', #339, #358 ) ;
#343 =( LENGTH_UNIT ( ) NAMED_UNIT ( * ) SI_UNIT ( $, .METRE. ) );
#344 = STYLED_ITEM ( 'NONE', ( #32 ), #58 ) ;
#345 = PRESENTATION_LAYER_ASSIGNMENT (  '', '', ( #103 ) ) ;
#346 =( NAMED_UNIT ( * ) SI_UNIT ( $, .STERADIAN. ) SOLID_ANGLE_UNIT ( ) );
#347 =( NAMED_UNIT ( * ) PLANE_ANGLE_UNIT ( ) SI_UNIT ( $, .RADIAN. ) );
#348 = FACE_OUTER_BOUND ( 'NONE', #283, .T. ) ;
#349 = DIMENSIONAL_EXPONENTS ( 1.000000000000000000, 0.000000000000000000, 0.000000000000000000, 0.000000000000000000, 0.000000000000000000, 0.000000000000000000, 0.000000000000000000 ) ;
#350 = FACE_OUTER_BOUND ( 'NONE', #222, .T. ) ;
#351 = APPLICATION_PROTOCOL_DEFINITION ( 'draft international standard', 'automotive_design', 1998, #290 ) ;
#352 =( NAMED_UNIT ( * ) SI_UNIT ( $, .STERADIAN. ) SOLID_ANGLE_UNIT ( ) );
#353 = AXIS2_PLACEMENT_3D ( 'NONE', #322, #139, #136 ) ;
#354 = DIMENSIONAL_EXPONENTS ( 1.000000000000000000, 0.000000000000000000, 0.000000000000000000, 0.000000000000000000, 0.000000000000000000, 0.000000000000000000, 0.000000000000000000 ) ;
#355 = FILL_AREA_STYLE_COLOUR ( '', #364 ) ;
#356 = ORIENTED_EDGE ( 'NONE', *, *, #24, .F. ) ;
#357 = CIRCLE ( 'NONE', #71, 0.06249999999999995143 ) ;
#358 = VECTOR ( 'NONE', #107, 39.37007874015748143 ) ;
#359 = DIRECTION ( 'NONE',  ( 0.000000000000000000, 0.000000000000000000, -1.000000000000000000 ) ) ;
#360 = PLANE ( 'NONE',  #315 ) ;
#361 = ORIENTED_EDGE ( 'NONE', *, *, #19, .T. ) ;
#362 = SURFACE_SIDE_STYLE ('',( #180 ) ) ;
#363 = ORIENTED_EDGE ( 'NONE', *, *, #247, .T. ) ;
#364 = COLOUR_RGB ( '',0.7921568627450980005, 0.8196078431372548767, 0.9333333333333333481 ) ;
#365 = DIRECTION ( 'NONE',  ( -1.253589134178188357E-16, 1.000000000000000000, -0.000000000000000000 ) ) ;
#366 =( CONVERSION_BASED_UNIT ( 'INCH', #216 ) LENGTH_UNIT ( ) NAMED_UNIT ( #230 ) );
#367 = MANIFOLD_SOLID_BREP ( 'Revolve - Cutting Edge', #176 ) ;
#368 = APPLICATION_CONTEXT ( 'automotive_design' ) ;
#369 =( CONVERSION_BASED_UNIT ( 'INCH', #109 ) LENGTH_UNIT ( ) NAMED_UNIT ( #287 ) );
#370 = AXIS2_PLACEMENT_3D ( 'NONE', #320, #173, #166 ) ;
#371 =( LENGTH_UNIT ( ) NAMED_UNIT ( * ) SI_UNIT ( $, .METRE. ) );
#372 = EDGE_LOOP ( 'NONE', ( #61, #363, #257, #332 ) ) ;
#373 =( NAMED_UNIT ( * ) PLANE_ANGLE_UNIT ( ) SI_UNIT ( $, .RADIAN. ) );
ENDSEC;
END-ISO-10303-21;
