ISO-10303-21;
HEADER;
FILE_DESCRIPTION (( 'STEP AP214' ),
    '1' );
FILE_NAME ('00662.STEP',
    '2023-06-22T14:13:41',
    ( '' ),
    ( '' ),
    'SwSTEP 2.0',
    'SolidWorks 2023',
    '' );
FILE_SCHEMA (( 'AUTOMOTIVE_DESIGN' ));
ENDSEC;

DATA;
#1 = SURFACE_STYLE_FILL_AREA ( #236 ) ;
#2 = FILL_AREA_STYLE ('',( #238 ) ) ;
#3 = FILL_AREA_STYLE_COLOUR ( '', #71 ) ;
#4 = PRODUCT_DEFINITION_FORMATION_WITH_SPECIFIED_SOURCE ( 'ANY', '', #171, .NOT_KNOWN. ) ;
#5 =( NAMED_UNIT ( * ) PLANE_ANGLE_UNIT ( ) SI_UNIT ( $, .RADIAN. ) );
#6 = DIRECTION ( 'NONE',  ( 1.031281515071456046E-16, 1.000000000000000000, -0.000000000000000000 ) ) ;
#7 = UNCERTAINTY_MEASURE_WITH_UNIT (LENGTH_MEASURE( 1.000000000000000082E-05 ), #227, 'distance_accuracy_value', 'NONE');
#8 = DIRECTION ( 'NONE',  ( -0.000000000000000000, -1.000000000000000000, -0.000000000000000000 ) ) ;
#9 = CARTESIAN_POINT ( 'NONE',  ( -0.3749999999999995004, 4.000000000000000000, 0.000000000000000000 ) ) ;
#10 =( GEOMETRIC_REPRESENTATION_CONTEXT ( 3 ) GLOBAL_UNCERTAINTY_ASSIGNED_CONTEXT ( ( #294 ) ) GLOBAL_UNIT_ASSIGNED_CONTEXT ( ( #299, #278, #35 ) ) REPRESENTATION_CONTEXT ( 'NONE', 'WORKASPACE' ) );
#11 = ADVANCED_FACE ( 'NONE', ( #176 ), #276, .T. ) ;
#12 = FILL_AREA_STYLE ('',( #129 ) ) ;
#13 = EDGE_CURVE ( 'NONE', #174, #22, #130, .T. ) ;
#14 = PLANE ( 'NONE',  #184 ) ;
#15 = CLOSED_SHELL ( 'NONE', ( #11, #38, #213, #77 ) ) ;
#16 = CARTESIAN_POINT ( 'NONE',  ( 0.000000000000000000, 0.000000000000000000, 0.000000000000000000 ) ) ;
#17 = CARTESIAN_POINT ( 'NONE',  ( 4.592425496802575451E-17, 0.000000000000000000, 0.3750000000000000555 ) ) ;
#18 = SURFACE_STYLE_USAGE ( .BOTH. , #214 ) ;
#19 = COLOUR_RGB ( '',1.000000000000000000, 0.000000000000000000, 0.000000000000000000 ) ;
#20 = AXIS2_PLACEMENT_3D ( 'NONE', #297, #272, #253 ) ;
#21 = ADVANCED_FACE ( 'NONE', ( #33 ), #14, .F. ) ;
#22 = VERTEX_POINT ( 'NONE', #9 ) ;
#23 = CYLINDRICAL_SURFACE ( 'NONE', #191, 0.3749999999999998890 ) ;
#24 =( CONVERSION_BASED_UNIT ( 'INCH', #122 ) LENGTH_UNIT ( ) NAMED_UNIT ( #286 ) );
#25 = ORIENTED_EDGE ( 'NONE', *, *, #42, .F. ) ;
#26 = SURFACE_STYLE_USAGE ( .BOTH. , #188 ) ;
#27 = UNCERTAINTY_MEASURE_WITH_UNIT (LENGTH_MEASURE( 1.000000000000000082E-05 ), #24, 'distance_accuracy_value', 'NONE');
#28 = CARTESIAN_POINT ( 'NONE',  ( 2.449293598294707400E-16, 4.000000000000000000, 0.000000000000000000 ) ) ;
#29 = PRESENTATION_STYLE_ASSIGNMENT (( #99 ) ) ;
#30 = APPLICATION_CONTEXT ( 'automotive_design' ) ;
#31 = AXIS2_PLACEMENT_3D ( 'NONE', #32, #192, #53 ) ;
#32 = CARTESIAN_POINT ( 'NONE',  ( 0.000000000000000000, 1.625000000000000000, 0.000000000000000000 ) ) ;
#33 = FACE_OUTER_BOUND ( 'NONE', #182, .T. ) ;
#34 = EDGE_CURVE ( 'NONE', #45, #309, #101, .T. ) ;
#35 =( NAMED_UNIT ( * ) SI_UNIT ( $, .STERADIAN. ) SOLID_ANGLE_UNIT ( ) );
#36 = FILL_AREA_STYLE_COLOUR ( '', #229 ) ;
#37 = DIRECTION ( 'NONE',  ( 1.000000000000000000, 0.000000000000000000, 0.000000000000000000 ) ) ;
#38 = ADVANCED_FACE ( 'NONE', ( #150 ), #254, .T. ) ;
#39 = VECTOR ( 'NONE', #102, 39.37007874015748143 ) ;
#40 = VERTEX_POINT ( 'NONE', #17 ) ;
#41 =( NAMED_UNIT ( * ) SI_UNIT ( $, .STERADIAN. ) SOLID_ANGLE_UNIT ( ) );
#42 = EDGE_CURVE ( 'NONE', #22, #86, #64, .T. ) ;
#43 = APPLICATION_PROTOCOL_DEFINITION ( 'draft international standard', 'automotive_design', 1998, #242 ) ;
#44 = DIRECTION ( 'NONE',  ( 1.031281515071456169E-16, 1.000000000000000000, -0.000000000000000000 ) ) ;
#45 = VERTEX_POINT ( 'NONE', #81 ) ;
#46 = LENGTH_MEASURE_WITH_UNIT ( LENGTH_MEASURE( 0.02539999999999999897 ), #165 );
#47 = CARTESIAN_POINT ( 'NONE',  ( 0.000000000000000000, 1.625000000000000000, 0.000000000000000000 ) ) ;
#48 = STYLED_ITEM ( 'NONE', ( #302 ), #38 ) ;
#49 = ORIENTED_EDGE ( 'NONE', *, *, #42, .T. ) ;
#50 = DIRECTION ( 'NONE',  ( -1.000000000000000000, 0.000000000000000000, 0.000000000000000000 ) ) ;
#51 = ORIENTED_EDGE ( 'NONE', *, *, #157, .T. ) ;
#52 = DIRECTION ( 'NONE',  ( 0.000000000000000000, -1.000000000000000000, -0.000000000000000000 ) ) ;
#53 = DIRECTION ( 'NONE',  ( 0.000000000000000000, 0.000000000000000000, -1.000000000000000000 ) ) ;
#54 = AXIS2_PLACEMENT_3D ( 'NONE', #271, #222, #96 ) ;
#55 = SURFACE_SIDE_STYLE ('',( #258 ) ) ;
#56 = DIRECTION ( 'NONE',  ( -1.031281515071456169E-16, -1.000000000000000000, 0.000000000000000000 ) ) ;
#57 = CIRCLE ( 'NONE', #239, 0.3750000000000000555 ) ;
#58 =( LENGTH_UNIT ( ) NAMED_UNIT ( * ) SI_UNIT ( $, .METRE. ) );
#59 = ORIENTED_EDGE ( 'NONE', *, *, #245, .T. ) ;
#60 = EDGE_LOOP ( 'NONE', ( #275, #164 ) ) ;
#61 = DIRECTION ( 'NONE',  ( -0.000000000000000000, -1.000000000000000000, -0.000000000000000000 ) ) ;
#62 = ORIENTED_EDGE ( 'NONE', *, *, #237, .F. ) ;
#63 =( CONVERSION_BASED_UNIT ( 'INCH', #290 ) LENGTH_UNIT ( ) NAMED_UNIT ( #279 ) );
#64 = CIRCLE ( 'NONE', #118, 0.3749999999999997780 ) ;
#65 = ORIENTED_EDGE ( 'NONE', *, *, #183, .T. ) ;
#66 = SURFACE_STYLE_FILL_AREA ( #249 ) ;
#67 = ORIENTED_EDGE ( 'NONE', *, *, #93, .F. ) ;
#68 = LINE ( 'NONE', #94, #162 ) ;
#69 = STYLED_ITEM ( 'NONE', ( #105 ), #77 ) ;
#70 = CARTESIAN_POINT ( 'NONE',  ( 0.3750000000000000555, 4.000000000000000000, 4.592425496802573602E-17 ) ) ;
#71 = COLOUR_RGB ( '',1.000000000000000000, 0.000000000000000000, 0.000000000000000000 ) ;
#72 = FILL_AREA_STYLE_COLOUR ( '', #103 ) ;
#73 = DIRECTION ( 'NONE',  ( 0.000000000000000000, 0.000000000000000000, -1.000000000000000000 ) ) ;
#74 = CARTESIAN_POINT ( 'NONE',  ( 0.000000000000000000, 0.000000000000000000, 0.000000000000000000 ) ) ;
#75 = DIRECTION ( 'NONE',  ( 0.000000000000000000, 0.000000000000000000, -1.000000000000000000 ) ) ;
#76 = LENGTH_MEASURE_WITH_UNIT ( LENGTH_MEASURE( 0.02539999999999999897 ), #259 );
#77 = ADVANCED_FACE ( 'NONE', ( #285 ), #241, .T. ) ;
#78 = SURFACE_STYLE_USAGE ( .BOTH. , #55 ) ;
#79 = PRESENTATION_LAYER_ASSIGNMENT (  '', '', ( #48 ) ) ;
#80 = AXIS2_PLACEMENT_3D ( 'NONE', #47, #143, #92 ) ;
#81 = CARTESIAN_POINT ( 'NONE',  ( 0.000000000000000000, 1.625000000000000000, -0.3750000000000000555 ) ) ;
#82 = ORIENTED_EDGE ( 'NONE', *, *, #13, .F. ) ;
#83 = CYLINDRICAL_SURFACE ( 'NONE', #196, 0.3749999999999998890 ) ;
#84 = MECHANICAL_DESIGN_GEOMETRIC_PRESENTATION_REPRESENTATION (  '', ( #69 ), #139 ) ;
#85 = AXIS2_PLACEMENT_3D ( 'NONE', #114, #179, #210 ) ;
#86 = VERTEX_POINT ( 'NONE', #70 ) ;
#87 = FILL_AREA_STYLE_COLOUR ( '', #255 ) ;
#88 = DIRECTION ( 'NONE',  ( 0.000000000000000000, 0.000000000000000000, -1.000000000000000000 ) ) ;
#89 = CIRCLE ( 'NONE', #31, 0.3750000000000000555 ) ;
#90 = UNCERTAINTY_MEASURE_WITH_UNIT (LENGTH_MEASURE( 1.000000000000000082E-05 ), #63, 'distance_accuracy_value', 'NONE');
#91 = DIRECTION ( 'NONE',  ( -1.000000000000000000, 0.000000000000000000, 0.000000000000000000 ) ) ;
#92 = DIRECTION ( 'NONE',  ( 0.000000000000000000, 0.000000000000000000, -1.000000000000000000 ) ) ;
#93 = EDGE_CURVE ( 'NONE', #174, #283, #151, .T. ) ;
#94 = CARTESIAN_POINT ( 'NONE',  ( 4.592425496802575451E-17, 0.000000000000000000, 0.3750000000000000555 ) ) ;
#95 = MANIFOLD_SOLID_BREP ( 'Revolve - Cutting Edge', #15 ) ;
#96 = DIRECTION ( 'NONE',  ( -1.000000000000000000, 0.000000000000000000, 0.000000000000000000 ) ) ;
#97 = ORIENTED_EDGE ( 'NONE', *, *, #149, .F. ) ;
#98 = PLANE ( 'NONE',  #20 ) ;
#99 = SURFACE_STYLE_USAGE ( .BOTH. , #167 ) ;
#100 = CARTESIAN_POINT ( 'NONE',  ( 0.000000000000000000, 0.000000000000000000, 0.000000000000000000 ) ) ;
#101 = LINE ( 'NONE', #230, #39 ) ;
#102 = DIRECTION ( 'NONE',  ( -0.000000000000000000, -1.000000000000000000, -0.000000000000000000 ) ) ;
#103 = COLOUR_RGB ( '',0.7921568627450980005, 0.8196078431372548767, 0.9333333333333333481 ) ;
#104 = DIMENSIONAL_EXPONENTS ( 1.000000000000000000, 0.000000000000000000, 0.000000000000000000, 0.000000000000000000, 0.000000000000000000, 0.000000000000000000, 0.000000000000000000 ) ;
#105 = PRESENTATION_STYLE_ASSIGNMENT (( #216 ) ) ;
#106 = DIRECTION ( 'NONE',  ( 0.000000000000000000, 0.000000000000000000, -1.000000000000000000 ) ) ;
#107 = APPLICATION_PROTOCOL_DEFINITION ( 'draft international standard', 'automotive_design', 1998, #30 ) ;
#108 = ORIENTED_EDGE ( 'NONE', *, *, #237, .T. ) ;
#109 = PRESENTATION_STYLE_ASSIGNMENT (( #18 ) ) ;
#110 = DIRECTION ( 'NONE',  ( -0.000000000000000000, -1.000000000000000000, -0.000000000000000000 ) ) ;
#111 = SURFACE_SIDE_STYLE ('',( #305 ) ) ;
#112 = COLOUR_RGB ( '',1.000000000000000000, 0.000000000000000000, 0.000000000000000000 ) ;
#113 = STYLED_ITEM ( 'NONE', ( #109 ), #215 ) ;
#114 = CARTESIAN_POINT ( 'NONE',  ( 0.000000000000000000, 1.625000000000000000, 0.000000000000000000 ) ) ;
#115 = VERTEX_POINT ( 'NONE', #170 ) ;
#116 = DIRECTION ( 'NONE',  ( 1.031281515071456046E-16, 1.000000000000000000, -0.000000000000000000 ) ) ;
#117 = EDGE_LOOP ( 'NONE', ( #67, #97 ) ) ;
#118 = AXIS2_PLACEMENT_3D ( 'NONE', #140, #206, #181 ) ;
#119 = PRESENTATION_LAYER_ASSIGNMENT (  '', '', ( #113 ) ) ;
#120 = CARTESIAN_POINT ( 'NONE',  ( -3.032960542342103792E-32, 1.625000000000000000, 0.000000000000000000 ) ) ;
#121 = LINE ( 'NONE', #298, #207 ) ;
#122 = LENGTH_MEASURE_WITH_UNIT ( LENGTH_MEASURE( 0.02539999999999999897 ), #137 );
#123 = CIRCLE ( 'NONE', #80, 0.3750000000000000555 ) ;
#124 = DIRECTION ( 'NONE',  ( 1.031281515071456169E-16, 1.000000000000000000, -0.000000000000000000 ) ) ;
#125 = DIRECTION ( 'NONE',  ( 1.000000000000000000, -1.031281515071456169E-16, 0.000000000000000000 ) ) ;
#126 = PRODUCT_DEFINITION_SHAPE ( 'NONE', 'NONE',  #198 ) ;
#127 = AXIS2_PLACEMENT_3D ( 'NONE', #120, #268, #293 ) ;
#128 =( GEOMETRIC_REPRESENTATION_CONTEXT ( 3 ) GLOBAL_UNCERTAINTY_ASSIGNED_CONTEXT ( ( #7 ) ) GLOBAL_UNIT_ASSIGNED_CONTEXT ( ( #227, #260, #41 ) ) REPRESENTATION_CONTEXT ( 'NONE', 'WORKASPACE' ) );
#129 = FILL_AREA_STYLE_COLOUR ( '', #112 ) ;
#130 = LINE ( 'NONE', #231, #224 ) ;
#131 = PRESENTATION_STYLE_ASSIGNMENT (( #78 ) ) ;
#132 = LENGTH_MEASURE_WITH_UNIT ( LENGTH_MEASURE( 0.02539999999999999897 ), #58 );
#133 = AXIS2_PLACEMENT_3D ( 'NONE', #16, #308, #37 ) ;
#134 = CARTESIAN_POINT ( 'NONE',  ( 0.000000000000000000, 0.000000000000000000, 0.000000000000000000 ) ) ;
#135 =( LENGTH_UNIT ( ) NAMED_UNIT ( * ) SI_UNIT ( $, .METRE. ) );
#136 =( NAMED_UNIT ( * ) PLANE_ANGLE_UNIT ( ) SI_UNIT ( $, .RADIAN. ) );
#137 =( LENGTH_UNIT ( ) NAMED_UNIT ( * ) SI_UNIT ( $, .METRE. ) );
#138 = DIRECTION ( 'NONE',  ( 1.031281515071456046E-16, 1.000000000000000000, -0.000000000000000000 ) ) ;
#139 =( GEOMETRIC_REPRESENTATION_CONTEXT ( 3 ) GLOBAL_UNCERTAINTY_ASSIGNED_CONTEXT ( ( #27 ) ) GLOBAL_UNIT_ASSIGNED_CONTEXT ( ( #24, #5, #251 ) ) REPRESENTATION_CONTEXT ( 'NONE', 'WORKASPACE' ) );
#140 = CARTESIAN_POINT ( 'NONE',  ( 2.449293598294707400E-16, 4.000000000000000000, 0.000000000000000000 ) ) ;
#141 = CARTESIAN_POINT ( 'NONE',  ( -0.3750000000000000555, 1.625000000000000000, 0.000000000000000000 ) ) ;
#142 = ORIENTED_EDGE ( 'NONE', *, *, #295, .T. ) ;
#143 = DIRECTION ( 'NONE',  ( -0.000000000000000000, -1.000000000000000000, -0.000000000000000000 ) ) ;
#144 = PRESENTATION_STYLE_ASSIGNMENT (( #26 ) ) ;
#145 = PRODUCT_RELATED_PRODUCT_CATEGORY ( 'part', '', ( #171 ) ) ;
#146 = SURFACE_STYLE_FILL_AREA ( #246 ) ;
#147 = CARTESIAN_POINT ( 'NONE',  ( 0.000000000000000000, 0.000000000000000000, 0.000000000000000000 ) ) ;
#148 = PRESENTATION_LAYER_ASSIGNMENT (  '', '', ( #233 ) ) ;
#149 = EDGE_CURVE ( 'NONE', #283, #174, #252, .T. ) ;
#150 = FACE_OUTER_BOUND ( 'NONE', #60, .T. ) ;
#151 = CIRCLE ( 'NONE', #127, 0.3750000000000000555 ) ;
#152 = AXIS2_PLACEMENT_3D ( 'NONE', #147, #225, #73 ) ;
#153 = DIMENSIONAL_EXPONENTS ( 1.000000000000000000, 0.000000000000000000, 0.000000000000000000, 0.000000000000000000, 0.000000000000000000, 0.000000000000000000, 0.000000000000000000 ) ;
#154 =( NAMED_UNIT ( * ) SI_UNIT ( $, .STERADIAN. ) SOLID_ANGLE_UNIT ( ) );
#155 = AXIS2_PLACEMENT_3D ( 'NONE', #74, #52, #296 ) ;
#156 = ORIENTED_EDGE ( 'NONE', *, *, #93, .T. ) ;
#157 = EDGE_CURVE ( 'NONE', #283, #86, #121, .T. ) ;
#158 =( LENGTH_UNIT ( ) NAMED_UNIT ( * ) SI_UNIT ( $, .METRE. ) );
#159 =( NAMED_UNIT ( * ) PLANE_ANGLE_UNIT ( ) SI_UNIT ( $, .RADIAN. ) );
#160 = FACE_OUTER_BOUND ( 'NONE', #211, .T. ) ;
#161 = MECHANICAL_DESIGN_GEOMETRIC_PRESENTATION_REPRESENTATION (  '', ( #266 ), #200 ) ;
#162 = VECTOR ( 'NONE', #8, 39.37007874015748143 ) ;
#163 =( NAMED_UNIT ( * ) SI_UNIT ( $, .STERADIAN. ) SOLID_ANGLE_UNIT ( ) );
#164 = ORIENTED_EDGE ( 'NONE', *, *, #204, .F. ) ;
#165 =( LENGTH_UNIT ( ) NAMED_UNIT ( * ) SI_UNIT ( $, .METRE. ) );
#166 = FACE_OUTER_BOUND ( 'NONE', #265, .T. ) ;
#167 = SURFACE_SIDE_STYLE ('',( #66 ) ) ;
#168 = UNCERTAINTY_MEASURE_WITH_UNIT (LENGTH_MEASURE( 1.000000000000000082E-05 ), #186, 'distance_accuracy_value', 'NONE');
#169 = MECHANICAL_DESIGN_GEOMETRIC_PRESENTATION_REPRESENTATION (  '', ( #113 ), #269 ) ;
#170 = CARTESIAN_POINT ( 'NONE',  ( 4.592425496802575451E-17, 1.625000000000000000, 0.3750000000000000555 ) ) ;
#171 = PRODUCT ( '00662', '00662', '', ( #264 ) ) ;
#172 =( NAMED_UNIT ( * ) PLANE_ANGLE_UNIT ( ) SI_UNIT ( $, .RADIAN. ) );
#173 = FACE_OUTER_BOUND ( 'NONE', #117, .T. ) ;
#174 = VERTEX_POINT ( 'NONE', #141 ) ;
#175 = CIRCLE ( 'NONE', #152, 0.3750000000000000555 ) ;
#176 = FACE_OUTER_BOUND ( 'NONE', #273, .T. ) ;
#177 = FILL_AREA_STYLE ('',( #36 ) ) ;
#178 = AXIS2_PLACEMENT_3D ( 'NONE', #134, #61, #106 ) ;
#179 = DIRECTION ( 'NONE',  ( 0.000000000000000000, 1.000000000000000000, 0.000000000000000000 ) ) ;
#180 = ORIENTED_EDGE ( 'NONE', *, *, #13, .T. ) ;
#181 = DIRECTION ( 'NONE',  ( -1.000000000000000000, 0.000000000000000000, 0.000000000000000000 ) ) ;
#182 = EDGE_LOOP ( 'NONE', ( #49, #65 ) ) ;
#183 = EDGE_CURVE ( 'NONE', #86, #22, #202, .T. ) ;
#184 = AXIS2_PLACEMENT_3D ( 'NONE', #301, #56, #125 ) ;
#185 =( NAMED_UNIT ( * ) PLANE_ANGLE_UNIT ( ) SI_UNIT ( $, .RADIAN. ) );
#186 =( CONVERSION_BASED_UNIT ( 'INCH', #46 ) LENGTH_UNIT ( ) NAMED_UNIT ( #153 ) );
#187 = ORIENTED_EDGE ( 'NONE', *, *, #149, .T. ) ;
#188 = SURFACE_SIDE_STYLE ('',( #146 ) ) ;
#189 = PRODUCT_DEFINITION_CONTEXT ( 'detailed design', #30, 'design' ) ;
#190 = MECHANICAL_DESIGN_GEOMETRIC_PRESENTATION_REPRESENTATION (  '', ( #247 ), #10 ) ;
#191 = AXIS2_PLACEMENT_3D ( 'NONE', #209, #138, #284 ) ;
#192 = DIRECTION ( 'NONE',  ( -0.000000000000000000, -1.000000000000000000, -0.000000000000000000 ) ) ;
#193 = ORIENTED_EDGE ( 'NONE', *, *, #34, .T. ) ;
#194 = DIRECTION ( 'NONE',  ( -0.000000000000000000, -1.000000000000000000, -0.000000000000000000 ) ) ;
#195 = PRESENTATION_LAYER_ASSIGNMENT (  '', '', ( #247 ) ) ;
#196 = AXIS2_PLACEMENT_3D ( 'NONE', #28, #6, #91 ) ;
#197 = SURFACE_STYLE_USAGE ( .BOTH. , #303 ) ;
#198 = PRODUCT_DEFINITION ( 'UNKNOWN', '', #4, #189 ) ;
#199 = DIMENSIONAL_EXPONENTS ( 1.000000000000000000, 0.000000000000000000, 0.000000000000000000, 0.000000000000000000, 0.000000000000000000, 0.000000000000000000, 0.000000000000000000 ) ;
#200 =( GEOMETRIC_REPRESENTATION_CONTEXT ( 3 ) GLOBAL_UNCERTAINTY_ASSIGNED_CONTEXT ( ( #168 ) ) GLOBAL_UNIT_ASSIGNED_CONTEXT ( ( #186, #172, #226 ) ) REPRESENTATION_CONTEXT ( 'NONE', 'WORKASPACE' ) );
#201 = LENGTH_MEASURE_WITH_UNIT ( LENGTH_MEASURE( 0.02539999999999999897 ), #135 );
#202 = CIRCLE ( 'NONE', #219, 0.3749999999999997780 ) ;
#203 = SURFACE_STYLE_FILL_AREA ( #12 ) ;
#204 = EDGE_CURVE ( 'NONE', #115, #45, #123, .T. ) ;
#205 = CARTESIAN_POINT ( 'NONE',  ( 0.000000000000000000, 0.000000000000000000, 0.000000000000000000 ) ) ;
#206 = DIRECTION ( 'NONE',  ( 1.031281515071456046E-16, 1.000000000000000000, -0.000000000000000000 ) ) ;
#207 = VECTOR ( 'NONE', #44, 39.37007874015748143 ) ;
#208 = ORIENTED_EDGE ( 'NONE', *, *, #295, .F. ) ;
#209 = CARTESIAN_POINT ( 'NONE',  ( 2.449293598294707400E-16, 4.000000000000000000, 0.000000000000000000 ) ) ;
#210 = DIRECTION ( 'NONE',  ( 0.000000000000000000, -0.000000000000000000, 1.000000000000000000 ) ) ;
#211 = EDGE_LOOP ( 'NONE', ( #250, #187, #180, #263 ) ) ;
#212 = ADVANCED_BREP_SHAPE_REPRESENTATION ( '00662', ( #95, #215, #133 ), #281 ) ;
#213 = ADVANCED_FACE ( 'NONE', ( #221 ), #217, .T. ) ;
#214 = SURFACE_SIDE_STYLE ('',( #1 ) ) ;
#215 = MANIFOLD_SOLID_BREP ( 'Revolve - Tool Body (Straight Shanked)', #232 ) ;
#216 = SURFACE_STYLE_USAGE ( .BOTH. , #111 ) ;
#217 = CYLINDRICAL_SURFACE ( 'NONE', #178, 0.3750000000000000555 ) ;
#218 = MECHANICAL_DESIGN_GEOMETRIC_PRESENTATION_REPRESENTATION (  '', ( #48 ), #261 ) ;
#219 = AXIS2_PLACEMENT_3D ( 'NONE', #243, #116, #50 ) ;
#220 = UNCERTAINTY_MEASURE_WITH_UNIT (LENGTH_MEASURE( 1.000000000000000082E-05 ), #234, 'distance_accuracy_value', 'NONE');
#221 = FACE_OUTER_BOUND ( 'NONE', #291, .T. ) ;
#222 = DIRECTION ( 'NONE',  ( 1.031281515071456046E-16, 1.000000000000000000, -0.000000000000000000 ) ) ;
#223 = ADVANCED_FACE ( 'NONE', ( #166 ), #83, .T. ) ;
#224 = VECTOR ( 'NONE', #124, 39.37007874015748143 ) ;
#225 = DIRECTION ( 'NONE',  ( -0.000000000000000000, -1.000000000000000000, -0.000000000000000000 ) ) ;
#226 =( NAMED_UNIT ( * ) SI_UNIT ( $, .STERADIAN. ) SOLID_ANGLE_UNIT ( ) );
#227 =( CONVERSION_BASED_UNIT ( 'INCH', #277 ) LENGTH_UNIT ( ) NAMED_UNIT ( #199 ) );
#228 = PRESENTATION_LAYER_ASSIGNMENT (  '', '', ( #69 ) ) ;
#229 = COLOUR_RGB ( '',1.000000000000000000, 0.000000000000000000, 0.000000000000000000 ) ;
#230 = CARTESIAN_POINT ( 'NONE',  ( 0.000000000000000000, 0.000000000000000000, -0.3750000000000000555 ) ) ;
#231 = CARTESIAN_POINT ( 'NONE',  ( -0.3749999999999996114, 4.000000000000000000, 0.000000000000000000 ) ) ;
#232 = CLOSED_SHELL ( 'NONE', ( #223, #270, #287, #21 ) ) ;
#233 = STYLED_ITEM ( 'NONE', ( #144 ), #213 ) ;
#234 =( CONVERSION_BASED_UNIT ( 'INCH', #132 ) LENGTH_UNIT ( ) NAMED_UNIT ( #257 ) );
#235 = DIMENSIONAL_EXPONENTS ( 1.000000000000000000, 0.000000000000000000, 0.000000000000000000, 0.000000000000000000, 0.000000000000000000, 0.000000000000000000, 0.000000000000000000 ) ;
#236 = FILL_AREA_STYLE ('',( #87 ) ) ;
#237 = EDGE_CURVE ( 'NONE', #115, #40, #68, .T. ) ;
#238 = FILL_AREA_STYLE_COLOUR ( '', #19 ) ;
#239 = AXIS2_PLACEMENT_3D ( 'NONE', #205, #110, #88 ) ;
#240 = ORIENTED_EDGE ( 'NONE', *, *, #267, .F. ) ;
#241 = PLANE ( 'NONE',  #155 ) ;
#242 = APPLICATION_CONTEXT ( 'automotive_design' ) ;
#243 = CARTESIAN_POINT ( 'NONE',  ( 2.449293598294707400E-16, 4.000000000000000000, 0.000000000000000000 ) ) ;
#244 = ORIENTED_EDGE ( 'NONE', *, *, #204, .T. ) ;
#245 = EDGE_CURVE ( 'NONE', #45, #115, #89, .T. ) ;
#246 = FILL_AREA_STYLE ('',( #3 ) ) ;
#247 = STYLED_ITEM ( 'NONE', ( #131 ), #11 ) ;
#248 = UNCERTAINTY_MEASURE_WITH_UNIT (LENGTH_MEASURE( 1.000000000000000082E-05 ), #304, 'distance_accuracy_value', 'NONE');
#249 = FILL_AREA_STYLE ('',( #72 ) ) ;
#250 = ORIENTED_EDGE ( 'NONE', *, *, #157, .F. ) ;
#251 =( NAMED_UNIT ( * ) SI_UNIT ( $, .STERADIAN. ) SOLID_ANGLE_UNIT ( ) );
#252 = CIRCLE ( 'NONE', #54, 0.3750000000000000555 ) ;
#253 = DIRECTION ( 'NONE',  ( -1.000000000000000000, 1.031281515071456169E-16, 0.000000000000000000 ) ) ;
#254 = PLANE ( 'NONE',  #85 ) ;
#255 = COLOUR_RGB ( '',0.7921568627450980005, 0.8196078431372548767, 0.9333333333333333481 ) ;
#256 =( LENGTH_UNIT ( ) NAMED_UNIT ( * ) SI_UNIT ( $, .METRE. ) );
#257 = DIMENSIONAL_EXPONENTS ( 1.000000000000000000, 0.000000000000000000, 0.000000000000000000, 0.000000000000000000, 0.000000000000000000, 0.000000000000000000, 0.000000000000000000 ) ;
#258 = SURFACE_STYLE_FILL_AREA ( #177 ) ;
#259 =( LENGTH_UNIT ( ) NAMED_UNIT ( * ) SI_UNIT ( $, .METRE. ) );
#260 =( NAMED_UNIT ( * ) PLANE_ANGLE_UNIT ( ) SI_UNIT ( $, .RADIAN. ) );
#261 =( GEOMETRIC_REPRESENTATION_CONTEXT ( 3 ) GLOBAL_UNCERTAINTY_ASSIGNED_CONTEXT ( ( #220 ) ) GLOBAL_UNIT_ASSIGNED_CONTEXT ( ( #234, #159, #163 ) ) REPRESENTATION_CONTEXT ( 'NONE', 'WORKASPACE' ) );
#262 = CARTESIAN_POINT ( 'NONE',  ( 0.3750000000000000555, 1.625000000000000000, 4.592425496802573602E-17 ) ) ;
#263 = ORIENTED_EDGE ( 'NONE', *, *, #183, .F. ) ;
#264 = PRODUCT_CONTEXT ( 'NONE', #242, 'mechanical' ) ;
#265 = EDGE_LOOP ( 'NONE', ( #156, #51, #25, #82 ) ) ;
#266 = STYLED_ITEM ( 'NONE', ( #29 ), #95 ) ;
#267 = EDGE_CURVE ( 'NONE', #40, #309, #175, .T. ) ;
#268 = DIRECTION ( 'NONE',  ( 1.031281515071456046E-16, 1.000000000000000000, -0.000000000000000000 ) ) ;
#269 =( GEOMETRIC_REPRESENTATION_CONTEXT ( 3 ) GLOBAL_UNCERTAINTY_ASSIGNED_CONTEXT ( ( #90 ) ) GLOBAL_UNIT_ASSIGNED_CONTEXT ( ( #63, #185, #292 ) ) REPRESENTATION_CONTEXT ( 'NONE', 'WORKASPACE' ) );
#270 = ADVANCED_FACE ( 'NONE', ( #173 ), #98, .F. ) ;
#271 = CARTESIAN_POINT ( 'NONE',  ( -3.032960542342103792E-32, 1.625000000000000000, 0.000000000000000000 ) ) ;
#272 = DIRECTION ( 'NONE',  ( 1.031281515071456169E-16, 1.000000000000000000, -0.000000000000000000 ) ) ;
#273 = EDGE_LOOP ( 'NONE', ( #59, #108, #208, #289 ) ) ;
#274 = MECHANICAL_DESIGN_GEOMETRIC_PRESENTATION_REPRESENTATION (  '', ( #233 ), #128 ) ;
#275 = ORIENTED_EDGE ( 'NONE', *, *, #245, .F. ) ;
#276 = CYLINDRICAL_SURFACE ( 'NONE', #280, 0.3750000000000000555 ) ;
#277 = LENGTH_MEASURE_WITH_UNIT ( LENGTH_MEASURE( 0.02539999999999999897 ), #256 );
#278 =( NAMED_UNIT ( * ) PLANE_ANGLE_UNIT ( ) SI_UNIT ( $, .RADIAN. ) );
#279 = DIMENSIONAL_EXPONENTS ( 1.000000000000000000, 0.000000000000000000, 0.000000000000000000, 0.000000000000000000, 0.000000000000000000, 0.000000000000000000, 0.000000000000000000 ) ;
#280 = AXIS2_PLACEMENT_3D ( 'NONE', #100, #194, #75 ) ;
#281 =( GEOMETRIC_REPRESENTATION_CONTEXT ( 3 ) GLOBAL_UNCERTAINTY_ASSIGNED_CONTEXT ( ( #248 ) ) GLOBAL_UNIT_ASSIGNED_CONTEXT ( ( #304, #136, #154 ) ) REPRESENTATION_CONTEXT ( 'NONE', 'WORKASPACE' ) );
#282 = CARTESIAN_POINT ( 'NONE',  ( 0.000000000000000000, 0.000000000000000000, -0.3750000000000000555 ) ) ;
#283 = VERTEX_POINT ( 'NONE', #262 ) ;
#284 = DIRECTION ( 'NONE',  ( -1.000000000000000000, 0.000000000000000000, 0.000000000000000000 ) ) ;
#285 = FACE_OUTER_BOUND ( 'NONE', #307, .T. ) ;
#286 = DIMENSIONAL_EXPONENTS ( 1.000000000000000000, 0.000000000000000000, 0.000000000000000000, 0.000000000000000000, 0.000000000000000000, 0.000000000000000000, 0.000000000000000000 ) ;
#287 = ADVANCED_FACE ( 'NONE', ( #160 ), #23, .T. ) ;
#288 = SHAPE_DEFINITION_REPRESENTATION ( #126, #212 ) ;
#289 = ORIENTED_EDGE ( 'NONE', *, *, #34, .F. ) ;
#290 = LENGTH_MEASURE_WITH_UNIT ( LENGTH_MEASURE( 0.02539999999999999897 ), #158 );
#291 = EDGE_LOOP ( 'NONE', ( #62, #244, #193, #240 ) ) ;
#292 =( NAMED_UNIT ( * ) SI_UNIT ( $, .STERADIAN. ) SOLID_ANGLE_UNIT ( ) );
#293 = DIRECTION ( 'NONE',  ( -1.000000000000000000, 0.000000000000000000, 0.000000000000000000 ) ) ;
#294 = UNCERTAINTY_MEASURE_WITH_UNIT (LENGTH_MEASURE( 1.000000000000000082E-05 ), #299, 'distance_accuracy_value', 'NONE');
#295 = EDGE_CURVE ( 'NONE', #309, #40, #57, .T. ) ;
#296 = DIRECTION ( 'NONE',  ( 0.000000000000000000, 0.000000000000000000, -1.000000000000000000 ) ) ;
#297 = CARTESIAN_POINT ( 'NONE',  ( 1.994140431240145858E-33, 1.625000000000000000, 0.000000000000000000 ) ) ;
#298 = CARTESIAN_POINT ( 'NONE',  ( 0.3750000000000001665, 4.000000000000000000, 4.592425496802572986E-17 ) ) ;
#299 =( CONVERSION_BASED_UNIT ( 'INCH', #76 ) LENGTH_UNIT ( ) NAMED_UNIT ( #104 ) );
#300 = PRESENTATION_LAYER_ASSIGNMENT (  '', '', ( #266 ) ) ;
#301 = CARTESIAN_POINT ( 'NONE',  ( 0.3750000000000000555, 4.000000000000000000, 0.000000000000000000 ) ) ;
#302 = PRESENTATION_STYLE_ASSIGNMENT (( #197 ) ) ;
#303 = SURFACE_SIDE_STYLE ('',( #203 ) ) ;
#304 =( CONVERSION_BASED_UNIT ( 'INCH', #201 ) LENGTH_UNIT ( ) NAMED_UNIT ( #235 ) );
#305 = SURFACE_STYLE_FILL_AREA ( #2 ) ;
#306 = ORIENTED_EDGE ( 'NONE', *, *, #267, .T. ) ;
#307 = EDGE_LOOP ( 'NONE', ( #142, #306 ) ) ;
#308 = DIRECTION ( 'NONE',  ( 0.000000000000000000, 0.000000000000000000, 1.000000000000000000 ) ) ;
#309 = VERTEX_POINT ( 'NONE', #282 ) ;
ENDSEC;
END-ISO-10303-21;
