ISO-10303-21;
HEADER;
FILE_DESCRIPTION (( 'STEP AP214' ),
    '1' );
FILE_NAME ('30677.STEP',
    '2023-06-22T18:58:30',
    ( '' ),
    ( '' ),
    'SwSTEP 2.0',
    'SolidWorks 2023',
    '' );
FILE_SCHEMA (( 'AUTOMOTIVE_DESIGN' ));
ENDSEC;

DATA;
#1 = CARTESIAN_POINT ( 'NONE',  ( 0.000000000000000000, 0.000000000000000000, 0.000000000000000000 ) ) ;
#2 = VECTOR ( 'NONE', #24, 39.37007874015748143 ) ;
#3 = SURFACE_STYLE_USAGE ( .BOTH. , #260 ) ;
#4 = CARTESIAN_POINT ( 'NONE',  ( -1.224646799147353207E-16, 5.000000000000000000, 0.000000000000000000 ) ) ;
#5 = PRODUCT_DEFINITION_SHAPE ( 'NONE', 'NONE',  #107 ) ;
#6 = SURFACE_SIDE_STYLE ('',( #152 ) ) ;
#7 = CLOSED_SHELL ( 'NONE', ( #248, #48, #86, #32 ) ) ;
#8 = PLANE ( 'NONE',  #233 ) ;
#9 = EDGE_CURVE ( 'NONE', #199, #34, #188, .T. ) ;
#10 = ORIENTED_EDGE ( 'NONE', *, *, #282, .T. ) ;
#11 =( NAMED_UNIT ( * ) SI_UNIT ( $, .STERADIAN. ) SOLID_ANGLE_UNIT ( ) );
#12 = PRESENTATION_STYLE_ASSIGNMENT (( #222 ) ) ;
#13 = ORIENTED_EDGE ( 'NONE', *, *, #218, .T. ) ;
#14 = PRESENTATION_LAYER_ASSIGNMENT (  '', '', ( #300 ) ) ;
#15 = VECTOR ( 'NONE', #41, 39.37007874015748143 ) ;
#16 = CARTESIAN_POINT ( 'NONE',  ( 0.3750000000000000555, 2.250000000000000444, 4.592425496802576684E-17 ) ) ;
#17 = APPLICATION_PROTOCOL_DEFINITION ( 'draft international standard', 'automotive_design', 1998, #127 ) ;
#18 = ORIENTED_EDGE ( 'NONE', *, *, #147, .T. ) ;
#19 = DIRECTION ( 'NONE',  ( -1.000000000000000000, 0.000000000000000000, 0.000000000000000000 ) ) ;
#20 = AXIS2_PLACEMENT_3D ( 'NONE', #304, #139, #115 ) ;
#21 =( NAMED_UNIT ( * ) SI_UNIT ( $, .STERADIAN. ) SOLID_ANGLE_UNIT ( ) );
#22 = AXIS2_PLACEMENT_3D ( 'NONE', #247, #110, #181 ) ;
#23 = EDGE_CURVE ( 'NONE', #135, #60, #307, .T. ) ;
#24 = DIRECTION ( 'NONE',  ( -4.453261087808557677E-17, 1.000000000000000000, -0.000000000000000000 ) ) ;
#25 = COLOUR_RGB ( '',0.7921568627450980005, 0.8196078431372548767, 0.9333333333333333481 ) ;
#26 = PRESENTATION_LAYER_ASSIGNMENT (  '', '', ( #205 ) ) ;
#27 =( NAMED_UNIT ( * ) PLANE_ANGLE_UNIT ( ) SI_UNIT ( $, .RADIAN. ) );
#28 = DIRECTION ( 'NONE',  ( 0.000000000000000000, 1.000000000000000000, 0.000000000000000000 ) ) ;
#29 =( LENGTH_UNIT ( ) NAMED_UNIT ( * ) SI_UNIT ( $, .METRE. ) );
#30 = DIRECTION ( 'NONE',  ( -1.000000000000000000, 0.000000000000000000, 0.000000000000000000 ) ) ;
#31 = LENGTH_MEASURE_WITH_UNIT ( LENGTH_MEASURE( 0.02539999999999999897 ), #54 );
#32 = ADVANCED_FACE ( 'NONE', ( #221 ), #154, .F. ) ;
#33 = MANIFOLD_SOLID_BREP ( 'Revolve - Tool Body (Straight Shanked)', #7 ) ;
#34 = VERTEX_POINT ( 'NONE', #168 ) ;
#35 = CIRCLE ( 'NONE', #76, 0.3750000000000000555 ) ;
#36 = AXIS2_PLACEMENT_3D ( 'NONE', #134, #187, #136 ) ;
#37 = FILL_AREA_STYLE_COLOUR ( '', #75 ) ;
#38 = DIRECTION ( 'NONE',  ( 1.000000000000000000, 4.453261087808557677E-17, 0.000000000000000000 ) ) ;
#39 = SURFACE_SIDE_STYLE ('',( #47 ) ) ;
#40 = ORIENTED_EDGE ( 'NONE', *, *, #180, .T. ) ;
#41 = DIRECTION ( 'NONE',  ( -4.453261087808557677E-17, 1.000000000000000000, -0.000000000000000000 ) ) ;
#42 = ORIENTED_EDGE ( 'NONE', *, *, #223, .T. ) ;
#43 = CARTESIAN_POINT ( 'NONE',  ( -1.224646799147353207E-16, 5.000000000000000000, 0.000000000000000000 ) ) ;
#44 = DIMENSIONAL_EXPONENTS ( 1.000000000000000000, 0.000000000000000000, 0.000000000000000000, 0.000000000000000000, 0.000000000000000000, 0.000000000000000000, 0.000000000000000000 ) ;
#45 = LENGTH_MEASURE_WITH_UNIT ( LENGTH_MEASURE( 0.02539999999999999897 ), #250 );
#46 = FILL_AREA_STYLE ('',( #254 ) ) ;
#47 = SURFACE_STYLE_FILL_AREA ( #302 ) ;
#48 = ADVANCED_FACE ( 'NONE', ( #208 ), #182, .F. ) ;
#49 = DIRECTION ( 'NONE',  ( 0.000000000000000000, 0.000000000000000000, -1.000000000000000000 ) ) ;
#50 = DIMENSIONAL_EXPONENTS ( 1.000000000000000000, 0.000000000000000000, 0.000000000000000000, 0.000000000000000000, 0.000000000000000000, 0.000000000000000000, 0.000000000000000000 ) ;
#51 = CARTESIAN_POINT ( 'NONE',  ( 0.000000000000000000, 2.250000000000000000, 0.000000000000000000 ) ) ;
#52 =( LENGTH_UNIT ( ) NAMED_UNIT ( * ) SI_UNIT ( $, .METRE. ) );
#53 = PRODUCT_DEFINITION_FORMATION_WITH_SPECIFIED_SOURCE ( 'ANY', '', #125, .NOT_KNOWN. ) ;
#54 =( LENGTH_UNIT ( ) NAMED_UNIT ( * ) SI_UNIT ( $, .METRE. ) );
#55 = VERTEX_POINT ( 'NONE', #231 ) ;
#56 = CYLINDRICAL_SURFACE ( 'NONE', #279, 0.3750000000000001110 ) ;
#57 = CARTESIAN_POINT ( 'NONE',  ( -0.3750000000000002776, 5.000000000000000000, 0.000000000000000000 ) ) ;
#58 = SURFACE_STYLE_FILL_AREA ( #202 ) ;
#59 = EDGE_LOOP ( 'NONE', ( #84, #18, #80, #98 ) ) ;
#60 = VERTEX_POINT ( 'NONE', #16 ) ;
#61 = STYLED_ITEM ( 'NONE', ( #116 ), #176 ) ;
#62 =( NAMED_UNIT ( * ) PLANE_ANGLE_UNIT ( ) SI_UNIT ( $, .RADIAN. ) );
#63 = ORIENTED_EDGE ( 'NONE', *, *, #218, .F. ) ;
#64 = MECHANICAL_DESIGN_GEOMETRIC_PRESENTATION_REPRESENTATION (  '', ( #300 ), #100 ) ;
#65 = DIMENSIONAL_EXPONENTS ( 1.000000000000000000, 0.000000000000000000, 0.000000000000000000, 0.000000000000000000, 0.000000000000000000, 0.000000000000000000, 0.000000000000000000 ) ;
#66 = ADVANCED_FACE ( 'NONE', ( #249 ), #191, .T. ) ;
#67 = CARTESIAN_POINT ( 'NONE',  ( 3.718412684285598933E-34, 2.250000000000000000, 0.000000000000000000 ) ) ;
#68 = SURFACE_STYLE_FILL_AREA ( #46 ) ;
#69 = LINE ( 'NONE', #73, #146 ) ;
#70 = CARTESIAN_POINT ( 'NONE',  ( 1.516480271171051896E-32, 2.250000000000000444, 0.000000000000000000 ) ) ;
#71 = ADVANCED_BREP_SHAPE_REPRESENTATION ( '30677', ( #242, #33, #239 ), #179 ) ;
#72 = CARTESIAN_POINT ( 'NONE',  ( 0.3750000000000000555, 5.000000000000000000, 4.592425496802576684E-17 ) ) ;
#73 = CARTESIAN_POINT ( 'NONE',  ( 4.592425496802575451E-17, 0.000000000000000000, 0.3750000000000000555 ) ) ;
#74 = DIRECTION ( 'NONE',  ( 0.000000000000000000, 0.000000000000000000, -1.000000000000000000 ) ) ;
#75 = COLOUR_RGB ( '',0.7921568627450980005, 0.8196078431372548767, 0.9333333333333333481 ) ;
#76 = AXIS2_PLACEMENT_3D ( 'NONE', #287, #241, #143 ) ;
#77 = PRESENTATION_LAYER_ASSIGNMENT (  '', '', ( #183 ) ) ;
#78 = SURFACE_SIDE_STYLE ('',( #58 ) ) ;
#79 = ORIENTED_EDGE ( 'NONE', *, *, #117, .T. ) ;
#80 = ORIENTED_EDGE ( 'NONE', *, *, #117, .F. ) ;
#81 = DIRECTION ( 'NONE',  ( 0.000000000000000000, 0.000000000000000000, -1.000000000000000000 ) ) ;
#82 =( NAMED_UNIT ( * ) SI_UNIT ( $, .STERADIAN. ) SOLID_ANGLE_UNIT ( ) );
#83 = APPLICATION_PROTOCOL_DEFINITION ( 'draft international standard', 'automotive_design', 1998, #244 ) ;
#84 = ORIENTED_EDGE ( 'NONE', *, *, #23, .T. ) ;
#85 = UNCERTAINTY_MEASURE_WITH_UNIT (LENGTH_MEASURE( 1.000000000000000082E-05 ), #220, 'distance_accuracy_value', 'NONE');
#86 = ADVANCED_FACE ( 'NONE', ( #161 ), #280, .T. ) ;
#87 = STYLED_ITEM ( 'NONE', ( #190 ), #138 ) ;
#88 = DIRECTION ( 'NONE',  ( 0.000000000000000000, -1.000000000000000000, -0.000000000000000000 ) ) ;
#89 = SURFACE_STYLE_USAGE ( .BOTH. , #140 ) ;
#90 = VERTEX_POINT ( 'NONE', #158 ) ;
#91 = SURFACE_STYLE_FILL_AREA ( #121 ) ;
#92 = COLOUR_RGB ( '',1.000000000000000000, 0.000000000000000000, 0.000000000000000000 ) ;
#93 = CARTESIAN_POINT ( 'NONE',  ( 0.000000000000000000, 0.000000000000000000, -0.3750000000000000555 ) ) ;
#94 = LINE ( 'NONE', #93, #216 ) ;
#95 = LINE ( 'NONE', #122, #2 ) ;
#96 = MECHANICAL_DESIGN_GEOMETRIC_PRESENTATION_REPRESENTATION (  '', ( #290 ), #252 ) ;
#97 = DIRECTION ( 'NONE',  ( -4.453261087808557677E-17, 1.000000000000000000, -0.000000000000000000 ) ) ;
#98 = ORIENTED_EDGE ( 'NONE', *, *, #282, .F. ) ;
#99 = UNCERTAINTY_MEASURE_WITH_UNIT (LENGTH_MEASURE( 1.000000000000000082E-05 ), #245, 'distance_accuracy_value', 'NONE');
#100 =( GEOMETRIC_REPRESENTATION_CONTEXT ( 3 ) GLOBAL_UNCERTAINTY_ASSIGNED_CONTEXT ( ( #99 ) ) GLOBAL_UNIT_ASSIGNED_CONTEXT ( ( #245, #62, #212 ) ) REPRESENTATION_CONTEXT ( 'NONE', 'WORKASPACE' ) );
#101 = ORIENTED_EDGE ( 'NONE', *, *, #132, .T. ) ;
#102 = CIRCLE ( 'NONE', #22, 0.3750000000000001665 ) ;
#103 =( LENGTH_UNIT ( ) NAMED_UNIT ( * ) SI_UNIT ( $, .METRE. ) );
#104 = DIRECTION ( 'NONE',  ( 4.453261087808557677E-17, -1.000000000000000000, 0.000000000000000000 ) ) ;
#105 = ORIENTED_EDGE ( 'NONE', *, *, #288, .T. ) ;
#106 = CARTESIAN_POINT ( 'NONE',  ( 0.3750000000000000555, 5.000000000000000000, 0.000000000000000000 ) ) ;
#107 = PRODUCT_DEFINITION ( 'UNKNOWN', '', #53, #297 ) ;
#108 =( NAMED_UNIT ( * ) PLANE_ANGLE_UNIT ( ) SI_UNIT ( $, .RADIAN. ) );
#109 = AXIS2_PLACEMENT_3D ( 'NONE', #263, #289, #49 ) ;
#110 = DIRECTION ( 'NONE',  ( -4.453261087808557677E-17, 1.000000000000000000, -0.000000000000000000 ) ) ;
#111 = EDGE_LOOP ( 'NONE', ( #13, #151, #166, #264 ) ) ;
#112 =( CONVERSION_BASED_UNIT ( 'INCH', #306 ) LENGTH_UNIT ( ) NAMED_UNIT ( #44 ) );
#113 =( NAMED_UNIT ( * ) SI_UNIT ( $, .STERADIAN. ) SOLID_ANGLE_UNIT ( ) );
#114 = PRESENTATION_STYLE_ASSIGNMENT (( #185 ) ) ;
#115 = DIRECTION ( 'NONE',  ( -1.000000000000000000, 0.000000000000000000, 0.000000000000000000 ) ) ;
#116 = PRESENTATION_STYLE_ASSIGNMENT (( #3 ) ) ;
#117 = EDGE_CURVE ( 'NONE', #272, #227, #224, .T. ) ;
#118 = CIRCLE ( 'NONE', #36, 0.3750000000000000555 ) ;
#119 =( NAMED_UNIT ( * ) SI_UNIT ( $, .STERADIAN. ) SOLID_ANGLE_UNIT ( ) );
#120 = UNCERTAINTY_MEASURE_WITH_UNIT (LENGTH_MEASURE( 1.000000000000000082E-05 ), #184, 'distance_accuracy_value', 'NONE');
#121 = FILL_AREA_STYLE ('',( #145 ) ) ;
#122 = CARTESIAN_POINT ( 'NONE',  ( 0.3749999999999999445, 5.000000000000000000, 4.592425496802576068E-17 ) ) ;
#123 =( NAMED_UNIT ( * ) PLANE_ANGLE_UNIT ( ) SI_UNIT ( $, .RADIAN. ) );
#124 = AXIS2_PLACEMENT_3D ( 'NONE', #169, #261, #74 ) ;
#125 = PRODUCT ( '30677', '30677', '', ( #273 ) ) ;
#126 = FILL_AREA_STYLE ('',( #37 ) ) ;
#127 = APPLICATION_CONTEXT ( 'automotive_design' ) ;
#128 = SURFACE_STYLE_FILL_AREA ( #126 ) ;
#129 = CIRCLE ( 'NONE', #109, 0.3750000000000000555 ) ;
#130 = PRESENTATION_STYLE_ASSIGNMENT (( #178 ) ) ;
#131 = FILL_AREA_STYLE_COLOUR ( '', #25 ) ;
#132 = EDGE_CURVE ( 'NONE', #34, #199, #118, .T. ) ;
#133 = LINE ( 'NONE', #160, #15 ) ;
#134 = CARTESIAN_POINT ( 'NONE',  ( 0.000000000000000000, 0.000000000000000000, 0.000000000000000000 ) ) ;
#135 = VERTEX_POINT ( 'NONE', #277 ) ;
#136 = DIRECTION ( 'NONE',  ( 0.000000000000000000, 0.000000000000000000, -1.000000000000000000 ) ) ;
#137 = AXIS2_PLACEMENT_3D ( 'NONE', #51, #28, #217 ) ;
#138 = ADVANCED_FACE ( 'NONE', ( #165 ), #308, .T. ) ;
#139 = DIRECTION ( 'NONE',  ( -4.453261087808557677E-17, 1.000000000000000000, -0.000000000000000000 ) ) ;
#140 = SURFACE_SIDE_STYLE ('',( #68 ) ) ;
#141 = DIMENSIONAL_EXPONENTS ( 1.000000000000000000, 0.000000000000000000, 0.000000000000000000, 0.000000000000000000, 0.000000000000000000, 0.000000000000000000, 0.000000000000000000 ) ;
#142 = AXIS2_PLACEMENT_3D ( 'NONE', #43, #228, #19 ) ;
#143 = DIRECTION ( 'NONE',  ( -1.000000000000000000, 0.000000000000000000, 0.000000000000000000 ) ) ;
#144 = CARTESIAN_POINT ( 'NONE',  ( 0.000000000000000000, 0.000000000000000000, 0.000000000000000000 ) ) ;
#145 = FILL_AREA_STYLE_COLOUR ( '', #265 ) ;
#146 = VECTOR ( 'NONE', #170, 39.37007874015748143 ) ;
#147 = EDGE_CURVE ( 'NONE', #60, #227, #95, .T. ) ;
#148 = DIRECTION ( 'NONE',  ( 0.000000000000000000, 0.000000000000000000, -1.000000000000000000 ) ) ;
#149 = LENGTH_MEASURE_WITH_UNIT ( LENGTH_MEASURE( 0.02539999999999999897 ), #285 );
#150 = COLOUR_RGB ( '',1.000000000000000000, 0.000000000000000000, 0.000000000000000000 ) ;
#151 = ORIENTED_EDGE ( 'NONE', *, *, #230, .T. ) ;
#152 = SURFACE_STYLE_FILL_AREA ( #294 ) ;
#153 = ORIENTED_EDGE ( 'NONE', *, *, #132, .F. ) ;
#154 = PLANE ( 'NONE',  #162 ) ;
#155 = PRESENTATION_LAYER_ASSIGNMENT (  '', '', ( #290 ) ) ;
#156 = EDGE_LOOP ( 'NONE', ( #79, #105 ) ) ;
#157 = CARTESIAN_POINT ( 'NONE',  ( 0.000000000000000000, 0.000000000000000000, 0.000000000000000000 ) ) ;
#158 = CARTESIAN_POINT ( 'NONE',  ( 4.592425496802575451E-17, 2.250000000000000000, 0.3750000000000000555 ) ) ;
#159 = DIRECTION ( 'NONE',  ( -0.000000000000000000, -1.000000000000000000, -0.000000000000000000 ) ) ;
#160 = CARTESIAN_POINT ( 'NONE',  ( -0.3750000000000002220, 5.000000000000000000, 0.000000000000000000 ) ) ;
#161 = FACE_OUTER_BOUND ( 'NONE', #200, .T. ) ;
#162 = AXIS2_PLACEMENT_3D ( 'NONE', #106, #104, #38 ) ;
#163 = COLOUR_RGB ( '',1.000000000000000000, 0.000000000000000000, 0.000000000000000000 ) ;
#164 = LENGTH_MEASURE_WITH_UNIT ( LENGTH_MEASURE( 0.02539999999999999897 ), #103 );
#165 = FACE_OUTER_BOUND ( 'NONE', #299, .T. ) ;
#166 = ORIENTED_EDGE ( 'NONE', *, *, #9, .F. ) ;
#167 = DIMENSIONAL_EXPONENTS ( 1.000000000000000000, 0.000000000000000000, 0.000000000000000000, 0.000000000000000000, 0.000000000000000000, 0.000000000000000000, 0.000000000000000000 ) ;
#168 = CARTESIAN_POINT ( 'NONE',  ( 4.592425496802575451E-17, 0.000000000000000000, 0.3750000000000000555 ) ) ;
#169 = CARTESIAN_POINT ( 'NONE',  ( 0.000000000000000000, 2.250000000000000000, 0.000000000000000000 ) ) ;
#170 = DIRECTION ( 'NONE',  ( -0.000000000000000000, -1.000000000000000000, -0.000000000000000000 ) ) ;
#171 = LENGTH_MEASURE_WITH_UNIT ( LENGTH_MEASURE( 0.02539999999999999897 ), #52 );
#172 =( GEOMETRIC_REPRESENTATION_CONTEXT ( 3 ) GLOBAL_UNCERTAINTY_ASSIGNED_CONTEXT ( ( #210 ) ) GLOBAL_UNIT_ASSIGNED_CONTEXT ( ( #309, #27, #119 ) ) REPRESENTATION_CONTEXT ( 'NONE', 'WORKASPACE' ) );
#173 = AXIS2_PLACEMENT_3D ( 'NONE', #274, #234, #204 ) ;
#174 =( NAMED_UNIT ( * ) SI_UNIT ( $, .STERADIAN. ) SOLID_ANGLE_UNIT ( ) );
#175 = FILL_AREA_STYLE_COLOUR ( '', #163 ) ;
#176 = ADVANCED_FACE ( 'NONE', ( #192 ), #256, .T. ) ;
#177 = EDGE_LOOP ( 'NONE', ( #298, #303, #40, #153 ) ) ;
#178 = SURFACE_STYLE_USAGE ( .BOTH. , #267 ) ;
#179 =( GEOMETRIC_REPRESENTATION_CONTEXT ( 3 ) GLOBAL_UNCERTAINTY_ASSIGNED_CONTEXT ( ( #271 ) ) GLOBAL_UNIT_ASSIGNED_CONTEXT ( ( #189, #209, #82 ) ) REPRESENTATION_CONTEXT ( 'NONE', 'WORKASPACE' ) );
#180 = EDGE_CURVE ( 'NONE', #55, #199, #94, .T. ) ;
#181 = DIRECTION ( 'NONE',  ( -1.000000000000000000, 0.000000000000000000, 0.000000000000000000 ) ) ;
#182 = PLANE ( 'NONE',  #283 ) ;
#183 = STYLED_ITEM ( 'NONE', ( #266 ), #275 ) ;
#184 =( CONVERSION_BASED_UNIT ( 'INCH', #164 ) LENGTH_UNIT ( ) NAMED_UNIT ( #65 ) );
#185 = SURFACE_STYLE_USAGE ( .BOTH. , #39 ) ;
#186 = SHAPE_DEFINITION_REPRESENTATION ( #5, #71 ) ;
#187 = DIRECTION ( 'NONE',  ( -0.000000000000000000, -1.000000000000000000, -0.000000000000000000 ) ) ;
#188 = CIRCLE ( 'NONE', #232, 0.3750000000000000555 ) ;
#189 =( CONVERSION_BASED_UNIT ( 'INCH', #45 ) LENGTH_UNIT ( ) NAMED_UNIT ( #206 ) );
#190 = PRESENTATION_STYLE_ASSIGNMENT (( #89 ) ) ;
#191 = CYLINDRICAL_SURFACE ( 'NONE', #173, 0.3750000000000000555 ) ;
#192 = FACE_OUTER_BOUND ( 'NONE', #177, .T. ) ;
#193 = DIRECTION ( 'NONE',  ( -0.000000000000000000, -1.000000000000000000, -0.000000000000000000 ) ) ;
#194 = CARTESIAN_POINT ( 'NONE',  ( 0.000000000000000000, 0.000000000000000000, -0.3750000000000000555 ) ) ;
#195 = AXIS2_PLACEMENT_3D ( 'NONE', #70, #197, #296 ) ;
#196 = SURFACE_STYLE_USAGE ( .BOTH. , #6 ) ;
#197 = DIRECTION ( 'NONE',  ( -4.453261087808557677E-17, 1.000000000000000000, -0.000000000000000000 ) ) ;
#198 =( GEOMETRIC_REPRESENTATION_CONTEXT ( 3 ) GLOBAL_UNCERTAINTY_ASSIGNED_CONTEXT ( ( #120 ) ) GLOBAL_UNIT_ASSIGNED_CONTEXT ( ( #184, #305, #113 ) ) REPRESENTATION_CONTEXT ( 'NONE', 'WORKASPACE' ) );
#199 = VERTEX_POINT ( 'NONE', #194 ) ;
#200 = EDGE_LOOP ( 'NONE', ( #225, #42, #10, #229 ) ) ;
#201 = FACE_OUTER_BOUND ( 'NONE', #215, .T. ) ;
#202 = FILL_AREA_STYLE ('',( #131 ) ) ;
#203 = ORIENTED_EDGE ( 'NONE', *, *, #23, .F. ) ;
#204 = DIRECTION ( 'NONE',  ( 0.000000000000000000, 0.000000000000000000, -1.000000000000000000 ) ) ;
#205 = STYLED_ITEM ( 'NONE', ( #130 ), #242 ) ;
#206 = DIMENSIONAL_EXPONENTS ( 1.000000000000000000, 0.000000000000000000, 0.000000000000000000, 0.000000000000000000, 0.000000000000000000, 0.000000000000000000, 0.000000000000000000 ) ;
#207 = DIRECTION ( 'NONE',  ( 0.000000000000000000, 0.000000000000000000, 1.000000000000000000 ) ) ;
#208 = FACE_OUTER_BOUND ( 'NONE', #253, .T. ) ;
#209 =( NAMED_UNIT ( * ) PLANE_ANGLE_UNIT ( ) SI_UNIT ( $, .RADIAN. ) );
#210 = UNCERTAINTY_MEASURE_WITH_UNIT (LENGTH_MEASURE( 1.000000000000000082E-05 ), #309, 'distance_accuracy_value', 'NONE');
#211 = ORIENTED_EDGE ( 'NONE', *, *, #236, .F. ) ;
#212 =( NAMED_UNIT ( * ) SI_UNIT ( $, .STERADIAN. ) SOLID_ANGLE_UNIT ( ) );
#213 = CIRCLE ( 'NONE', #124, 0.3750000000000000555 ) ;
#214 = DIRECTION ( 'NONE',  ( -1.000000000000000000, -4.453261087808557677E-17, 0.000000000000000000 ) ) ;
#215 = EDGE_LOOP ( 'NONE', ( #257, #101 ) ) ;
#216 = VECTOR ( 'NONE', #193, 39.37007874015748143 ) ;
#217 = DIRECTION ( 'NONE',  ( 0.000000000000000000, -0.000000000000000000, 1.000000000000000000 ) ) ;
#218 = EDGE_CURVE ( 'NONE', #55, #90, #129, .T. ) ;
#219 =( GEOMETRIC_REPRESENTATION_CONTEXT ( 3 ) GLOBAL_UNCERTAINTY_ASSIGNED_CONTEXT ( ( #240 ) ) GLOBAL_UNIT_ASSIGNED_CONTEXT ( ( #292, #281, #174 ) ) REPRESENTATION_CONTEXT ( 'NONE', 'WORKASPACE' ) );
#220 =( CONVERSION_BASED_UNIT ( 'INCH', #226 ) LENGTH_UNIT ( ) NAMED_UNIT ( #50 ) );
#221 = FACE_OUTER_BOUND ( 'NONE', #156, .T. ) ;
#222 = SURFACE_STYLE_USAGE ( .BOTH. , #78 ) ;
#223 = EDGE_CURVE ( 'NONE', #60, #135, #35, .T. ) ;
#224 = CIRCLE ( 'NONE', #20, 0.3750000000000001665 ) ;
#225 = ORIENTED_EDGE ( 'NONE', *, *, #147, .F. ) ;
#226 = LENGTH_MEASURE_WITH_UNIT ( LENGTH_MEASURE( 0.02539999999999999897 ), #29 );
#227 = VERTEX_POINT ( 'NONE', #72 ) ;
#228 = DIRECTION ( 'NONE',  ( -4.453261087808557677E-17, 1.000000000000000000, -0.000000000000000000 ) ) ;
#229 = ORIENTED_EDGE ( 'NONE', *, *, #288, .F. ) ;
#230 = EDGE_CURVE ( 'NONE', #90, #34, #69, .T. ) ;
#231 = CARTESIAN_POINT ( 'NONE',  ( 0.000000000000000000, 2.250000000000000000, -0.3750000000000000555 ) ) ;
#232 = AXIS2_PLACEMENT_3D ( 'NONE', #144, #159, #243 ) ;
#233 = AXIS2_PLACEMENT_3D ( 'NONE', #157, #88, #81 ) ;
#234 = DIRECTION ( 'NONE',  ( -0.000000000000000000, -1.000000000000000000, -0.000000000000000000 ) ) ;
#235 = FILL_AREA_STYLE_COLOUR ( '', #150 ) ;
#236 = EDGE_CURVE ( 'NONE', #90, #55, #213, .T. ) ;
#237 = DIRECTION ( 'NONE',  ( -0.000000000000000000, -1.000000000000000000, -0.000000000000000000 ) ) ;
#238 = MECHANICAL_DESIGN_GEOMETRIC_PRESENTATION_REPRESENTATION (  '', ( #61 ), #219 ) ;
#239 = AXIS2_PLACEMENT_3D ( 'NONE', #276, #207, #301 ) ;
#240 = UNCERTAINTY_MEASURE_WITH_UNIT (LENGTH_MEASURE( 1.000000000000000082E-05 ), #292, 'distance_accuracy_value', 'NONE');
#241 = DIRECTION ( 'NONE',  ( -4.453261087808557677E-17, 1.000000000000000000, -0.000000000000000000 ) ) ;
#242 = MANIFOLD_SOLID_BREP ( 'Revolve - Cutting Edge', #246 ) ;
#243 = DIRECTION ( 'NONE',  ( 0.000000000000000000, 0.000000000000000000, -1.000000000000000000 ) ) ;
#244 = APPLICATION_CONTEXT ( 'automotive_design' ) ;
#245 =( CONVERSION_BASED_UNIT ( 'INCH', #31 ) LENGTH_UNIT ( ) NAMED_UNIT ( #255 ) );
#246 = CLOSED_SHELL ( 'NONE', ( #66, #138, #176, #275 ) ) ;
#247 = CARTESIAN_POINT ( 'NONE',  ( -1.224646799147353207E-16, 5.000000000000000000, 0.000000000000000000 ) ) ;
#248 = ADVANCED_FACE ( 'NONE', ( #293 ), #56, .T. ) ;
#249 = FACE_OUTER_BOUND ( 'NONE', #111, .T. ) ;
#250 =( LENGTH_UNIT ( ) NAMED_UNIT ( * ) SI_UNIT ( $, .METRE. ) );
#251 = DIRECTION ( 'NONE',  ( -4.453261087808557677E-17, 1.000000000000000000, 0.000000000000000000 ) ) ;
#252 =( GEOMETRIC_REPRESENTATION_CONTEXT ( 3 ) GLOBAL_UNCERTAINTY_ASSIGNED_CONTEXT ( ( #262 ) ) GLOBAL_UNIT_ASSIGNED_CONTEXT ( ( #112, #108, #21 ) ) REPRESENTATION_CONTEXT ( 'NONE', 'WORKASPACE' ) );
#253 = EDGE_LOOP ( 'NONE', ( #203, #268 ) ) ;
#254 = FILL_AREA_STYLE_COLOUR ( '', #92 ) ;
#255 = DIMENSIONAL_EXPONENTS ( 1.000000000000000000, 0.000000000000000000, 0.000000000000000000, 0.000000000000000000, 0.000000000000000000, 0.000000000000000000, 0.000000000000000000 ) ;
#256 = CYLINDRICAL_SURFACE ( 'NONE', #258, 0.3750000000000000555 ) ;
#257 = ORIENTED_EDGE ( 'NONE', *, *, #9, .T. ) ;
#258 = AXIS2_PLACEMENT_3D ( 'NONE', #1, #237, #148 ) ;
#259 = MECHANICAL_DESIGN_GEOMETRIC_PRESENTATION_REPRESENTATION (  '', ( #205 ), #284 ) ;
#260 = SURFACE_SIDE_STYLE ('',( #91 ) ) ;
#261 = DIRECTION ( 'NONE',  ( -0.000000000000000000, -1.000000000000000000, -0.000000000000000000 ) ) ;
#262 = UNCERTAINTY_MEASURE_WITH_UNIT (LENGTH_MEASURE( 1.000000000000000082E-05 ), #112, 'distance_accuracy_value', 'NONE');
#263 = CARTESIAN_POINT ( 'NONE',  ( 0.000000000000000000, 2.250000000000000000, 0.000000000000000000 ) ) ;
#264 = ORIENTED_EDGE ( 'NONE', *, *, #180, .F. ) ;
#265 = COLOUR_RGB ( '',1.000000000000000000, 0.000000000000000000, 0.000000000000000000 ) ;
#266 = PRESENTATION_STYLE_ASSIGNMENT (( #196 ) ) ;
#267 = SURFACE_SIDE_STYLE ('',( #128 ) ) ;
#268 = ORIENTED_EDGE ( 'NONE', *, *, #223, .F. ) ;
#269 = MECHANICAL_DESIGN_GEOMETRIC_PRESENTATION_REPRESENTATION (  '', ( #87 ), #172 ) ;
#270 =( LENGTH_UNIT ( ) NAMED_UNIT ( * ) SI_UNIT ( $, .METRE. ) );
#271 = UNCERTAINTY_MEASURE_WITH_UNIT (LENGTH_MEASURE( 1.000000000000000082E-05 ), #189, 'distance_accuracy_value', 'NONE');
#272 = VERTEX_POINT ( 'NONE', #57 ) ;
#273 = PRODUCT_CONTEXT ( 'NONE', #244, 'mechanical' ) ;
#274 = CARTESIAN_POINT ( 'NONE',  ( 0.000000000000000000, 0.000000000000000000, 0.000000000000000000 ) ) ;
#275 = ADVANCED_FACE ( 'NONE', ( #201 ), #8, .T. ) ;
#276 = CARTESIAN_POINT ( 'NONE',  ( 0.000000000000000000, 0.000000000000000000, 0.000000000000000000 ) ) ;
#277 = CARTESIAN_POINT ( 'NONE',  ( -0.3750000000000000555, 2.250000000000000444, 0.000000000000000000 ) ) ;
#278 = PRESENTATION_LAYER_ASSIGNMENT (  '', '', ( #61 ) ) ;
#279 = AXIS2_PLACEMENT_3D ( 'NONE', #4, #97, #30 ) ;
#280 = CYLINDRICAL_SURFACE ( 'NONE', #142, 0.3750000000000001110 ) ;
#281 =( NAMED_UNIT ( * ) PLANE_ANGLE_UNIT ( ) SI_UNIT ( $, .RADIAN. ) );
#282 = EDGE_CURVE ( 'NONE', #135, #272, #133, .T. ) ;
#283 = AXIS2_PLACEMENT_3D ( 'NONE', #67, #251, #214 ) ;
#284 =( GEOMETRIC_REPRESENTATION_CONTEXT ( 3 ) GLOBAL_UNCERTAINTY_ASSIGNED_CONTEXT ( ( #85 ) ) GLOBAL_UNIT_ASSIGNED_CONTEXT ( ( #220, #123, #11 ) ) REPRESENTATION_CONTEXT ( 'NONE', 'WORKASPACE' ) );
#285 =( LENGTH_UNIT ( ) NAMED_UNIT ( * ) SI_UNIT ( $, .METRE. ) );
#286 = PRODUCT_RELATED_PRODUCT_CATEGORY ( 'part', '', ( #125 ) ) ;
#287 = CARTESIAN_POINT ( 'NONE',  ( 1.516480271171051896E-32, 2.250000000000000444, 0.000000000000000000 ) ) ;
#288 = EDGE_CURVE ( 'NONE', #227, #272, #102, .T. ) ;
#289 = DIRECTION ( 'NONE',  ( -0.000000000000000000, -1.000000000000000000, -0.000000000000000000 ) ) ;
#290 = STYLED_ITEM ( 'NONE', ( #114 ), #66 ) ;
#291 = MECHANICAL_DESIGN_GEOMETRIC_PRESENTATION_REPRESENTATION (  '', ( #183 ), #198 ) ;
#292 =( CONVERSION_BASED_UNIT ( 'INCH', #149 ) LENGTH_UNIT ( ) NAMED_UNIT ( #167 ) );
#293 = FACE_OUTER_BOUND ( 'NONE', #59, .T. ) ;
#294 = FILL_AREA_STYLE ('',( #175 ) ) ;
#295 = PRESENTATION_LAYER_ASSIGNMENT (  '', '', ( #87 ) ) ;
#296 = DIRECTION ( 'NONE',  ( -1.000000000000000000, 0.000000000000000000, 0.000000000000000000 ) ) ;
#297 = PRODUCT_DEFINITION_CONTEXT ( 'detailed design', #127, 'design' ) ;
#298 = ORIENTED_EDGE ( 'NONE', *, *, #230, .F. ) ;
#299 = EDGE_LOOP ( 'NONE', ( #63, #211 ) ) ;
#300 = STYLED_ITEM ( 'NONE', ( #12 ), #33 ) ;
#301 = DIRECTION ( 'NONE',  ( 1.000000000000000000, 0.000000000000000000, 0.000000000000000000 ) ) ;
#302 = FILL_AREA_STYLE ('',( #235 ) ) ;
#303 = ORIENTED_EDGE ( 'NONE', *, *, #236, .T. ) ;
#304 = CARTESIAN_POINT ( 'NONE',  ( -1.224646799147353207E-16, 5.000000000000000000, 0.000000000000000000 ) ) ;
#305 =( NAMED_UNIT ( * ) PLANE_ANGLE_UNIT ( ) SI_UNIT ( $, .RADIAN. ) );
#306 = LENGTH_MEASURE_WITH_UNIT ( LENGTH_MEASURE( 0.02539999999999999897 ), #270 );
#307 = CIRCLE ( 'NONE', #195, 0.3750000000000000555 ) ;
#308 = PLANE ( 'NONE',  #137 ) ;
#309 =( CONVERSION_BASED_UNIT ( 'INCH', #171 ) LENGTH_UNIT ( ) NAMED_UNIT ( #141 ) );
ENDSEC;
END-ISO-10303-21;
