ISO-10303-21;
HEADER;
FILE_DESCRIPTION (( 'STEP AP214' ),
    '1' );
FILE_NAME ('82271W.STEP',
    '2023-06-23T05:12:32',
    ( '' ),
    ( '' ),
    'SwSTEP 2.0',
    'SolidWorks 2023',
    '' );
FILE_SCHEMA (( 'AUTOMOTIVE_DESIGN' ));
ENDSEC;

DATA;
#1 = PLANE ( 'NONE',  #237 ) ;
#2 = SURFACE_SIDE_STYLE ('',( #66 ) ) ;
#3 = ORIENTED_EDGE ( 'NONE', *, *, #164, .F. ) ;
#4 = ORIENTED_EDGE ( 'NONE', *, *, #225, .F. ) ;
#5 = DIRECTION ( 'NONE',  ( -0.000000000000000000, -1.000000000000000000, -0.000000000000000000 ) ) ;
#6 = ADVANCED_FACE ( 'NONE', ( #43 ), #212, .T. ) ;
#7 = AXIS2_PLACEMENT_3D ( 'NONE', #117, #202, #205 ) ;
#8 =( NAMED_UNIT ( * ) PLANE_ANGLE_UNIT ( ) SI_UNIT ( $, .RADIAN. ) );
#9 =( LENGTH_UNIT ( ) NAMED_UNIT ( * ) SI_UNIT ( $, .METRE. ) );
#10 = DIRECTION ( 'NONE',  ( -0.000000000000000000, -1.000000000000000000, -0.000000000000000000 ) ) ;
#11 =( NAMED_UNIT ( * ) PLANE_ANGLE_UNIT ( ) SI_UNIT ( $, .RADIAN. ) );
#12 = VECTOR ( 'NONE', #179, 39.37007874015748143 ) ;
#13 = CARTESIAN_POINT ( 'NONE',  ( 0.000000000000000000, 1.000000000000000000, 0.000000000000000000 ) ) ;
#14 = CARTESIAN_POINT ( 'NONE',  ( -6.123233995736772199E-17, 3.000000000000000444, 0.000000000000000000 ) ) ;
#15 = LINE ( 'NONE', #116, #176 ) ;
#16 = EDGE_LOOP ( 'NONE', ( #24, #48, #210, #169 ) ) ;
#17 = SURFACE_SIDE_STYLE ('',( #183 ) ) ;
#18 = AXIS2_PLACEMENT_3D ( 'NONE', #29, #238, #34 ) ;
#19 = LENGTH_MEASURE_WITH_UNIT ( LENGTH_MEASURE( 0.02539999999999999897 ), #9 );
#20 = ORIENTED_EDGE ( 'NONE', *, *, #236, .T. ) ;
#21 =( CONVERSION_BASED_UNIT ( 'INCH', #19 ) LENGTH_UNIT ( ) NAMED_UNIT ( #81 ) );
#22 = VERTEX_POINT ( 'NONE', #141 ) ;
#23 = CARTESIAN_POINT ( 'NONE',  ( 0.000000000000000000, 0.000000000000000000, -0.2500000000000000000 ) ) ;
#24 = ORIENTED_EDGE ( 'NONE', *, *, #196, .T. ) ;
#25 = CLOSED_SHELL ( 'NONE', ( #178, #50, #6, #80 ) ) ;
#26 =( LENGTH_UNIT ( ) NAMED_UNIT ( * ) SI_UNIT ( $, .METRE. ) );
#27 = PRESENTATION_STYLE_ASSIGNMENT (( #192 ) ) ;
#28 = FACE_OUTER_BOUND ( 'NONE', #256, .T. ) ;
#29 = CARTESIAN_POINT ( 'NONE',  ( -6.123233995736772199E-17, 3.000000000000000444, 0.000000000000000000 ) ) ;
#30 = CARTESIAN_POINT ( 'NONE',  ( -0.2500000000000001110, 3.000000000000000444, 0.000000000000000000 ) ) ;
#31 = MECHANICAL_DESIGN_GEOMETRIC_PRESENTATION_REPRESENTATION (  '', ( #82 ), #77 ) ;
#32 = EDGE_CURVE ( 'NONE', #129, #22, #134, .T. ) ;
#33 = AXIS2_PLACEMENT_3D ( 'NONE', #216, #10, #199 ) ;
#34 = DIRECTION ( 'NONE',  ( -1.000000000000000000, 0.000000000000000000, 0.000000000000000000 ) ) ;
#35 =( GEOMETRIC_REPRESENTATION_CONTEXT ( 3 ) GLOBAL_UNCERTAINTY_ASSIGNED_CONTEXT ( ( #120 ) ) GLOBAL_UNIT_ASSIGNED_CONTEXT ( ( #295, #221, #36 ) ) REPRESENTATION_CONTEXT ( 'NONE', 'WORKASPACE' ) );
#36 =( NAMED_UNIT ( * ) SI_UNIT ( $, .STERADIAN. ) SOLID_ANGLE_UNIT ( ) );
#37 = PRESENTATION_LAYER_ASSIGNMENT (  '', '', ( #232 ) ) ;
#38 = UNCERTAINTY_MEASURE_WITH_UNIT (LENGTH_MEASURE( 1.000000000000000082E-05 ), #248, 'distance_accuracy_value', 'NONE');
#39 = DIRECTION ( 'NONE',  ( 0.000000000000000000, 0.000000000000000000, -1.000000000000000000 ) ) ;
#40 = FILL_AREA_STYLE ('',( #246 ) ) ;
#41 = DIRECTION ( 'NONE',  ( 0.000000000000000000, -1.000000000000000000, -0.000000000000000000 ) ) ;
#42 = FILL_AREA_STYLE ('',( #166 ) ) ;
#43 = FACE_OUTER_BOUND ( 'NONE', #283, .T. ) ;
#44 = SURFACE_STYLE_FILL_AREA ( #252 ) ;
#45 = DIMENSIONAL_EXPONENTS ( 1.000000000000000000, 0.000000000000000000, 0.000000000000000000, 0.000000000000000000, 0.000000000000000000, 0.000000000000000000, 0.000000000000000000 ) ;
#46 =( NAMED_UNIT ( * ) PLANE_ANGLE_UNIT ( ) SI_UNIT ( $, .RADIAN. ) );
#47 = ORIENTED_EDGE ( 'NONE', *, *, #164, .T. ) ;
#48 = ORIENTED_EDGE ( 'NONE', *, *, #112, .T. ) ;
#49 = DIMENSIONAL_EXPONENTS ( 1.000000000000000000, 0.000000000000000000, 0.000000000000000000, 0.000000000000000000, 0.000000000000000000, 0.000000000000000000, 0.000000000000000000 ) ;
#50 = ADVANCED_FACE ( 'NONE', ( #223 ), #165, .T. ) ;
#51 = VERTEX_POINT ( 'NONE', #276 ) ;
#52 = STYLED_ITEM ( 'NONE', ( #122 ), #80 ) ;
#53 = PRODUCT_DEFINITION_SHAPE ( 'NONE', 'NONE',  #94 ) ;
#54 =( LENGTH_UNIT ( ) NAMED_UNIT ( * ) SI_UNIT ( $, .METRE. ) );
#55 = DIRECTION ( 'NONE',  ( 0.000000000000000000, 0.000000000000000000, -1.000000000000000000 ) ) ;
#56 = CLOSED_SHELL ( 'NONE', ( #155, #249, #143, #263 ) ) ;
#57 = CIRCLE ( 'NONE', #138, 0.2500000000000000000 ) ;
#58 = PRESENTATION_LAYER_ASSIGNMENT (  '', '', ( #181 ) ) ;
#59 = ORIENTED_EDGE ( 'NONE', *, *, #119, .F. ) ;
#60 = DIRECTION ( 'NONE',  ( -0.000000000000000000, -1.000000000000000000, -0.000000000000000000 ) ) ;
#61 = FACE_OUTER_BOUND ( 'NONE', #154, .T. ) ;
#62 = CIRCLE ( 'NONE', #162, 0.2500000000000000000 ) ;
#63 =( GEOMETRIC_REPRESENTATION_CONTEXT ( 3 ) GLOBAL_UNCERTAINTY_ASSIGNED_CONTEXT ( ( #261 ) ) GLOBAL_UNIT_ASSIGNED_CONTEXT ( ( #285, #111, #153 ) ) REPRESENTATION_CONTEXT ( 'NONE', 'WORKASPACE' ) );
#64 = UNCERTAINTY_MEASURE_WITH_UNIT (LENGTH_MEASURE( 1.000000000000000082E-05 ), #158, 'distance_accuracy_value', 'NONE');
#65 = DIRECTION ( 'NONE',  ( -1.000000000000000000, 0.000000000000000000, 0.000000000000000000 ) ) ;
#66 = SURFACE_STYLE_FILL_AREA ( #42 ) ;
#67 = CARTESIAN_POINT ( 'NONE',  ( -0.2500000000000001110, 3.000000000000000444, 0.000000000000000000 ) ) ;
#68 = DIRECTION ( 'NONE',  ( 0.000000000000000000, 1.000000000000000000, 0.000000000000000000 ) ) ;
#69 = EDGE_LOOP ( 'NONE', ( #20, #151 ) ) ;
#70 = UNCERTAINTY_MEASURE_WITH_UNIT (LENGTH_MEASURE( 1.000000000000000082E-05 ), #132, 'distance_accuracy_value', 'NONE');
#71 = SURFACE_STYLE_USAGE ( .BOTH. , #2 ) ;
#72 = AXIS2_PLACEMENT_3D ( 'NONE', #242, #300, #273 ) ;
#73 = CIRCLE ( 'NONE', #288, 0.2500000000000000000 ) ;
#74 = VERTEX_POINT ( 'NONE', #30 ) ;
#75 = EDGE_LOOP ( 'NONE', ( #147, #3 ) ) ;
#76 = CARTESIAN_POINT ( 'NONE',  ( 0.000000000000000000, 1.000000000000000000, 0.000000000000000000 ) ) ;
#77 =( GEOMETRIC_REPRESENTATION_CONTEXT ( 3 ) GLOBAL_UNCERTAINTY_ASSIGNED_CONTEXT ( ( #187 ) ) GLOBAL_UNIT_ASSIGNED_CONTEXT ( ( #21, #101, #262 ) ) REPRESENTATION_CONTEXT ( 'NONE', 'WORKASPACE' ) );
#78 = CARTESIAN_POINT ( 'NONE',  ( -6.123233995736772199E-17, 3.000000000000000444, 0.000000000000000000 ) ) ;
#79 =( LENGTH_UNIT ( ) NAMED_UNIT ( * ) SI_UNIT ( $, .METRE. ) );
#80 = ADVANCED_FACE ( 'NONE', ( #28 ), #1, .T. ) ;
#81 = DIMENSIONAL_EXPONENTS ( 1.000000000000000000, 0.000000000000000000, 0.000000000000000000, 0.000000000000000000, 0.000000000000000000, 0.000000000000000000, 0.000000000000000000 ) ;
#82 = STYLED_ITEM ( 'NONE', ( #185 ), #50 ) ;
#83 = CARTESIAN_POINT ( 'NONE',  ( 0.2499999999999999722, 3.000000000000000444, 3.061616997868383634E-17 ) ) ;
#84 =( GEOMETRIC_REPRESENTATION_CONTEXT ( 3 ) GLOBAL_UNCERTAINTY_ASSIGNED_CONTEXT ( ( #64 ) ) GLOBAL_UNIT_ASSIGNED_CONTEXT ( ( #158, #139, #291 ) ) REPRESENTATION_CONTEXT ( 'NONE', 'WORKASPACE' ) );
#85 = FACE_OUTER_BOUND ( 'NONE', #150, .T. ) ;
#86 =( LENGTH_UNIT ( ) NAMED_UNIT ( * ) SI_UNIT ( $, .METRE. ) );
#87 = LINE ( 'NONE', #67, #127 ) ;
#88 = DIRECTION ( 'NONE',  ( 1.000000000000000000, 3.061616997868386099E-17, 0.000000000000000000 ) ) ;
#89 = DIRECTION ( 'NONE',  ( -3.061616997868386099E-17, 1.000000000000000000, -0.000000000000000000 ) ) ;
#90 = SURFACE_STYLE_USAGE ( .BOTH. , #306 ) ;
#91 = AXIS2_PLACEMENT_3D ( 'NONE', #14, #167, #301 ) ;
#92 = AXIS2_PLACEMENT_3D ( 'NONE', #78, #131, #160 ) ;
#93 = CARTESIAN_POINT ( 'NONE',  ( -6.123233995736772199E-17, 3.000000000000000444, 0.000000000000000000 ) ) ;
#94 = PRODUCT_DEFINITION ( 'UNKNOWN', '', #266, #299 ) ;
#95 = PRESENTATION_STYLE_ASSIGNMENT (( #264 ) ) ;
#96 = PLANE ( 'NONE',  #259 ) ;
#97 = CARTESIAN_POINT ( 'NONE',  ( 3.061616997868383018E-17, 0.000000000000000000, 0.2500000000000000000 ) ) ;
#98 = VERTEX_POINT ( 'NONE', #213 ) ;
#99 = UNCERTAINTY_MEASURE_WITH_UNIT (LENGTH_MEASURE( 1.000000000000000082E-05 ), #278, 'distance_accuracy_value', 'NONE');
#100 = MANIFOLD_SOLID_BREP ( 'Revolve - Cutting Edge', #25 ) ;
#101 =( NAMED_UNIT ( * ) PLANE_ANGLE_UNIT ( ) SI_UNIT ( $, .RADIAN. ) );
#102 = MECHANICAL_DESIGN_GEOMETRIC_PRESENTATION_REPRESENTATION (  '', ( #265 ), #244 ) ;
#103 = APPLICATION_PROTOCOL_DEFINITION ( 'draft international standard', 'automotive_design', 1998, #268 ) ;
#104 = AXIS2_PLACEMENT_3D ( 'NONE', #209, #189, #296 ) ;
#105 = ORIENTED_EDGE ( 'NONE', *, *, #218, .T. ) ;
#106 =( LENGTH_UNIT ( ) NAMED_UNIT ( * ) SI_UNIT ( $, .METRE. ) );
#107 = DIMENSIONAL_EXPONENTS ( 1.000000000000000000, 0.000000000000000000, 0.000000000000000000, 0.000000000000000000, 0.000000000000000000, 0.000000000000000000, 0.000000000000000000 ) ;
#108 = CARTESIAN_POINT ( 'NONE',  ( 0.000000000000000000, 0.000000000000000000, 0.000000000000000000 ) ) ;
#109 = AXIS2_PLACEMENT_3D ( 'NONE', #108, #5, #135 ) ;
#110 = FILL_AREA_STYLE_COLOUR ( '', #180 ) ;
#111 =( NAMED_UNIT ( * ) PLANE_ANGLE_UNIT ( ) SI_UNIT ( $, .RADIAN. ) );
#112 = EDGE_CURVE ( 'NONE', #211, #171, #15, .T. ) ;
#113 = LINE ( 'NONE', #23, #293 ) ;
#114 = PRESENTATION_STYLE_ASSIGNMENT (( #188 ) ) ;
#115 = CIRCLE ( 'NONE', #163, 0.2500000000000000000 ) ;
#116 = CARTESIAN_POINT ( 'NONE',  ( 3.061616997868383018E-17, 0.000000000000000000, 0.2500000000000000000 ) ) ;
#117 = CARTESIAN_POINT ( 'NONE',  ( 0.000000000000000000, 0.000000000000000000, 0.000000000000000000 ) ) ;
#118 = CARTESIAN_POINT ( 'NONE',  ( 0.2500000000000000000, 3.000000000000000444, 0.000000000000000000 ) ) ;
#119 = EDGE_CURVE ( 'NONE', #129, #74, #87, .T. ) ;
#120 = UNCERTAINTY_MEASURE_WITH_UNIT (LENGTH_MEASURE( 1.000000000000000082E-05 ), #295, 'distance_accuracy_value', 'NONE');
#121 = ORIENTED_EDGE ( 'NONE', *, *, #112, .F. ) ;
#122 = PRESENTATION_STYLE_ASSIGNMENT (( #71 ) ) ;
#123 = ORIENTED_EDGE ( 'NONE', *, *, #239, .T. ) ;
#124 = PLANE ( 'NONE',  #233 ) ;
#125 =( LENGTH_UNIT ( ) NAMED_UNIT ( * ) SI_UNIT ( $, .METRE. ) );
#126 = SURFACE_SIDE_STYLE ('',( #231 ) ) ;
#127 = VECTOR ( 'NONE', #245, 39.37007874015748143 ) ;
#128 =( GEOMETRIC_REPRESENTATION_CONTEXT ( 3 ) GLOBAL_UNCERTAINTY_ASSIGNED_CONTEXT ( ( #70 ) ) GLOBAL_UNIT_ASSIGNED_CONTEXT ( ( #132, #8, #241 ) ) REPRESENTATION_CONTEXT ( 'NONE', 'WORKASPACE' ) );
#129 = VERTEX_POINT ( 'NONE', #228 ) ;
#130 = LENGTH_MEASURE_WITH_UNIT ( LENGTH_MEASURE( 0.02539999999999999897 ), #26 );
#131 = DIRECTION ( 'NONE',  ( -3.061616997868386099E-17, 1.000000000000000000, -0.000000000000000000 ) ) ;
#132 =( CONVERSION_BASED_UNIT ( 'INCH', #130 ) LENGTH_UNIT ( ) NAMED_UNIT ( #107 ) );
#133 = DIRECTION ( 'NONE',  ( 0.000000000000000000, 0.000000000000000000, -1.000000000000000000 ) ) ;
#134 = CIRCLE ( 'NONE', #72, 0.2500000000000000000 ) ;
#135 = DIRECTION ( 'NONE',  ( 0.000000000000000000, 0.000000000000000000, -1.000000000000000000 ) ) ;
#136 = CIRCLE ( 'NONE', #92, 0.2500000000000000555 ) ;
#137 = LENGTH_MEASURE_WITH_UNIT ( LENGTH_MEASURE( 0.02539999999999999897 ), #54 );
#138 = AXIS2_PLACEMENT_3D ( 'NONE', #13, #60, #39 ) ;
#139 =( NAMED_UNIT ( * ) PLANE_ANGLE_UNIT ( ) SI_UNIT ( $, .RADIAN. ) );
#140 = DIRECTION ( 'NONE',  ( -1.000000000000000000, 0.000000000000000000, 0.000000000000000000 ) ) ;
#141 = CARTESIAN_POINT ( 'NONE',  ( 0.2500000000000000000, 1.000000000000000000, 3.061616997868383634E-17 ) ) ;
#142 = CYLINDRICAL_SURFACE ( 'NONE', #91, 0.2500000000000000555 ) ;
#143 = ADVANCED_FACE ( 'NONE', ( #222 ), #146, .T. ) ;
#144 = DIRECTION ( 'NONE',  ( -3.061616997868386099E-17, 1.000000000000000000, -0.000000000000000000 ) ) ;
#145 = LENGTH_MEASURE_WITH_UNIT ( LENGTH_MEASURE( 0.02539999999999999897 ), #79 );
#146 = CYLINDRICAL_SURFACE ( 'NONE', #219, 0.2500000000000000555 ) ;
#147 = ORIENTED_EDGE ( 'NONE', *, *, #196, .F. ) ;
#148 = MECHANICAL_DESIGN_GEOMETRIC_PRESENTATION_REPRESENTATION (  '', ( #204 ), #128 ) ;
#149 = DIMENSIONAL_EXPONENTS ( 1.000000000000000000, 0.000000000000000000, 0.000000000000000000, 0.000000000000000000, 0.000000000000000000, 0.000000000000000000, 0.000000000000000000 ) ;
#150 = EDGE_LOOP ( 'NONE', ( #230, #274 ) ) ;
#151 = ORIENTED_EDGE ( 'NONE', *, *, #225, .T. ) ;
#152 = COLOUR_RGB ( '',1.000000000000000000, 0.000000000000000000, 0.000000000000000000 ) ;
#153 =( NAMED_UNIT ( * ) SI_UNIT ( $, .STERADIAN. ) SOLID_ANGLE_UNIT ( ) );
#154 = EDGE_LOOP ( 'NONE', ( #267, #123, #191, #59 ) ) ;
#155 = ADVANCED_FACE ( 'NONE', ( #61 ), #142, .T. ) ;
#156 = APPLICATION_PROTOCOL_DEFINITION ( 'draft international standard', 'automotive_design', 1998, #260 ) ;
#157 = CARTESIAN_POINT ( 'NONE',  ( 3.061616997868383018E-17, 1.000000000000000000, 0.2500000000000000000 ) ) ;
#158 =( CONVERSION_BASED_UNIT ( 'INCH', #290 ) LENGTH_UNIT ( ) NAMED_UNIT ( #149 ) );
#159 = MECHANICAL_DESIGN_GEOMETRIC_PRESENTATION_REPRESENTATION (  '', ( #52 ), #170 ) ;
#160 = DIRECTION ( 'NONE',  ( -1.000000000000000000, 0.000000000000000000, 0.000000000000000000 ) ) ;
#161 = EDGE_CURVE ( 'NONE', #22, #129, #62, .T. ) ;
#162 = AXIS2_PLACEMENT_3D ( 'NONE', #207, #144, #65 ) ;
#163 = AXIS2_PLACEMENT_3D ( 'NONE', #76, #174, #55 ) ;
#164 = EDGE_CURVE ( 'NONE', #211, #251, #57, .T. ) ;
#165 = PLANE ( 'NONE',  #240 ) ;
#166 = FILL_AREA_STYLE_COLOUR ( '', #152 ) ;
#167 = DIRECTION ( 'NONE',  ( -3.061616997868386099E-17, 1.000000000000000000, -0.000000000000000000 ) ) ;
#168 = SURFACE_STYLE_FILL_AREA ( #198 ) ;
#169 = ORIENTED_EDGE ( 'NONE', *, *, #305, .F. ) ;
#170 =( GEOMETRIC_REPRESENTATION_CONTEXT ( 3 ) GLOBAL_UNCERTAINTY_ASSIGNED_CONTEXT ( ( #99 ) ) GLOBAL_UNIT_ASSIGNED_CONTEXT ( ( #278, #46, #175 ) ) REPRESENTATION_CONTEXT ( 'NONE', 'WORKASPACE' ) );
#171 = VERTEX_POINT ( 'NONE', #97 ) ;
#172 = CIRCLE ( 'NONE', #33, 0.2500000000000000000 ) ;
#173 = ORIENTED_EDGE ( 'NONE', *, *, #305, .T. ) ;
#174 = DIRECTION ( 'NONE',  ( -0.000000000000000000, -1.000000000000000000, -0.000000000000000000 ) ) ;
#175 =( NAMED_UNIT ( * ) SI_UNIT ( $, .STERADIAN. ) SOLID_ANGLE_UNIT ( ) );
#176 = VECTOR ( 'NONE', #253, 39.37007874015748143 ) ;
#177 = CARTESIAN_POINT ( 'NONE',  ( 0.000000000000000000, 0.000000000000000000, 0.000000000000000000 ) ) ;
#178 = ADVANCED_FACE ( 'NONE', ( #224 ), #235, .T. ) ;
#179 = DIRECTION ( 'NONE',  ( -3.061616997868386099E-17, 1.000000000000000000, -0.000000000000000000 ) ) ;
#180 = COLOUR_RGB ( '',0.7921568627450980005, 0.8196078431372548767, 0.9333333333333333481 ) ;
#181 = STYLED_ITEM ( 'NONE', ( #114 ), #178 ) ;
#182 = FACE_OUTER_BOUND ( 'NONE', #69, .T. ) ;
#183 = SURFACE_STYLE_FILL_AREA ( #250 ) ;
#184 = DIMENSIONAL_EXPONENTS ( 1.000000000000000000, 0.000000000000000000, 0.000000000000000000, 0.000000000000000000, 0.000000000000000000, 0.000000000000000000, 0.000000000000000000 ) ;
#185 = PRESENTATION_STYLE_ASSIGNMENT (( #90 ) ) ;
#186 =( NAMED_UNIT ( * ) SI_UNIT ( $, .STERADIAN. ) SOLID_ANGLE_UNIT ( ) );
#187 = UNCERTAINTY_MEASURE_WITH_UNIT (LENGTH_MEASURE( 1.000000000000000082E-05 ), #21, 'distance_accuracy_value', 'NONE');
#188 = SURFACE_STYLE_USAGE ( .BOTH. , #17 ) ;
#189 = DIRECTION ( 'NONE',  ( 0.000000000000000000, 0.000000000000000000, 1.000000000000000000 ) ) ;
#190 = DIRECTION ( 'NONE',  ( 0.000000000000000000, -0.000000000000000000, 1.000000000000000000 ) ) ;
#191 = ORIENTED_EDGE ( 'NONE', *, *, #236, .F. ) ;
#192 = SURFACE_STYLE_USAGE ( .BOTH. , #226 ) ;
#193 = EDGE_CURVE ( 'NONE', #51, #171, #73, .T. ) ;
#194 = ORIENTED_EDGE ( 'NONE', *, *, #239, .F. ) ;
#195 = MECHANICAL_DESIGN_GEOMETRIC_PRESENTATION_REPRESENTATION (  '', ( #181 ), #63 ) ;
#196 = EDGE_CURVE ( 'NONE', #251, #211, #115, .T. ) ;
#197 = FILL_AREA_STYLE_COLOUR ( '', #308 ) ;
#198 = FILL_AREA_STYLE ('',( #110 ) ) ;
#199 = DIRECTION ( 'NONE',  ( 0.000000000000000000, 0.000000000000000000, -1.000000000000000000 ) ) ;
#200 = EDGE_LOOP ( 'NONE', ( #194, #255, #279, #4 ) ) ;
#201 = LINE ( 'NONE', #83, #12 ) ;
#202 = DIRECTION ( 'NONE',  ( -0.000000000000000000, -1.000000000000000000, -0.000000000000000000 ) ) ;
#203 = PRESENTATION_LAYER_ASSIGNMENT (  '', '', ( #52 ) ) ;
#204 = STYLED_ITEM ( 'NONE', ( #27 ), #304 ) ;
#205 = DIRECTION ( 'NONE',  ( 0.000000000000000000, 0.000000000000000000, -1.000000000000000000 ) ) ;
#206 = SURFACE_STYLE_FILL_AREA ( #40 ) ;
#207 = CARTESIAN_POINT ( 'NONE',  ( 7.582401355855259480E-33, 1.000000000000000000, 0.000000000000000000 ) ) ;
#208 = ADVANCED_BREP_SHAPE_REPRESENTATION ( '82271W', ( #100, #304, #104 ), #84 ) ;
#209 = CARTESIAN_POINT ( 'NONE',  ( 0.000000000000000000, 0.000000000000000000, 0.000000000000000000 ) ) ;
#210 = ORIENTED_EDGE ( 'NONE', *, *, #193, .F. ) ;
#211 = VERTEX_POINT ( 'NONE', #157 ) ;
#212 = CYLINDRICAL_SURFACE ( 'NONE', #7, 0.2500000000000000000 ) ;
#213 = CARTESIAN_POINT ( 'NONE',  ( 0.2500000000000000000, 3.000000000000000444, 3.061616997868383634E-17 ) ) ;
#214 = COLOUR_RGB ( '',1.000000000000000000, 0.000000000000000000, 0.000000000000000000 ) ;
#215 = DIRECTION ( 'NONE',  ( -3.061616997868386099E-17, 1.000000000000000000, 0.000000000000000000 ) ) ;
#216 = CARTESIAN_POINT ( 'NONE',  ( 0.000000000000000000, 0.000000000000000000, 0.000000000000000000 ) ) ;
#217 = CARTESIAN_POINT ( 'NONE',  ( 0.000000000000000000, 0.000000000000000000, 0.000000000000000000 ) ) ;
#218 = EDGE_CURVE ( 'NONE', #171, #51, #172, .T. ) ;
#219 = AXIS2_PLACEMENT_3D ( 'NONE', #93, #89, #140 ) ;
#220 = COLOUR_RGB ( '',0.7921568627450980005, 0.8196078431372548767, 0.9333333333333333481 ) ;
#221 =( NAMED_UNIT ( * ) PLANE_ANGLE_UNIT ( ) SI_UNIT ( $, .RADIAN. ) );
#222 = FACE_OUTER_BOUND ( 'NONE', #200, .T. ) ;
#223 = FACE_OUTER_BOUND ( 'NONE', #75, .T. ) ;
#224 = FACE_OUTER_BOUND ( 'NONE', #16, .T. ) ;
#225 = EDGE_CURVE ( 'NONE', #98, #74, #136, .T. ) ;
#226 = SURFACE_SIDE_STYLE ('',( #44 ) ) ;
#227 = PRODUCT ( '82271W', '82271W', '', ( #272 ) ) ;
#228 = CARTESIAN_POINT ( 'NONE',  ( -0.2500000000000000000, 1.000000000000000000, 0.000000000000000000 ) ) ;
#229 = CARTESIAN_POINT ( 'NONE',  ( 0.000000000000000000, 1.000000000000000000, 0.000000000000000000 ) ) ;
#230 = ORIENTED_EDGE ( 'NONE', *, *, #32, .F. ) ;
#231 = SURFACE_STYLE_FILL_AREA ( #282 ) ;
#232 = STYLED_ITEM ( 'NONE', ( #284 ), #6 ) ;
#233 = AXIS2_PLACEMENT_3D ( 'NONE', #243, #215, #294 ) ;
#234 = DIRECTION ( 'NONE',  ( 0.000000000000000000, 0.000000000000000000, -1.000000000000000000 ) ) ;
#235 = CYLINDRICAL_SURFACE ( 'NONE', #109, 0.2500000000000000000 ) ;
#236 = EDGE_CURVE ( 'NONE', #74, #98, #281, .T. ) ;
#237 = AXIS2_PLACEMENT_3D ( 'NONE', #217, #41, #133 ) ;
#238 = DIRECTION ( 'NONE',  ( -3.061616997868386099E-17, 1.000000000000000000, -0.000000000000000000 ) ) ;
#239 = EDGE_CURVE ( 'NONE', #22, #98, #201, .T. ) ;
#240 = AXIS2_PLACEMENT_3D ( 'NONE', #229, #68, #190 ) ;
#241 =( NAMED_UNIT ( * ) SI_UNIT ( $, .STERADIAN. ) SOLID_ANGLE_UNIT ( ) );
#242 = CARTESIAN_POINT ( 'NONE',  ( 7.582401355855259480E-33, 1.000000000000000000, 0.000000000000000000 ) ) ;
#243 = CARTESIAN_POINT ( 'NONE',  ( 1.171687330204578608E-34, 1.000000000000000000, 0.000000000000000000 ) ) ;
#244 =( GEOMETRIC_REPRESENTATION_CONTEXT ( 3 ) GLOBAL_UNCERTAINTY_ASSIGNED_CONTEXT ( ( #38 ) ) GLOBAL_UNIT_ASSIGNED_CONTEXT ( ( #248, #11, #186 ) ) REPRESENTATION_CONTEXT ( 'NONE', 'WORKASPACE' ) );
#245 = DIRECTION ( 'NONE',  ( -3.061616997868386099E-17, 1.000000000000000000, -0.000000000000000000 ) ) ;
#246 = FILL_AREA_STYLE_COLOUR ( '', #297 ) ;
#247 = FILL_AREA_STYLE_COLOUR ( '', #220 ) ;
#248 =( CONVERSION_BASED_UNIT ( 'INCH', #137 ) LENGTH_UNIT ( ) NAMED_UNIT ( #45 ) );
#249 = ADVANCED_FACE ( 'NONE', ( #85 ), #124, .F. ) ;
#250 = FILL_AREA_STYLE ('',( #277 ) ) ;
#251 = VERTEX_POINT ( 'NONE', #309 ) ;
#252 = FILL_AREA_STYLE ('',( #247 ) ) ;
#253 = DIRECTION ( 'NONE',  ( -0.000000000000000000, -1.000000000000000000, -0.000000000000000000 ) ) ;
#254 = MECHANICAL_DESIGN_GEOMETRIC_PRESENTATION_REPRESENTATION (  '', ( #232 ), #35 ) ;
#255 = ORIENTED_EDGE ( 'NONE', *, *, #161, .T. ) ;
#256 = EDGE_LOOP ( 'NONE', ( #270, #105 ) ) ;
#257 = SURFACE_STYLE_USAGE ( .BOTH. , #126 ) ;
#258 = LENGTH_MEASURE_WITH_UNIT ( LENGTH_MEASURE( 0.02539999999999999897 ), #86 );
#259 = AXIS2_PLACEMENT_3D ( 'NONE', #118, #303, #88 ) ;
#260 = APPLICATION_CONTEXT ( 'automotive_design' ) ;
#261 = UNCERTAINTY_MEASURE_WITH_UNIT (LENGTH_MEASURE( 1.000000000000000082E-05 ), #285, 'distance_accuracy_value', 'NONE');
#262 =( NAMED_UNIT ( * ) SI_UNIT ( $, .STERADIAN. ) SOLID_ANGLE_UNIT ( ) );
#263 = ADVANCED_FACE ( 'NONE', ( #182 ), #96, .F. ) ;
#264 = SURFACE_STYLE_USAGE ( .BOTH. , #289 ) ;
#265 = STYLED_ITEM ( 'NONE', ( #95 ), #100 ) ;
#266 = PRODUCT_DEFINITION_FORMATION_WITH_SPECIFIED_SOURCE ( 'ANY', '', #227, .NOT_KNOWN. ) ;
#267 = ORIENTED_EDGE ( 'NONE', *, *, #32, .T. ) ;
#268 = APPLICATION_CONTEXT ( 'automotive_design' ) ;
#269 = LENGTH_MEASURE_WITH_UNIT ( LENGTH_MEASURE( 0.02539999999999999897 ), #106 );
#270 = ORIENTED_EDGE ( 'NONE', *, *, #193, .T. ) ;
#271 = PRODUCT_RELATED_PRODUCT_CATEGORY ( 'part', '', ( #227 ) ) ;
#272 = PRODUCT_CONTEXT ( 'NONE', #260, 'mechanical' ) ;
#273 = DIRECTION ( 'NONE',  ( -1.000000000000000000, 0.000000000000000000, 0.000000000000000000 ) ) ;
#274 = ORIENTED_EDGE ( 'NONE', *, *, #161, .F. ) ;
#275 = PRESENTATION_LAYER_ASSIGNMENT (  '', '', ( #82 ) ) ;
#276 = CARTESIAN_POINT ( 'NONE',  ( 0.000000000000000000, 0.000000000000000000, -0.2500000000000000000 ) ) ;
#277 = FILL_AREA_STYLE_COLOUR ( '', #214 ) ;
#278 =( CONVERSION_BASED_UNIT ( 'INCH', #145 ) LENGTH_UNIT ( ) NAMED_UNIT ( #49 ) );
#279 = ORIENTED_EDGE ( 'NONE', *, *, #119, .T. ) ;
#280 = ORIENTED_EDGE ( 'NONE', *, *, #218, .F. ) ;
#281 = CIRCLE ( 'NONE', #18, 0.2500000000000000555 ) ;
#282 = FILL_AREA_STYLE ('',( #197 ) ) ;
#283 = EDGE_LOOP ( 'NONE', ( #121, #47, #173, #280 ) ) ;
#284 = PRESENTATION_STYLE_ASSIGNMENT (( #257 ) ) ;
#285 =( CONVERSION_BASED_UNIT ( 'INCH', #258 ) LENGTH_UNIT ( ) NAMED_UNIT ( #184 ) );
#286 = DIRECTION ( 'NONE',  ( -0.000000000000000000, -1.000000000000000000, -0.000000000000000000 ) ) ;
#287 = PRESENTATION_LAYER_ASSIGNMENT (  '', '', ( #265 ) ) ;
#288 = AXIS2_PLACEMENT_3D ( 'NONE', #177, #286, #234 ) ;
#289 = SURFACE_SIDE_STYLE ('',( #168 ) ) ;
#290 = LENGTH_MEASURE_WITH_UNIT ( LENGTH_MEASURE( 0.02539999999999999897 ), #125 );
#291 =( NAMED_UNIT ( * ) SI_UNIT ( $, .STERADIAN. ) SOLID_ANGLE_UNIT ( ) );
#292 = DIMENSIONAL_EXPONENTS ( 1.000000000000000000, 0.000000000000000000, 0.000000000000000000, 0.000000000000000000, 0.000000000000000000, 0.000000000000000000, 0.000000000000000000 ) ;
#293 = VECTOR ( 'NONE', #307, 39.37007874015748143 ) ;
#294 = DIRECTION ( 'NONE',  ( -1.000000000000000000, -3.061616997868386099E-17, 0.000000000000000000 ) ) ;
#295 =( CONVERSION_BASED_UNIT ( 'INCH', #269 ) LENGTH_UNIT ( ) NAMED_UNIT ( #292 ) );
#296 = DIRECTION ( 'NONE',  ( 1.000000000000000000, 0.000000000000000000, 0.000000000000000000 ) ) ;
#297 = COLOUR_RGB ( '',1.000000000000000000, 0.000000000000000000, 0.000000000000000000 ) ;
#298 = PRESENTATION_LAYER_ASSIGNMENT (  '', '', ( #204 ) ) ;
#299 = PRODUCT_DEFINITION_CONTEXT ( 'detailed design', #268, 'design' ) ;
#300 = DIRECTION ( 'NONE',  ( -3.061616997868386099E-17, 1.000000000000000000, -0.000000000000000000 ) ) ;
#301 = DIRECTION ( 'NONE',  ( -1.000000000000000000, 0.000000000000000000, 0.000000000000000000 ) ) ;
#302 = SHAPE_DEFINITION_REPRESENTATION ( #53, #208 ) ;
#303 = DIRECTION ( 'NONE',  ( 3.061616997868386099E-17, -1.000000000000000000, 0.000000000000000000 ) ) ;
#304 = MANIFOLD_SOLID_BREP ( 'Revolve - Tool Body (Straight Shanked)', #56 ) ;
#305 = EDGE_CURVE ( 'NONE', #251, #51, #113, .T. ) ;
#306 = SURFACE_SIDE_STYLE ('',( #206 ) ) ;
#307 = DIRECTION ( 'NONE',  ( -0.000000000000000000, -1.000000000000000000, -0.000000000000000000 ) ) ;
#308 = COLOUR_RGB ( '',1.000000000000000000, 0.000000000000000000, 0.000000000000000000 ) ;
#309 = CARTESIAN_POINT ( 'NONE',  ( 0.000000000000000000, 1.000000000000000000, -0.2500000000000000000 ) ) ;
ENDSEC;
END-ISO-10303-21;
