ISO-10303-21;
HEADER;
FILE_DESCRIPTION (( 'STEP AP214' ),
    '1' );
FILE_NAME ('83211.STEP',
    '2023-06-23T08:56:31',
    ( '' ),
    ( '' ),
    'SwSTEP 2.0',
    'SolidWorks 2023',
    '' );
FILE_SCHEMA (( 'AUTOMOTIVE_DESIGN' ));
ENDSEC;

DATA;
#1 = DIRECTION ( 'NONE',  ( -1.000000000000000000, 0.000000000000000000, 0.000000000000000000 ) ) ;
#2 = VECTOR ( 'NONE', #289, 39.37007874015748143 ) ;
#3 =( LENGTH_UNIT ( ) NAMED_UNIT ( * ) SI_UNIT ( $, .METRE. ) );
#4 = DIRECTION ( 'NONE',  ( -1.000000000000000000, 0.000000000000000000, 0.000000000000000000 ) ) ;
#5 = SURFACE_STYLE_USAGE ( .BOTH. , #154 ) ;
#6 = PRODUCT_DEFINITION_FORMATION_WITH_SPECIFIED_SOURCE ( 'ANY', '', #174, .NOT_KNOWN. ) ;
#7 = COLOUR_RGB ( '',1.000000000000000000, 0.000000000000000000, 0.000000000000000000 ) ;
#8 = EDGE_CURVE ( 'NONE', #197, #159, #56, .T. ) ;
#9 = DIRECTION ( 'NONE',  ( -4.453261087808560759E-17, 1.000000000000000000, -0.000000000000000000 ) ) ;
#10 = AXIS2_PLACEMENT_3D ( 'NONE', #309, #164, #1 ) ;
#11 = CARTESIAN_POINT ( 'NONE',  ( 0.000000000000000000, 0.000000000000000000, 0.000000000000000000 ) ) ;
#12 = UNCERTAINTY_MEASURE_WITH_UNIT (LENGTH_MEASURE( 1.000000000000000082E-05 ), #140, 'distance_accuracy_value', 'NONE');
#13 = ORIENTED_EDGE ( 'NONE', *, *, #144, .T. ) ;
#14 = DIRECTION ( 'NONE',  ( -1.000000000000000000, -4.453261087808560759E-17, 0.000000000000000000 ) ) ;
#15 = ORIENTED_EDGE ( 'NONE', *, *, #261, .T. ) ;
#16 = LINE ( 'NONE', #260, #181 ) ;
#17 = EDGE_CURVE ( 'NONE', #297, #299, #255, .T. ) ;
#18 = DIRECTION ( 'NONE',  ( 1.000000000000000000, 4.453261087808560759E-17, 0.000000000000000000 ) ) ;
#19 = LINE ( 'NONE', #179, #307 ) ;
#20 = SURFACE_STYLE_FILL_AREA ( #23 ) ;
#21 = SURFACE_SIDE_STYLE ('',( #71 ) ) ;
#22 =( GEOMETRIC_REPRESENTATION_CONTEXT ( 3 ) GLOBAL_UNCERTAINTY_ASSIGNED_CONTEXT ( ( #206 ) ) GLOBAL_UNIT_ASSIGNED_CONTEXT ( ( #286, #183, #153 ) ) REPRESENTATION_CONTEXT ( 'NONE', 'WORKASPACE' ) );
#23 = FILL_AREA_STYLE ('',( #233 ) ) ;
#24 = CARTESIAN_POINT ( 'NONE',  ( 0.000000000000000000, 0.000000000000000000, 0.000000000000000000 ) ) ;
#25 = AXIS2_PLACEMENT_3D ( 'NONE', #291, #9, #276 ) ;
#26 = CARTESIAN_POINT ( 'NONE',  ( 4.592425496802575451E-17, 0.000000000000000000, 0.3750000000000000555 ) ) ;
#27 = SURFACE_STYLE_FILL_AREA ( #28 ) ;
#28 = FILL_AREA_STYLE ('',( #127 ) ) ;
#29 =( CONVERSION_BASED_UNIT ( 'INCH', #191 ) LENGTH_UNIT ( ) NAMED_UNIT ( #216 ) );
#30 = PRODUCT_DEFINITION_CONTEXT ( 'detailed design', #242, 'design' ) ;
#31 = ADVANCED_FACE ( 'NONE', ( #45 ), #254, .F. ) ;
#32 = AXIS2_PLACEMENT_3D ( 'NONE', #129, #54, #152 ) ;
#33 = CARTESIAN_POINT ( 'NONE',  ( 4.592425496802575451E-17, 3.250000000000000000, 0.3750000000000000555 ) ) ;
#34 = DIRECTION ( 'NONE',  ( 0.000000000000000000, 0.000000000000000000, -1.000000000000000000 ) ) ;
#35 = EDGE_LOOP ( 'NONE', ( #13, #147, #198, #36 ) ) ;
#36 = ORIENTED_EDGE ( 'NONE', *, *, #201, .F. ) ;
#37 = UNCERTAINTY_MEASURE_WITH_UNIT (LENGTH_MEASURE( 1.000000000000000082E-05 ), #29, 'distance_accuracy_value', 'NONE');
#38 = ORIENTED_EDGE ( 'NONE', *, *, #213, .T. ) ;
#39 = FILL_AREA_STYLE ('',( #65 ) ) ;
#40 = CARTESIAN_POINT ( 'NONE',  ( 0.000000000000000000, 3.250000000000000000, -0.3750000000000000555 ) ) ;
#41 = FACE_OUTER_BOUND ( 'NONE', #296, .T. ) ;
#42 = STYLED_ITEM ( 'NONE', ( #145 ), #270 ) ;
#43 =( NAMED_UNIT ( * ) SI_UNIT ( $, .STERADIAN. ) SOLID_ANGLE_UNIT ( ) );
#44 = ORIENTED_EDGE ( 'NONE', *, *, #241, .F. ) ;
#45 = FACE_OUTER_BOUND ( 'NONE', #220, .T. ) ;
#46 = LENGTH_MEASURE_WITH_UNIT ( LENGTH_MEASURE( 0.02539999999999999897 ), #3 );
#47 =( GEOMETRIC_REPRESENTATION_CONTEXT ( 3 ) GLOBAL_UNCERTAINTY_ASSIGNED_CONTEXT ( ( #61 ) ) GLOBAL_UNIT_ASSIGNED_CONTEXT ( ( #76, #304, #43 ) ) REPRESENTATION_CONTEXT ( 'NONE', 'WORKASPACE' ) );
#48 = EDGE_LOOP ( 'NONE', ( #235, #256 ) ) ;
#49 = AXIS2_PLACEMENT_3D ( 'NONE', #116, #136, #85 ) ;
#50 = CARTESIAN_POINT ( 'NONE',  ( -0.3750000000000002220, 6.000000000000000888, 0.000000000000000000 ) ) ;
#51 = DIRECTION ( 'NONE',  ( -4.453261087808560759E-17, 1.000000000000000000, 0.000000000000000000 ) ) ;
#52 = PRESENTATION_LAYER_ASSIGNMENT (  '', '', ( #42 ) ) ;
#53 = FACE_OUTER_BOUND ( 'NONE', #173, .T. ) ;
#54 = DIRECTION ( 'NONE',  ( -0.000000000000000000, -1.000000000000000000, -0.000000000000000000 ) ) ;
#55 = UNCERTAINTY_MEASURE_WITH_UNIT (LENGTH_MEASURE( 1.000000000000000082E-05 ), #253, 'distance_accuracy_value', 'NONE');
#56 = CIRCLE ( 'NONE', #101, 0.3750000000000000555 ) ;
#57 =( GEOMETRIC_REPRESENTATION_CONTEXT ( 3 ) GLOBAL_UNCERTAINTY_ASSIGNED_CONTEXT ( ( #12 ) ) GLOBAL_UNIT_ASSIGNED_CONTEXT ( ( #140, #66, #200 ) ) REPRESENTATION_CONTEXT ( 'NONE', 'WORKASPACE' ) );
#58 = FILL_AREA_STYLE_COLOUR ( '', #300 ) ;
#59 = AXIS2_PLACEMENT_3D ( 'NONE', #88, #131, #34 ) ;
#60 = DIMENSIONAL_EXPONENTS ( 1.000000000000000000, 0.000000000000000000, 0.000000000000000000, 0.000000000000000000, 0.000000000000000000, 0.000000000000000000, 0.000000000000000000 ) ;
#61 = UNCERTAINTY_MEASURE_WITH_UNIT (LENGTH_MEASURE( 1.000000000000000082E-05 ), #76, 'distance_accuracy_value', 'NONE');
#62 = ORIENTED_EDGE ( 'NONE', *, *, #68, .T. ) ;
#63 = AXIS2_PLACEMENT_3D ( 'NONE', #262, #51, #14 ) ;
#64 = CARTESIAN_POINT ( 'NONE',  ( -0.3750000000000000555, 3.250000000000000000, 0.000000000000000000 ) ) ;
#65 = FILL_AREA_STYLE_COLOUR ( '', #82 ) ;
#66 =( NAMED_UNIT ( * ) PLANE_ANGLE_UNIT ( ) SI_UNIT ( $, .RADIAN. ) );
#67 = FACE_OUTER_BOUND ( 'NONE', #35, .T. ) ;
#68 = EDGE_CURVE ( 'NONE', #299, #297, #72, .T. ) ;
#69 = PRODUCT_DEFINITION_SHAPE ( 'NONE', 'NONE',  #134 ) ;
#70 = CIRCLE ( 'NONE', #288, 0.3750000000000000555 ) ;
#71 = SURFACE_STYLE_FILL_AREA ( #232 ) ;
#72 = CIRCLE ( 'NONE', #224, 0.3750000000000001665 ) ;
#73 = PRESENTATION_STYLE_ASSIGNMENT (( #95 ) ) ;
#74 = ADVANCED_FACE ( 'NONE', ( #53 ), #146, .T. ) ;
#75 = CARTESIAN_POINT ( 'NONE',  ( 0.000000000000000000, 3.250000000000000000, 0.000000000000000000 ) ) ;
#76 =( CONVERSION_BASED_UNIT ( 'INCH', #285 ) LENGTH_UNIT ( ) NAMED_UNIT ( #60 ) );
#77 = DIRECTION ( 'NONE',  ( -0.000000000000000000, -1.000000000000000000, -0.000000000000000000 ) ) ;
#78 = ORIENTED_EDGE ( 'NONE', *, *, #17, .T. ) ;
#79 = COLOUR_RGB ( '',0.7921568627450980005, 0.8196078431372548767, 0.9333333333333333481 ) ;
#80 = DIRECTION ( 'NONE',  ( -1.000000000000000000, 0.000000000000000000, 0.000000000000000000 ) ) ;
#81 = DIRECTION ( 'NONE',  ( -4.453261087808560759E-17, 1.000000000000000000, -0.000000000000000000 ) ) ;
#82 = COLOUR_RGB ( '',0.7921568627450980005, 0.8196078431372548767, 0.9333333333333333481 ) ;
#83 = ADVANCED_FACE ( 'NONE', ( #240 ), #149, .T. ) ;
#84 = VERTEX_POINT ( 'NONE', #40 ) ;
#85 = DIRECTION ( 'NONE',  ( 0.000000000000000000, -0.000000000000000000, 1.000000000000000000 ) ) ;
#86 = CLOSED_SHELL ( 'NONE', ( #121, #156, #274, #83 ) ) ;
#87 =( NAMED_UNIT ( * ) SI_UNIT ( $, .STERADIAN. ) SOLID_ANGLE_UNIT ( ) );
#88 = CARTESIAN_POINT ( 'NONE',  ( 0.000000000000000000, 3.250000000000000000, 0.000000000000000000 ) ) ;
#89 = APPLICATION_PROTOCOL_DEFINITION ( 'draft international standard', 'automotive_design', 1998, #242 ) ;
#90 = PRESENTATION_STYLE_ASSIGNMENT (( #205 ) ) ;
#91 = MECHANICAL_DESIGN_GEOMETRIC_PRESENTATION_REPRESENTATION (  '', ( #157 ), #202 ) ;
#92 =( NAMED_UNIT ( * ) SI_UNIT ( $, .STERADIAN. ) SOLID_ANGLE_UNIT ( ) );
#93 = CARTESIAN_POINT ( 'NONE',  ( 0.000000000000000000, 0.000000000000000000, 0.000000000000000000 ) ) ;
#94 = MECHANICAL_DESIGN_GEOMETRIC_PRESENTATION_REPRESENTATION (  '', ( #293 ), #47 ) ;
#95 = SURFACE_STYLE_USAGE ( .BOTH. , #207 ) ;
#96 = LINE ( 'NONE', #50, #2 ) ;
#97 = CYLINDRICAL_SURFACE ( 'NONE', #25, 0.3750000000000001110 ) ;
#98 = FACE_OUTER_BOUND ( 'NONE', #150, .T. ) ;
#99 = FILL_AREA_STYLE_COLOUR ( '', #79 ) ;
#100 = PRODUCT_RELATED_PRODUCT_CATEGORY ( 'part', '', ( #174 ) ) ;
#101 = AXIS2_PLACEMENT_3D ( 'NONE', #186, #123, #230 ) ;
#102 = ORIENTED_EDGE ( 'NONE', *, *, #265, .T. ) ;
#103 = AXIS2_PLACEMENT_3D ( 'NONE', #110, #279, #171 ) ;
#104 =( GEOMETRIC_REPRESENTATION_CONTEXT ( 3 ) GLOBAL_UNCERTAINTY_ASSIGNED_CONTEXT ( ( #151 ) ) GLOBAL_UNIT_ASSIGNED_CONTEXT ( ( #234, #185, #118 ) ) REPRESENTATION_CONTEXT ( 'NONE', 'WORKASPACE' ) );
#105 = SURFACE_SIDE_STYLE ('',( #209 ) ) ;
#106 = DIRECTION ( 'NONE',  ( 0.000000000000000000, 0.000000000000000000, -1.000000000000000000 ) ) ;
#107 = AXIS2_PLACEMENT_3D ( 'NONE', #196, #158, #178 ) ;
#108 = AXIS2_PLACEMENT_3D ( 'NONE', #211, #77, #188 ) ;
#109 = EDGE_LOOP ( 'NONE', ( #15, #102 ) ) ;
#110 = CARTESIAN_POINT ( 'NONE',  ( 0.000000000000000000, 0.000000000000000000, 0.000000000000000000 ) ) ;
#111 = CARTESIAN_POINT ( 'NONE',  ( -0.3750000000000002776, 6.000000000000000888, 0.000000000000000000 ) ) ;
#112 = PLANE ( 'NONE',  #49 ) ;
#113 = APPLICATION_CONTEXT ( 'automotive_design' ) ;
#114 = ORIENTED_EDGE ( 'NONE', *, *, #241, .T. ) ;
#115 = CARTESIAN_POINT ( 'NONE',  ( 0.3750000000000000555, 3.250000000000000000, 4.592425496802576684E-17 ) ) ;
#116 = CARTESIAN_POINT ( 'NONE',  ( 0.000000000000000000, 3.250000000000000000, 0.000000000000000000 ) ) ;
#117 = EDGE_CURVE ( 'NONE', #215, #84, #124, .T. ) ;
#118 =( NAMED_UNIT ( * ) SI_UNIT ( $, .STERADIAN. ) SOLID_ANGLE_UNIT ( ) );
#119 = CARTESIAN_POINT ( 'NONE',  ( -1.224646799147354440E-16, 6.000000000000000888, 0.000000000000000000 ) ) ;
#120 = DIRECTION ( 'NONE',  ( 1.000000000000000000, 0.000000000000000000, 0.000000000000000000 ) ) ;
#121 = ADVANCED_FACE ( 'NONE', ( #67 ), #271, .T. ) ;
#122 = FILL_AREA_STYLE ('',( #99 ) ) ;
#123 = DIRECTION ( 'NONE',  ( -4.453261087808560759E-17, 1.000000000000000000, -0.000000000000000000 ) ) ;
#124 = CIRCLE ( 'NONE', #107, 0.3750000000000000555 ) ;
#125 = PRESENTATION_STYLE_ASSIGNMENT (( #5 ) ) ;
#126 = ADVANCED_FACE ( 'NONE', ( #41 ), #208, .F. ) ;
#127 = FILL_AREA_STYLE_COLOUR ( '', #287 ) ;
#128 = AXIS2_PLACEMENT_3D ( 'NONE', #244, #263, #4 ) ;
#129 = CARTESIAN_POINT ( 'NONE',  ( 0.000000000000000000, 0.000000000000000000, 0.000000000000000000 ) ) ;
#130 = SURFACE_STYLE_FILL_AREA ( #245 ) ;
#131 = DIRECTION ( 'NONE',  ( -0.000000000000000000, -1.000000000000000000, -0.000000000000000000 ) ) ;
#132 = ORIENTED_EDGE ( 'NONE', *, *, #17, .F. ) ;
#133 = ORIENTED_EDGE ( 'NONE', *, *, #193, .F. ) ;
#134 = PRODUCT_DEFINITION ( 'UNKNOWN', '', #6, #30 ) ;
#135 = SHAPE_DEFINITION_REPRESENTATION ( #69, #284 ) ;
#136 = DIRECTION ( 'NONE',  ( 0.000000000000000000, 1.000000000000000000, 0.000000000000000000 ) ) ;
#137 = SURFACE_STYLE_FILL_AREA ( #39 ) ;
#138 = LENGTH_MEASURE_WITH_UNIT ( LENGTH_MEASURE( 0.02539999999999999897 ), #177 );
#139 = SURFACE_STYLE_USAGE ( .BOTH. , #302 ) ;
#140 =( CONVERSION_BASED_UNIT ( 'INCH', #251 ) LENGTH_UNIT ( ) NAMED_UNIT ( #238 ) );
#141 = DIRECTION ( 'NONE',  ( 0.000000000000000000, 0.000000000000000000, 1.000000000000000000 ) ) ;
#142 = LINE ( 'NONE', #236, #167 ) ;
#143 =( NAMED_UNIT ( * ) SI_UNIT ( $, .STERADIAN. ) SOLID_ANGLE_UNIT ( ) );
#144 = EDGE_CURVE ( 'NONE', #84, #215, #212, .T. ) ;
#145 = PRESENTATION_STYLE_ASSIGNMENT (( #259 ) ) ;
#146 = CYLINDRICAL_SURFACE ( 'NONE', #128, 0.3750000000000001110 ) ;
#147 = ORIENTED_EDGE ( 'NONE', *, *, #184, .T. ) ;
#148 = CIRCLE ( 'NONE', #32, 0.3750000000000000555 ) ;
#149 = PLANE ( 'NONE',  #103 ) ;
#150 = EDGE_LOOP ( 'NONE', ( #195, #190, #194, #222 ) ) ;
#151 = UNCERTAINTY_MEASURE_WITH_UNIT (LENGTH_MEASURE( 1.000000000000000082E-05 ), #234, 'distance_accuracy_value', 'NONE');
#152 = DIRECTION ( 'NONE',  ( 0.000000000000000000, 0.000000000000000000, -1.000000000000000000 ) ) ;
#153 =( NAMED_UNIT ( * ) SI_UNIT ( $, .STERADIAN. ) SOLID_ANGLE_UNIT ( ) );
#154 = SURFACE_SIDE_STYLE ('',( #27 ) ) ;
#155 = AXIS2_PLACEMENT_3D ( 'NONE', #24, #141, #120 ) ;
#156 = ADVANCED_FACE ( 'NONE', ( #219 ), #112, .T. ) ;
#157 = STYLED_ITEM ( 'NONE', ( #90 ), #156 ) ;
#158 = DIRECTION ( 'NONE',  ( -0.000000000000000000, -1.000000000000000000, -0.000000000000000000 ) ) ;
#159 = VERTEX_POINT ( 'NONE', #64 ) ;
#160 = CARTESIAN_POINT ( 'NONE',  ( 0.000000000000000000, 0.000000000000000000, -0.3750000000000000555 ) ) ;
#161 = STYLED_ITEM ( 'NONE', ( #225 ), #166 ) ;
#162 =( CONVERSION_BASED_UNIT ( 'INCH', #257 ) LENGTH_UNIT ( ) NAMED_UNIT ( #189 ) );
#163 = ADVANCED_FACE ( 'NONE', ( #228 ), #97, .T. ) ;
#164 = DIRECTION ( 'NONE',  ( -4.453261087808560759E-17, 1.000000000000000000, -0.000000000000000000 ) ) ;
#165 = DIMENSIONAL_EXPONENTS ( 1.000000000000000000, 0.000000000000000000, 0.000000000000000000, 0.000000000000000000, 0.000000000000000000, 0.000000000000000000, 0.000000000000000000 ) ;
#166 = MANIFOLD_SOLID_BREP ( 'Revolve - Cutting Edge', #86 ) ;
#167 = VECTOR ( 'NONE', #231, 39.37007874015748143 ) ;
#168 =( LENGTH_UNIT ( ) NAMED_UNIT ( * ) SI_UNIT ( $, .METRE. ) );
#169 = DIRECTION ( 'NONE',  ( -1.000000000000000000, 0.000000000000000000, 0.000000000000000000 ) ) ;
#170 =( GEOMETRIC_REPRESENTATION_CONTEXT ( 3 ) GLOBAL_UNCERTAINTY_ASSIGNED_CONTEXT ( ( #37 ) ) GLOBAL_UNIT_ASSIGNED_CONTEXT ( ( #29, #266, #87 ) ) REPRESENTATION_CONTEXT ( 'NONE', 'WORKASPACE' ) );
#171 = DIRECTION ( 'NONE',  ( 0.000000000000000000, 0.000000000000000000, -1.000000000000000000 ) ) ;
#172 = PRESENTATION_LAYER_ASSIGNMENT (  '', '', ( #157 ) ) ;
#173 = EDGE_LOOP ( 'NONE', ( #133, #301, #114, #132 ) ) ;
#174 = PRODUCT ( '83211', '83211', '', ( #229 ) ) ;
#175 = AXIS2_PLACEMENT_3D ( 'NONE', #11, #282, #269 ) ;
#176 =( LENGTH_UNIT ( ) NAMED_UNIT ( * ) SI_UNIT ( $, .METRE. ) );
#177 =( LENGTH_UNIT ( ) NAMED_UNIT ( * ) SI_UNIT ( $, .METRE. ) );
#178 = DIRECTION ( 'NONE',  ( 0.000000000000000000, 0.000000000000000000, -1.000000000000000000 ) ) ;
#179 = CARTESIAN_POINT ( 'NONE',  ( 0.3749999999999999445, 6.000000000000000888, 4.592425496802576068E-17 ) ) ;
#180 = DIRECTION ( 'NONE',  ( -0.000000000000000000, -1.000000000000000000, -0.000000000000000000 ) ) ;
#181 = VECTOR ( 'NONE', #268, 39.37007874015748143 ) ;
#182 = MECHANICAL_DESIGN_GEOMETRIC_PRESENTATION_REPRESENTATION (  '', ( #248 ), #170 ) ;
#183 =( NAMED_UNIT ( * ) PLANE_ANGLE_UNIT ( ) SI_UNIT ( $, .RADIAN. ) );
#184 = EDGE_CURVE ( 'NONE', #215, #247, #142, .T. ) ;
#185 =( NAMED_UNIT ( * ) PLANE_ANGLE_UNIT ( ) SI_UNIT ( $, .RADIAN. ) );
#186 = CARTESIAN_POINT ( 'NONE',  ( 0.000000000000000000, 3.250000000000000000, 0.000000000000000000 ) ) ;
#187 =( LENGTH_UNIT ( ) NAMED_UNIT ( * ) SI_UNIT ( $, .METRE. ) );
#188 = DIRECTION ( 'NONE',  ( 0.000000000000000000, 0.000000000000000000, -1.000000000000000000 ) ) ;
#189 = DIMENSIONAL_EXPONENTS ( 1.000000000000000000, 0.000000000000000000, 0.000000000000000000, 0.000000000000000000, 0.000000000000000000, 0.000000000000000000, 0.000000000000000000 ) ;
#190 = ORIENTED_EDGE ( 'NONE', *, *, #117, .T. ) ;
#191 = LENGTH_MEASURE_WITH_UNIT ( LENGTH_MEASURE( 0.02539999999999999897 ), #168 );
#192 = PRESENTATION_LAYER_ASSIGNMENT (  '', '', ( #295 ) ) ;
#193 = EDGE_CURVE ( 'NONE', #197, #297, #19, .T. ) ;
#194 = ORIENTED_EDGE ( 'NONE', *, *, #201, .T. ) ;
#195 = ORIENTED_EDGE ( 'NONE', *, *, #184, .F. ) ;
#196 = CARTESIAN_POINT ( 'NONE',  ( 0.000000000000000000, 3.250000000000000000, 0.000000000000000000 ) ) ;
#197 = VERTEX_POINT ( 'NONE', #115 ) ;
#198 = ORIENTED_EDGE ( 'NONE', *, *, #261, .F. ) ;
#199 = PRESENTATION_LAYER_ASSIGNMENT (  '', '', ( #293 ) ) ;
#200 =( NAMED_UNIT ( * ) SI_UNIT ( $, .STERADIAN. ) SOLID_ANGLE_UNIT ( ) );
#201 = EDGE_CURVE ( 'NONE', #84, #292, #16, .T. ) ;
#202 =( GEOMETRIC_REPRESENTATION_CONTEXT ( 3 ) GLOBAL_UNCERTAINTY_ASSIGNED_CONTEXT ( ( #55 ) ) GLOBAL_UNIT_ASSIGNED_CONTEXT ( ( #253, #305, #92 ) ) REPRESENTATION_CONTEXT ( 'NONE', 'WORKASPACE' ) );
#203 = FILL_AREA_STYLE_COLOUR ( '', #7 ) ;
#204 = DIRECTION ( 'NONE',  ( -4.453261087808560759E-17, 1.000000000000000000, -0.000000000000000000 ) ) ;
#205 = SURFACE_STYLE_USAGE ( .BOTH. , #21 ) ;
#206 = UNCERTAINTY_MEASURE_WITH_UNIT (LENGTH_MEASURE( 1.000000000000000082E-05 ), #286, 'distance_accuracy_value', 'NONE');
#207 = SURFACE_SIDE_STYLE ('',( #20 ) ) ;
#208 = PLANE ( 'NONE',  #63 ) ;
#209 = SURFACE_STYLE_FILL_AREA ( #122 ) ;
#210 =( GEOMETRIC_REPRESENTATION_CONTEXT ( 3 ) GLOBAL_UNCERTAINTY_ASSIGNED_CONTEXT ( ( #267 ) ) GLOBAL_UNIT_ASSIGNED_CONTEXT ( ( #162, #243, #143 ) ) REPRESENTATION_CONTEXT ( 'NONE', 'WORKASPACE' ) );
#211 = CARTESIAN_POINT ( 'NONE',  ( 0.000000000000000000, 0.000000000000000000, 0.000000000000000000 ) ) ;
#212 = CIRCLE ( 'NONE', #59, 0.3750000000000000555 ) ;
#213 = EDGE_CURVE ( 'NONE', #159, #197, #70, .T. ) ;
#214 = CLOSED_SHELL ( 'NONE', ( #163, #126, #74, #31 ) ) ;
#215 = VERTEX_POINT ( 'NONE', #33 ) ;
#216 = DIMENSIONAL_EXPONENTS ( 1.000000000000000000, 0.000000000000000000, 0.000000000000000000, 0.000000000000000000, 0.000000000000000000, 0.000000000000000000, 0.000000000000000000 ) ;
#217 = SURFACE_SIDE_STYLE ('',( #130 ) ) ;
#218 = ORIENTED_EDGE ( 'NONE', *, *, #193, .T. ) ;
#219 = FACE_OUTER_BOUND ( 'NONE', #48, .T. ) ;
#220 = EDGE_LOOP ( 'NONE', ( #62, #78 ) ) ;
#221 = COLOUR_RGB ( '',1.000000000000000000, 0.000000000000000000, 0.000000000000000000 ) ;
#222 = ORIENTED_EDGE ( 'NONE', *, *, #265, .F. ) ;
#223 = DIRECTION ( 'NONE',  ( -4.453261087808560759E-17, 1.000000000000000000, -0.000000000000000000 ) ) ;
#224 = AXIS2_PLACEMENT_3D ( 'NONE', #119, #204, #80 ) ;
#225 = PRESENTATION_STYLE_ASSIGNMENT (( #139 ) ) ;
#226 = APPLICATION_PROTOCOL_DEFINITION ( 'draft international standard', 'automotive_design', 1998, #113 ) ;
#227 = LENGTH_MEASURE_WITH_UNIT ( LENGTH_MEASURE( 0.02539999999999999897 ), #176 );
#228 = FACE_OUTER_BOUND ( 'NONE', #303, .T. ) ;
#229 = PRODUCT_CONTEXT ( 'NONE', #113, 'mechanical' ) ;
#230 = DIRECTION ( 'NONE',  ( -1.000000000000000000, 0.000000000000000000, 0.000000000000000000 ) ) ;
#231 = DIRECTION ( 'NONE',  ( -0.000000000000000000, -1.000000000000000000, -0.000000000000000000 ) ) ;
#232 = FILL_AREA_STYLE ('',( #203 ) ) ;
#233 = FILL_AREA_STYLE_COLOUR ( '', #221 ) ;
#234 =( CONVERSION_BASED_UNIT ( 'INCH', #46 ) LENGTH_UNIT ( ) NAMED_UNIT ( #294 ) );
#235 = ORIENTED_EDGE ( 'NONE', *, *, #144, .F. ) ;
#236 = CARTESIAN_POINT ( 'NONE',  ( 4.592425496802575451E-17, 0.000000000000000000, 0.3750000000000000555 ) ) ;
#237 = CYLINDRICAL_SURFACE ( 'NONE', #278, 0.3750000000000000555 ) ;
#238 = DIMENSIONAL_EXPONENTS ( 1.000000000000000000, 0.000000000000000000, 0.000000000000000000, 0.000000000000000000, 0.000000000000000000, 0.000000000000000000, 0.000000000000000000 ) ;
#239 = MECHANICAL_DESIGN_GEOMETRIC_PRESENTATION_REPRESENTATION (  '', ( #295 ), #22 ) ;
#240 = FACE_OUTER_BOUND ( 'NONE', #109, .T. ) ;
#241 = EDGE_CURVE ( 'NONE', #159, #299, #96, .T. ) ;
#242 = APPLICATION_CONTEXT ( 'automotive_design' ) ;
#243 =( NAMED_UNIT ( * ) PLANE_ANGLE_UNIT ( ) SI_UNIT ( $, .RADIAN. ) );
#244 = CARTESIAN_POINT ( 'NONE',  ( -1.224646799147354440E-16, 6.000000000000000888, 0.000000000000000000 ) ) ;
#245 = FILL_AREA_STYLE ('',( #58 ) ) ;
#246 = PRESENTATION_STYLE_ASSIGNMENT (( #275 ) ) ;
#247 = VERTEX_POINT ( 'NONE', #26 ) ;
#248 = STYLED_ITEM ( 'NONE', ( #125 ), #83 ) ;
#249 = MECHANICAL_DESIGN_GEOMETRIC_PRESENTATION_REPRESENTATION (  '', ( #42 ), #104 ) ;
#250 = CARTESIAN_POINT ( 'NONE',  ( 0.3750000000000000555, 6.000000000000000888, 4.592425496802576684E-17 ) ) ;
#251 = LENGTH_MEASURE_WITH_UNIT ( LENGTH_MEASURE( 0.02539999999999999897 ), #298 );
#252 = ORIENTED_EDGE ( 'NONE', *, *, #68, .F. ) ;
#253 =( CONVERSION_BASED_UNIT ( 'INCH', #138 ) LENGTH_UNIT ( ) NAMED_UNIT ( #165 ) );
#254 = PLANE ( 'NONE',  #277 ) ;
#255 = CIRCLE ( 'NONE', #10, 0.3750000000000001665 ) ;
#256 = ORIENTED_EDGE ( 'NONE', *, *, #117, .F. ) ;
#257 = LENGTH_MEASURE_WITH_UNIT ( LENGTH_MEASURE( 0.02539999999999999897 ), #308 );
#258 = CARTESIAN_POINT ( 'NONE',  ( 0.3750000000000000555, 6.000000000000000888, 0.000000000000000000 ) ) ;
#259 = SURFACE_STYLE_USAGE ( .BOTH. , #105 ) ;
#260 = CARTESIAN_POINT ( 'NONE',  ( 0.000000000000000000, 0.000000000000000000, -0.3750000000000000555 ) ) ;
#261 = EDGE_CURVE ( 'NONE', #292, #247, #148, .T. ) ;
#262 = CARTESIAN_POINT ( 'NONE',  ( 3.718412684285603637E-34, 3.250000000000000000, 0.000000000000000000 ) ) ;
#263 = DIRECTION ( 'NONE',  ( -4.453261087808560759E-17, 1.000000000000000000, -0.000000000000000000 ) ) ;
#264 = ORIENTED_EDGE ( 'NONE', *, *, #213, .F. ) ;
#265 = EDGE_CURVE ( 'NONE', #247, #292, #272, .T. ) ;
#266 =( NAMED_UNIT ( * ) PLANE_ANGLE_UNIT ( ) SI_UNIT ( $, .RADIAN. ) );
#267 = UNCERTAINTY_MEASURE_WITH_UNIT (LENGTH_MEASURE( 1.000000000000000082E-05 ), #162, 'distance_accuracy_value', 'NONE');
#268 = DIRECTION ( 'NONE',  ( -0.000000000000000000, -1.000000000000000000, -0.000000000000000000 ) ) ;
#269 = DIRECTION ( 'NONE',  ( 0.000000000000000000, 0.000000000000000000, -1.000000000000000000 ) ) ;
#270 = MANIFOLD_SOLID_BREP ( 'Revolve - Tool Body (Straight Shanked)', #214 ) ;
#271 = CYLINDRICAL_SURFACE ( 'NONE', #175, 0.3750000000000000555 ) ;
#272 = CIRCLE ( 'NONE', #108, 0.3750000000000000555 ) ;
#273 = ORIENTED_EDGE ( 'NONE', *, *, #8, .F. ) ;
#274 = ADVANCED_FACE ( 'NONE', ( #98 ), #237, .T. ) ;
#275 = SURFACE_STYLE_USAGE ( .BOTH. , #217 ) ;
#276 = DIRECTION ( 'NONE',  ( -1.000000000000000000, 0.000000000000000000, 0.000000000000000000 ) ) ;
#277 = AXIS2_PLACEMENT_3D ( 'NONE', #258, #306, #18 ) ;
#278 = AXIS2_PLACEMENT_3D ( 'NONE', #93, #180, #106 ) ;
#279 = DIRECTION ( 'NONE',  ( 0.000000000000000000, -1.000000000000000000, -0.000000000000000000 ) ) ;
#280 = PRESENTATION_LAYER_ASSIGNMENT (  '', '', ( #161 ) ) ;
#281 = MECHANICAL_DESIGN_GEOMETRIC_PRESENTATION_REPRESENTATION (  '', ( #161 ), #210 ) ;
#282 = DIRECTION ( 'NONE',  ( -0.000000000000000000, -1.000000000000000000, -0.000000000000000000 ) ) ;
#283 = PRESENTATION_LAYER_ASSIGNMENT (  '', '', ( #248 ) ) ;
#284 = ADVANCED_BREP_SHAPE_REPRESENTATION ( '83211', ( #166, #270, #155 ), #57 ) ;
#285 = LENGTH_MEASURE_WITH_UNIT ( LENGTH_MEASURE( 0.02539999999999999897 ), #187 );
#286 =( CONVERSION_BASED_UNIT ( 'INCH', #227 ) LENGTH_UNIT ( ) NAMED_UNIT ( #290 ) );
#287 = COLOUR_RGB ( '',1.000000000000000000, 0.000000000000000000, 0.000000000000000000 ) ;
#288 = AXIS2_PLACEMENT_3D ( 'NONE', #75, #81, #169 ) ;
#289 = DIRECTION ( 'NONE',  ( -4.453261087808560759E-17, 1.000000000000000000, -0.000000000000000000 ) ) ;
#290 = DIMENSIONAL_EXPONENTS ( 1.000000000000000000, 0.000000000000000000, 0.000000000000000000, 0.000000000000000000, 0.000000000000000000, 0.000000000000000000, 0.000000000000000000 ) ;
#291 = CARTESIAN_POINT ( 'NONE',  ( -1.224646799147354440E-16, 6.000000000000000888, 0.000000000000000000 ) ) ;
#292 = VERTEX_POINT ( 'NONE', #160 ) ;
#293 = STYLED_ITEM ( 'NONE', ( #73 ), #274 ) ;
#294 = DIMENSIONAL_EXPONENTS ( 1.000000000000000000, 0.000000000000000000, 0.000000000000000000, 0.000000000000000000, 0.000000000000000000, 0.000000000000000000, 0.000000000000000000 ) ;
#295 = STYLED_ITEM ( 'NONE', ( #246 ), #121 ) ;
#296 = EDGE_LOOP ( 'NONE', ( #264, #273 ) ) ;
#297 = VERTEX_POINT ( 'NONE', #250 ) ;
#298 =( LENGTH_UNIT ( ) NAMED_UNIT ( * ) SI_UNIT ( $, .METRE. ) );
#299 = VERTEX_POINT ( 'NONE', #111 ) ;
#300 = COLOUR_RGB ( '',1.000000000000000000, 0.000000000000000000, 0.000000000000000000 ) ;
#301 = ORIENTED_EDGE ( 'NONE', *, *, #8, .T. ) ;
#302 = SURFACE_SIDE_STYLE ('',( #137 ) ) ;
#303 = EDGE_LOOP ( 'NONE', ( #38, #218, #252, #44 ) ) ;
#304 =( NAMED_UNIT ( * ) PLANE_ANGLE_UNIT ( ) SI_UNIT ( $, .RADIAN. ) );
#305 =( NAMED_UNIT ( * ) PLANE_ANGLE_UNIT ( ) SI_UNIT ( $, .RADIAN. ) );
#306 = DIRECTION ( 'NONE',  ( 4.453261087808560759E-17, -1.000000000000000000, 0.000000000000000000 ) ) ;
#307 = VECTOR ( 'NONE', #223, 39.37007874015748143 ) ;
#308 =( LENGTH_UNIT ( ) NAMED_UNIT ( * ) SI_UNIT ( $, .METRE. ) );
#309 = CARTESIAN_POINT ( 'NONE',  ( -1.224646799147354440E-16, 6.000000000000000888, 0.000000000000000000 ) ) ;
ENDSEC;
END-ISO-10303-21;
