ISO-10303-21;
HEADER;
FILE_DESCRIPTION (( 'STEP AP214' ),
    '1' );
FILE_NAME ('Micro_GEC-093-4-010X.STEP',
    '2021-09-03T17:06:14',
    ( '' ),
    ( '' ),
    'SwSTEP 2.0',
    'SolidWorks 2020',
    '' );
FILE_SCHEMA (( 'AUTOMOTIVE_DESIGN' ));
ENDSEC;

DATA;
#1 = CIRCLE ( 'NONE', #261, 0.03685309999999999975 ) ;
#2 = DIRECTION ( 'NONE',  ( 0.1736481776669313581, 0.0000000000000000000, 0.9848077530122077983 ) ) ;
#3 =( CONVERSION_BASED_UNIT ( 'INCH', #82 ) LENGTH_UNIT ( ) NAMED_UNIT ( #105 ) );
#4 = EDGE_LOOP ( 'NONE', ( #87, #9, #331, #178 ) ) ;
#5 = FACE_OUTER_BOUND ( 'NONE', #141, .T. ) ;
#6 = APPLICATION_PROTOCOL_DEFINITION ( 'draft international standard', 'automotive_design', 1998, #209 ) ;
#7 = ORIENTED_EDGE ( 'NONE', *, *, #231, .F. ) ;
#8 = DIRECTION ( 'NONE',  ( 1.000000000000000000, 0.0000000000000000000, 0.0000000000000000000 ) ) ;
#9 = ORIENTED_EDGE ( 'NONE', *, *, #164, .T. ) ;
#10 = AXIS2_PLACEMENT_3D ( 'NONE', #70, #292, #233 ) ;
#11 = DIRECTION ( 'NONE',  ( -0.1736481776669311639, 2.126576849575783008E-17, 0.9848077530122080203 ) ) ;
#12 = PRODUCT_RELATED_PRODUCT_CATEGORY ( 'part', '', ( #325 ) ) ;
#13 =( LENGTH_UNIT ( ) NAMED_UNIT ( * ) SI_UNIT ( $, .METRE. ) );
#14 = ORIENTED_EDGE ( 'NONE', *, *, #139, .F. ) ;
#15 = CARTESIAN_POINT ( 'NONE',  ( -0.04685310000000000169, 0.0000000000000000000, 5.737849894513087439E-18 ) ) ;
#16 = DIRECTION ( 'NONE',  ( 1.224646799147353700E-16, 0.0000000000000000000, 1.000000000000000000 ) ) ;
#17 = ORIENTED_EDGE ( 'NONE', *, *, #264, .T. ) ;
#18 = CIRCLE ( 'NONE', #93, 0.01000000000000000021 ) ;
#19 = ADVANCED_FACE ( 'NONE', ( #176 ), #125, .T. ) ;
#20 = EDGE_LOOP ( 'NONE', ( #167, #45, #337, #154 ) ) ;
#21 = LINE ( 'NONE', #77, #75 ) ;
#22 =( GEOMETRIC_REPRESENTATION_CONTEXT ( 3 ) GLOBAL_UNCERTAINTY_ASSIGNED_CONTEXT ( ( #326 ) ) GLOBAL_UNIT_ASSIGNED_CONTEXT ( ( #327, #88, #108 ) ) REPRESENTATION_CONTEXT ( 'NONE', 'WORKASPACE' ) );
#23 = DIRECTION ( 'NONE',  ( -1.224646799147353700E-16, -0.0000000000000000000, -1.000000000000000000 ) ) ;
#24 = FACE_OUTER_BOUND ( 'NONE', #283, .T. ) ;
#25 = DIRECTION ( 'NONE',  ( 1.000000000000000000, 0.0000000000000000000, -0.0000000000000000000 ) ) ;
#26 = FILL_AREA_STYLE_COLOUR ( '', #192 ) ;
#27 = ADVANCED_FACE ( 'NONE', ( #42 ), #305, .T. ) ;
#28 = ADVANCED_FACE ( 'NONE', ( #53 ), #202, .T. ) ;
#29 = EDGE_CURVE ( 'NONE', #61, #97, #98, .T. ) ;
#30 = FILL_AREA_STYLE ('',( #34 ) ) ;
#31 = DIRECTION ( 'NONE',  ( -1.000000000000000000, 0.0000000000000000000, 0.0000000000000000000 ) ) ;
#32 = CARTESIAN_POINT ( 'NONE',  ( 4.592425496802576684E-17, 0.0000000000000000000, 0.3750000000000000555 ) ) ;
#33 = ORIENTED_EDGE ( 'NONE', *, *, #139, .T. ) ;
#34 = FILL_AREA_STYLE_COLOUR ( '', #343 ) ;
#35 = AXIS2_PLACEMENT_3D ( 'NONE', #306, #270, #223 ) ;
#36 = ORIENTED_EDGE ( 'NONE', *, *, #95, .F. ) ;
#37 = ADVANCED_FACE ( 'NONE', ( #277 ), #227, .T. ) ;
#38 = TOROIDAL_SURFACE ( 'NONE', #62, 0.03685309999999999975, 0.01000000000000000021 ) ;
#39 = ORIENTED_EDGE ( 'NONE', *, *, #278, .F. ) ;
#40 = ORIENTED_EDGE ( 'NONE', *, *, #342, .T. ) ;
#41 = CARTESIAN_POINT ( 'NONE',  ( -0.06250000000000002776, 0.0000000000000000000, 1.500000000000000222 ) ) ;
#42 = FACE_OUTER_BOUND ( 'NONE', #20, .T. ) ;
#43 = DIRECTION ( 'NONE',  ( 1.000000000000000000, 0.0000000000000000000, 0.0000000000000000000 ) ) ;
#44 = VECTOR ( 'NONE', #121, 39.37007874015748143 ) ;
#45 = ORIENTED_EDGE ( 'NONE', *, *, #73, .F. ) ;
#46 = ADVANCED_FACE ( 'NONE', ( #244 ), #129, .T. ) ;
#47 = DIRECTION ( 'NONE',  ( -0.0000000000000000000, -0.0000000000000000000, -1.000000000000000000 ) ) ;
#48 = EDGE_CURVE ( 'NONE', #188, #94, #250, .T. ) ;
#49 = CARTESIAN_POINT ( 'NONE',  ( 0.04685310000000000169, 5.737849894513085128E-18, 0.01000000000000000194 ) ) ;
#50 = DIRECTION ( 'NONE',  ( -1.000000000000000000, 0.0000000000000000000, 0.0000000000000000000 ) ) ;
#51 = DIRECTION ( 'NONE',  ( 0.0000000000000000000, 0.0000000000000000000, 1.000000000000000000 ) ) ;
#52 = CARTESIAN_POINT ( 'NONE',  ( -0.06250000000000002776, 0.0000000000000000000, 1.485000000000000764 ) ) ;
#53 = FACE_OUTER_BOUND ( 'NONE', #4, .T. ) ;
#54 = AXIS2_PLACEMENT_3D ( 'NONE', #349, #181, #316 ) ;
#55 = AXIS2_PLACEMENT_3D ( 'NONE', #215, #237, #324 ) ;
#56 = CARTESIAN_POINT ( 'NONE',  ( -0.06249999999999996531, 0.0000000000000000000, 0.4637379795033760299 ) ) ;
#57 = MANIFOLD_SOLID_BREP ( 'Fillet1', #238 ) ;
#58 = DIRECTION ( 'NONE',  ( -1.224646799147353700E-16, -0.0000000000000000000, -1.000000000000000000 ) ) ;
#59 = EDGE_CURVE ( 'NONE', #173, #188, #339, .T. ) ;
#60 = PRESENTATION_STYLE_ASSIGNMENT (( #115 ) ) ;
#61 = VERTEX_POINT ( 'NONE', #92 ) ;
#62 = AXIS2_PLACEMENT_3D ( 'NONE', #113, #195, #89 ) ;
#63 = EDGE_LOOP ( 'NONE', ( #338, #91, #17, #273 ) ) ;
#64 = DIRECTION ( 'NONE',  ( 1.000000000000000000, 0.0000000000000000000, 0.0000000000000000000 ) ) ;
#65 = DIRECTION ( 'NONE',  ( 0.0000000000000000000, 0.0000000000000000000, -1.000000000000000000 ) ) ;
#66 = ORIENTED_EDGE ( 'NONE', *, *, #278, .T. ) ;
#67 = ORIENTED_EDGE ( 'NONE', *, *, #205, .F. ) ;
#68 = EDGE_CURVE ( 'NONE', #173, #272, #251, .T. ) ;
#69 = CIRCLE ( 'NONE', #266, 0.06250000000000002776 ) ;
#70 = CARTESIAN_POINT ( 'NONE',  ( 0.0000000000000000000, 0.0000000000000000000, 0.0000000000000000000 ) ) ;
#71 = EDGE_CURVE ( 'NONE', #97, #253, #69, .T. ) ;
#72 = DIRECTION ( 'NONE',  ( 0.0000000000000000000, 0.0000000000000000000, 1.000000000000000000 ) ) ;
#73 = EDGE_CURVE ( 'NONE', #61, #336, #194, .T. ) ;
#74 = CARTESIAN_POINT ( 'NONE',  ( 0.04685310000000005026, 0.0000000000000000000, 0.3750000000000000555 ) ) ;
#75 = VECTOR ( 'NONE', #160, 39.37007874015748854 ) ;
#76 = CARTESIAN_POINT ( 'NONE',  ( 0.0000000000000000000, 0.0000000000000000000, 1.500000000000000222 ) ) ;
#77 = CARTESIAN_POINT ( 'NONE',  ( 0.04750000000000064587, 5.817072295950006528E-18, 1.500000000000000222 ) ) ;
#78 = VECTOR ( 'NONE', #11, 39.37007874015747433 ) ;
#79 = DIRECTION ( 'NONE',  ( 1.000000000000000000, 0.0000000000000000000, 0.0000000000000000000 ) ) ;
#80 = DIRECTION ( 'NONE',  ( 0.0000000000000000000, -1.000000000000000000, 0.0000000000000000000 ) ) ;
#81 = EDGE_CURVE ( 'NONE', #336, #61, #171, .T. ) ;
#82 = LENGTH_MEASURE_WITH_UNIT ( LENGTH_MEASURE( 0.02539999999999999897 ), #263 );
#83 = ORIENTED_EDGE ( 'NONE', *, *, #59, .T. ) ;
#84 = CIRCLE ( 'NONE', #332, 0.06250000000000002776 ) ;
#85 = EDGE_CURVE ( 'NONE', #173, #170, #328, .T. ) ;
#86 = MECHANICAL_DESIGN_GEOMETRIC_PRESENTATION_REPRESENTATION (  '', ( #249 ), #162 ) ;
#87 = ORIENTED_EDGE ( 'NONE', *, *, #81, .F. ) ;
#88 =( NAMED_UNIT ( * ) PLANE_ANGLE_UNIT ( ) SI_UNIT ( $, .RADIAN. ) );
#89 = DIRECTION ( 'NONE',  ( 1.000000000000000000, 0.0000000000000000000, 0.0000000000000000000 ) ) ;
#90 = DIRECTION ( 'NONE',  ( 1.000000000000000000, 0.0000000000000000000, 0.0000000000000000000 ) ) ;
#91 = ORIENTED_EDGE ( 'NONE', *, *, #48, .T. ) ;
#92 = CARTESIAN_POINT ( 'NONE',  ( -0.04750000000000064587, 0.0000000000000000000, 1.500000000000000222 ) ) ;
#93 = AXIS2_PLACEMENT_3D ( 'NONE', #111, #80, #299 ) ;
#94 = VERTEX_POINT ( 'NONE', #56 ) ;
#95 = EDGE_CURVE ( 'NONE', #245, #272, #18, .T. ) ;
#96 = DIRECTION ( 'NONE',  ( 0.0000000000000000000, 0.0000000000000000000, 1.000000000000000000 ) ) ;
#97 = VERTEX_POINT ( 'NONE', #52 ) ;
#98 = LINE ( 'NONE', #222, #313 ) ;
#99 = CIRCLE ( 'NONE', #55, 0.06250000000000002776 ) ;
#100 = CYLINDRICAL_SURFACE ( 'NONE', #282, 0.04685310000000000169 ) ;
#101 = DIRECTION ( 'NONE',  ( 1.000000000000000000, 0.0000000000000000000, 0.0000000000000000000 ) ) ;
#102 = CYLINDRICAL_SURFACE ( 'NONE', #10, 0.04685310000000000169 ) ;
#103 = AXIS2_PLACEMENT_3D ( 'NONE', #302, #168, #31 ) ;
#104 = CARTESIAN_POINT ( 'NONE',  ( 1.224646799147353770E-18, 0.0000000000000000000, 0.0000000000000000000 ) ) ;
#105 = DIMENSIONAL_EXPONENTS ( 1.000000000000000000, 0.0000000000000000000, 0.0000000000000000000, 0.0000000000000000000, 0.0000000000000000000, 0.0000000000000000000, 0.0000000000000000000 ) ;
#106 = PRESENTATION_STYLE_ASSIGNMENT (( #322 ) ) ;
#107 = DIMENSIONAL_EXPONENTS ( 1.000000000000000000, 0.0000000000000000000, 0.0000000000000000000, 0.0000000000000000000, 0.0000000000000000000, 0.0000000000000000000, 0.0000000000000000000 ) ;
#108 =( NAMED_UNIT ( * ) SI_UNIT ( $, .STERADIAN. ) SOLID_ANGLE_UNIT ( ) );
#109 = CIRCLE ( 'NONE', #221, 0.06250000000000002776 ) ;
#110 = PRODUCT_DEFINITION_FORMATION_WITH_SPECIFIED_SOURCE ( 'ANY', '', #325, .NOT_KNOWN. ) ;
#111 = CARTESIAN_POINT ( 'NONE',  ( 0.03685309999999999975, 0.0000000000000000000, 0.01000000000000000021 ) ) ;
#112 = PRODUCT_DEFINITION_CONTEXT ( 'detailed design', #209, 'design' ) ;
#113 = CARTESIAN_POINT ( 'NONE',  ( 1.224646799147353770E-18, 0.0000000000000000000, 0.01000000000000000021 ) ) ;
#114 = AXIS2_PLACEMENT_3D ( 'NONE', #122, #196, #310 ) ;
#115 = SURFACE_STYLE_USAGE ( .BOTH. , #151 ) ;
#116 = CIRCLE ( 'NONE', #239, 0.01000000000000000021 ) ;
#117 = ADVANCED_FACE ( 'NONE', ( #267 ), #38, .T. ) ;
#118 = EDGE_LOOP ( 'NONE', ( #169, #40, #120, #311 ) ) ;
#119 = ORIENTED_EDGE ( 'NONE', *, *, #95, .T. ) ;
#120 = ORIENTED_EDGE ( 'NONE', *, *, #205, .T. ) ;
#121 = DIRECTION ( 'NONE',  ( -1.224646799147353700E-16, -0.0000000000000000000, -1.000000000000000000 ) ) ;
#122 = CARTESIAN_POINT ( 'NONE',  ( 0.0000000000000000000, 0.0000000000000000000, 1.500000000000000222 ) ) ;
#123 = VECTOR ( 'NONE', #225, 39.37007874015748143 ) ;
#124 = EDGE_LOOP ( 'NONE', ( #224, #83, #246, #33 ) ) ;
#125 = CYLINDRICAL_SURFACE ( 'NONE', #286, 0.06250000000000002776 ) ;
#126 = ORIENTED_EDGE ( 'NONE', *, *, #297, .F. ) ;
#127 = UNCERTAINTY_MEASURE_WITH_UNIT (LENGTH_MEASURE( 1.000000000000000082E-05 ), #3, 'distance_accuracy_value', 'NONE');
#128 = PRODUCT_DEFINITION_SHAPE ( 'NONE', 'NONE',  #350 ) ;
#129 = CONICAL_SURFACE ( 'NONE', #308, 0.04685310000000000863, 0.1745329251994338637 ) ;
#130 = ADVANCED_FACE ( 'NONE', ( #5 ), #218, .T. ) ;
#131 = CARTESIAN_POINT ( 'NONE',  ( 0.0000000000000000000, 0.0000000000000000000, 0.0000000000000000000 ) ) ;
#132 = DIRECTION ( 'NONE',  ( 1.000000000000000000, 0.0000000000000000000, 0.0000000000000000000 ) ) ;
#133 = PLANE ( 'NONE',  #134 ) ;
#134 = AXIS2_PLACEMENT_3D ( 'NONE', #131, #72, #206 ) ;
#135 = ORIENTED_EDGE ( 'NONE', *, *, #312, .T. ) ;
#136 =( LENGTH_UNIT ( ) NAMED_UNIT ( * ) SI_UNIT ( $, .METRE. ) );
#137 = CARTESIAN_POINT ( 'NONE',  ( 0.04750000000000064587, 6.735557395310483192E-18, 1.500000000000000222 ) ) ;
#138 = CARTESIAN_POINT ( 'NONE',  ( 0.0000000000000000000, 0.0000000000000000000, 0.0000000000000000000 ) ) ;
#139 = EDGE_CURVE ( 'NONE', #201, #272, #148, .T. ) ;
#140 = PRESENTATION_LAYER_ASSIGNMENT (  '', '', ( #348 ) ) ;
#141 = EDGE_LOOP ( 'NONE', ( #200, #279, #146, #67 ) ) ;
#142 = CARTESIAN_POINT ( 'NONE',  ( 0.0000000000000000000, 0.0000000000000000000, 1.485000000000000764 ) ) ;
#143 = LENGTH_MEASURE_WITH_UNIT ( LENGTH_MEASURE( 0.02539999999999999897 ), #13 );
#144 = DIRECTION ( 'NONE',  ( 0.0000000000000000000, 0.0000000000000000000, 1.000000000000000000 ) ) ;
#145 = DIRECTION ( 'NONE',  ( 1.000000000000000000, 0.0000000000000000000, 0.0000000000000000000 ) ) ;
#146 = ORIENTED_EDGE ( 'NONE', *, *, #264, .F. ) ;
#147 = ORIENTED_EDGE ( 'NONE', *, *, #48, .F. ) ;
#148 = CIRCLE ( 'NONE', #315, 0.04685310000000000169 ) ;
#149 = CARTESIAN_POINT ( 'NONE',  ( 4.592425496802576684E-17, 0.0000000000000000000, 0.3750000000000000555 ) ) ;
#150 = DIRECTION ( 'NONE',  ( 0.0000000000000000000, 0.0000000000000000000, -1.000000000000000000 ) ) ;
#151 = SURFACE_SIDE_STYLE ('',( #252 ) ) ;
#152 = ORIENTED_EDGE ( 'NONE', *, *, #81, .T. ) ;
#153 = AXIS2_PLACEMENT_3D ( 'NONE', #271, #65, #268 ) ;
#154 = ORIENTED_EDGE ( 'NONE', *, *, #342, .F. ) ;
#155 = EDGE_LOOP ( 'NONE', ( #265, #152 ) ) ;
#156 = DIRECTION ( 'NONE',  ( -1.224646799147353700E-16, -0.0000000000000000000, -1.000000000000000000 ) ) ;
#157 = CARTESIAN_POINT ( 'NONE',  ( 5.679152322418704750E-17, 0.0000000000000000000, 0.4637379795033760299 ) ) ;
#158 = EDGE_CURVE ( 'NONE', #272, #201, #256, .T. ) ;
#159 = CARTESIAN_POINT ( 'NONE',  ( 0.0000000000000000000, 0.0000000000000000000, 0.0000000000000000000 ) ) ;
#160 = DIRECTION ( 'NONE',  ( 0.7071067811865462405, 8.659560562354916834E-17, -0.7071067811865486830 ) ) ;
#161 = VECTOR ( 'NONE', #217, 39.37007874015748143 ) ;
#162 =( GEOMETRIC_REPRESENTATION_CONTEXT ( 3 ) GLOBAL_UNCERTAINTY_ASSIGNED_CONTEXT ( ( #127 ) ) GLOBAL_UNIT_ASSIGNED_CONTEXT ( ( #3, #190, #295 ) ) REPRESENTATION_CONTEXT ( 'NONE', 'WORKASPACE' ) );
#163 = LINE ( 'NONE', #214, #161 ) ;
#164 = EDGE_CURVE ( 'NONE', #336, #253, #21, .T. ) ;
#165 = SURFACE_STYLE_FILL_AREA ( #351 ) ;
#166 = VECTOR ( 'NONE', #2, 39.37007874015748143 ) ;
#167 = ORIENTED_EDGE ( 'NONE', *, *, #164, .F. ) ;
#168 = DIRECTION ( 'NONE',  ( -0.0000000000000000000, -0.0000000000000000000, -1.000000000000000000 ) ) ;
#169 = ORIENTED_EDGE ( 'NONE', *, *, #329, .F. ) ;
#170 = VERTEX_POINT ( 'NONE', #340 ) ;
#171 = CIRCLE ( 'NONE', #226, 0.04750000000000064587 ) ;
#172 =( GEOMETRIC_REPRESENTATION_CONTEXT ( 3 ) GLOBAL_UNCERTAINTY_ASSIGNED_CONTEXT ( ( #314 ) ) GLOBAL_UNIT_ASSIGNED_CONTEXT ( ( #241, #280, #341 ) ) REPRESENTATION_CONTEXT ( 'NONE', 'WORKASPACE' ) );
#173 = VERTEX_POINT ( 'NONE', #74 ) ;
#174 = DIRECTION ( 'NONE',  ( 0.0000000000000000000, 0.0000000000000000000, 1.000000000000000000 ) ) ;
#175 = ADVANCED_FACE ( 'NONE', ( #285 ), #102, .T. ) ;
#176 = FACE_OUTER_BOUND ( 'NONE', #118, .T. ) ;
#177 = ORIENTED_EDGE ( 'NONE', *, *, #231, .T. ) ;
#178 = ORIENTED_EDGE ( 'NONE', *, *, #29, .F. ) ;
#179 = AXIS2_PLACEMENT_3D ( 'NONE', #288, #236, #211 ) ;
#180 = DIRECTION ( 'NONE',  ( -0.0000000000000000000, -0.0000000000000000000, -1.000000000000000000 ) ) ;
#181 = DIRECTION ( 'NONE',  ( -0.0000000000000000000, -0.0000000000000000000, -1.000000000000000000 ) ) ;
#182 = CARTESIAN_POINT ( 'NONE',  ( -0.04685309999999996700, 6.695946194592023262E-18, 0.3750000000000000555 ) ) ;
#183 = AXIS2_PLACEMENT_3D ( 'NONE', #247, #144, #64 ) ;
#184 = CARTESIAN_POINT ( 'NONE',  ( 0.03685309999999999975, 0.0000000000000000000, 0.0000000000000000000 ) ) ;
#185 = PRESENTATION_LAYER_ASSIGNMENT (  '', '', ( #249 ) ) ;
#186 = ORIENTED_EDGE ( 'NONE', *, *, #85, .T. ) ;
#187 = FACE_OUTER_BOUND ( 'NONE', #219, .T. ) ;
#188 = VERTEX_POINT ( 'NONE', #182 ) ;
#189 = CARTESIAN_POINT ( 'NONE',  ( 1.224646799147353770E-18, 0.0000000000000000000, 0.01000000000000000021 ) ) ;
#190 =( NAMED_UNIT ( * ) PLANE_ANGLE_UNIT ( ) SI_UNIT ( $, .RADIAN. ) );
#191 = ADVANCED_FACE ( 'NONE', ( #317 ), #228, .T. ) ;
#192 = COLOUR_RGB ( '',0.7921568627450980005, 0.8196078431372548767, 0.9333333333333333481 ) ;
#193 = APPLICATION_CONTEXT ( 'automotive_design' ) ;
#194 = CIRCLE ( 'NONE', #183, 0.04750000000000064587 ) ;
#195 = DIRECTION ( 'NONE',  ( 0.0000000000000000000, 0.0000000000000000000, 1.000000000000000000 ) ) ;
#196 = DIRECTION ( 'NONE',  ( 0.0000000000000000000, 0.0000000000000000000, -1.000000000000000000 ) ) ;
#197 = CARTESIAN_POINT ( 'NONE',  ( 1.224646799147353962E-18, 0.0000000000000000000, 0.01000000000000000194 ) ) ;
#198 = DIRECTION ( 'NONE',  ( 1.000000000000000000, 0.0000000000000000000, 0.0000000000000000000 ) ) ;
#199 = CARTESIAN_POINT ( 'NONE',  ( -0.04685309999999996700, 5.737849894513086668E-18, 0.3750000000000000555 ) ) ;
#200 = ORIENTED_EDGE ( 'NONE', *, *, #71, .T. ) ;
#201 = VERTEX_POINT ( 'NONE', #345 ) ;
#202 = CONICAL_SURFACE ( 'NONE', #153, 0.04750000000000064587, 0.7853981633974466137 ) ;
#203 = ADVANCED_FACE ( 'NONE', ( #187 ), #133, .F. ) ;
#204 = AXIS2_PLACEMENT_3D ( 'NONE', #318, #23, #50 ) ;
#205 = EDGE_CURVE ( 'NONE', #97, #94, #344, .T. ) ;
#206 = DIRECTION ( 'NONE',  ( 1.000000000000000000, 0.0000000000000000000, -0.0000000000000000000 ) ) ;
#207 = CARTESIAN_POINT ( 'NONE',  ( 5.679152322418704750E-17, 0.0000000000000000000, 0.4637379795033760299 ) ) ;
#208 = DIRECTION ( 'NONE',  ( -1.000000000000000000, 0.0000000000000000000, 1.224646799147353700E-16 ) ) ;
#209 = APPLICATION_CONTEXT ( 'automotive_design' ) ;
#210 = TOROIDAL_SURFACE ( 'NONE', #294, 0.03685309999999999975, 0.01000000000000000021 ) ;
#211 = DIRECTION ( 'NONE',  ( 1.000000000000000000, 0.0000000000000000000, 0.0000000000000000000 ) ) ;
#212 = DIRECTION ( 'NONE',  ( 1.000000000000000000, 0.0000000000000000000, 0.0000000000000000000 ) ) ;
#213 = EDGE_CURVE ( 'NONE', #188, #173, #319, .T. ) ;
#214 = CARTESIAN_POINT ( 'NONE',  ( 0.06250000000000002776, 7.654042494670959086E-18, 1.500000000000000222 ) ) ;
#215 = CARTESIAN_POINT ( 'NONE',  ( 0.0000000000000000000, 0.0000000000000000000, 1.485000000000000764 ) ) ;
#216 = ADVANCED_FACE ( 'NONE', ( #24 ), #210, .T. ) ;
#217 = DIRECTION ( 'NONE',  ( -0.0000000000000000000, -0.0000000000000000000, -1.000000000000000000 ) ) ;
#218 = CYLINDRICAL_SURFACE ( 'NONE', #103, 0.06250000000000002776 ) ;
#219 = EDGE_LOOP ( 'NONE', ( #177, #66 ) ) ;
#220 = SHAPE_DEFINITION_REPRESENTATION ( #128, #323 ) ;
#221 = AXIS2_PLACEMENT_3D ( 'NONE', #207, #156, #43 ) ;
#222 = CARTESIAN_POINT ( 'NONE',  ( -0.04750000000000064587, 0.0000000000000000000, 1.500000000000000222 ) ) ;
#223 = DIRECTION ( 'NONE',  ( -1.000000000000000000, 0.0000000000000000000, 0.0000000000000000000 ) ) ;
#224 = ORIENTED_EDGE ( 'NONE', *, *, #68, .F. ) ;
#225 = DIRECTION ( 'NONE',  ( -0.0000000000000000000, -0.0000000000000000000, -1.000000000000000000 ) ) ;
#226 = AXIS2_PLACEMENT_3D ( 'NONE', #334, #174, #198 ) ;
#227 = CONICAL_SURFACE ( 'NONE', #274, 0.04685310000000000863, 0.1745329251994338637 ) ;
#228 = PLANE ( 'NONE',  #301 ) ;
#229 = ORIENTED_EDGE ( 'NONE', *, *, #68, .T. ) ;
#230 = DIRECTION ( 'NONE',  ( -1.224646799147353700E-16, -0.0000000000000000000, -1.000000000000000000 ) ) ;
#231 = EDGE_CURVE ( 'NONE', #245, #232, #235, .T. ) ;
#232 = VERTEX_POINT ( 'NONE', #320 ) ;
#233 = DIRECTION ( 'NONE',  ( -1.000000000000000000, 0.0000000000000000000, 1.224646799147353700E-16 ) ) ;
#234 = ORIENTED_EDGE ( 'NONE', *, *, #213, .T. ) ;
#235 = CIRCLE ( 'NONE', #54, 0.03685309999999999975 ) ;
#236 = DIRECTION ( 'NONE',  ( 0.0000000000000000000, 0.0000000000000000000, 1.000000000000000000 ) ) ;
#237 = DIRECTION ( 'NONE',  ( 0.0000000000000000000, 0.0000000000000000000, -1.000000000000000000 ) ) ;
#238 = CLOSED_SHELL ( 'NONE', ( #117, #248, #46, #28, #130, #19, #191, #27, #37, #175, #203, #216 ) ) ;
#239 = AXIS2_PLACEMENT_3D ( 'NONE', #303, #298, #262 ) ;
#240 = ORIENTED_EDGE ( 'NONE', *, *, #312, .F. ) ;
#241 =( CONVERSION_BASED_UNIT ( 'INCH', #143 ) LENGTH_UNIT ( ) NAMED_UNIT ( #107 ) );
#242 = ORIENTED_EDGE ( 'NONE', *, *, #257, .T. ) ;
#243 = PRODUCT_CONTEXT ( 'NONE', #193, 'mechanical' ) ;
#244 = FACE_OUTER_BOUND ( 'NONE', #63, .T. ) ;
#245 = VERTEX_POINT ( 'NONE', #184 ) ;
#246 = ORIENTED_EDGE ( 'NONE', *, *, #297, .T. ) ;
#247 = CARTESIAN_POINT ( 'NONE',  ( 0.0000000000000000000, 0.0000000000000000000, 1.500000000000000222 ) ) ;
#248 = ADVANCED_FACE ( 'NONE', ( #347 ), #100, .T. ) ;
#249 = STYLED_ITEM ( 'NONE', ( #106 ), #323 ) ;
#250 = LINE ( 'NONE', #199, #78 ) ;
#251 = LINE ( 'NONE', #309, #289 ) ;
#252 = SURFACE_STYLE_FILL_AREA ( #30 ) ;
#253 = VERTEX_POINT ( 'NONE', #291 ) ;
#254 = LINE ( 'NONE', #15, #44 ) ;
#255 = ORIENTED_EDGE ( 'NONE', *, *, #158, .F. ) ;
#256 = CIRCLE ( 'NONE', #179, 0.04685310000000000169 ) ;
#257 = EDGE_CURVE ( 'NONE', #170, #94, #109, .T. ) ;
#258 = DIRECTION ( 'NONE',  ( -1.224646799147353700E-16, -0.0000000000000000000, -1.000000000000000000 ) ) ;
#259 = DIRECTION ( 'NONE',  ( 0.0000000000000000000, 0.0000000000000000000, 1.000000000000000000 ) ) ;
#260 = DIRECTION ( 'NONE',  ( 1.000000000000000000, 0.0000000000000000000, 0.0000000000000000000 ) ) ;
#261 = AXIS2_PLACEMENT_3D ( 'NONE', #104, #47, #212 ) ;
#262 = DIRECTION ( 'NONE',  ( -1.000000000000000000, 1.224646799147353454E-16, 0.0000000000000000000 ) ) ;
#263 =( LENGTH_UNIT ( ) NAMED_UNIT ( * ) SI_UNIT ( $, .METRE. ) );
#264 = EDGE_CURVE ( 'NONE', #94, #170, #84, .T. ) ;
#265 = ORIENTED_EDGE ( 'NONE', *, *, #73, .T. ) ;
#266 = AXIS2_PLACEMENT_3D ( 'NONE', #142, #150, #8 ) ;
#267 = FACE_OUTER_BOUND ( 'NONE', #307, .T. ) ;
#268 = DIRECTION ( 'NONE',  ( -1.000000000000000000, 0.0000000000000000000, 0.0000000000000000000 ) ) ;
#269 = APPLICATION_PROTOCOL_DEFINITION ( 'draft international standard', 'automotive_design', 1998, #193 ) ;
#270 = DIRECTION ( 'NONE',  ( -1.224646799147353700E-16, -0.0000000000000000000, -1.000000000000000000 ) ) ;
#271 = CARTESIAN_POINT ( 'NONE',  ( 0.0000000000000000000, 0.0000000000000000000, 1.500000000000000222 ) ) ;
#272 = VERTEX_POINT ( 'NONE', #49 ) ;
#273 = ORIENTED_EDGE ( 'NONE', *, *, #85, .F. ) ;
#274 = AXIS2_PLACEMENT_3D ( 'NONE', #32, #330, #145 ) ;
#275 = ORIENTED_EDGE ( 'NONE', *, *, #158, .T. ) ;
#276 = CARTESIAN_POINT ( 'NONE',  ( 0.04685310000000005026, 0.0000000000000000000, 0.3750000000000000555 ) ) ;
#277 = FACE_OUTER_BOUND ( 'NONE', #304, .T. ) ;
#278 = EDGE_CURVE ( 'NONE', #232, #245, #1, .T. ) ;
#279 = ORIENTED_EDGE ( 'NONE', *, *, #329, .T. ) ;
#280 =( NAMED_UNIT ( * ) PLANE_ANGLE_UNIT ( ) SI_UNIT ( $, .RADIAN. ) );
#281 = ORIENTED_EDGE ( 'NONE', *, *, #59, .F. ) ;
#282 = AXIS2_PLACEMENT_3D ( 'NONE', #159, #230, #208 ) ;
#283 = EDGE_LOOP ( 'NONE', ( #240, #7, #119, #14 ) ) ;
#284 = DIRECTION ( 'NONE',  ( -1.000000000000000000, 0.0000000000000000000, 0.0000000000000000000 ) ) ;
#285 = FACE_OUTER_BOUND ( 'NONE', #124, .T. ) ;
#286 = AXIS2_PLACEMENT_3D ( 'NONE', #287, #180, #284 ) ;
#287 = CARTESIAN_POINT ( 'NONE',  ( 0.0000000000000000000, 0.0000000000000000000, 1.500000000000000222 ) ) ;
#288 = CARTESIAN_POINT ( 'NONE',  ( 1.224646799147353962E-18, 0.0000000000000000000, 0.01000000000000000194 ) ) ;
#289 = VECTOR ( 'NONE', #58, 39.37007874015748143 ) ;
#290 = AXIS2_PLACEMENT_3D ( 'NONE', #138, #51, #79 ) ;
#291 = CARTESIAN_POINT ( 'NONE',  ( 0.06250000000000002776, 7.654042494670959086E-18, 1.485000000000000764 ) ) ;
#292 = DIRECTION ( 'NONE',  ( -1.224646799147353700E-16, -0.0000000000000000000, -1.000000000000000000 ) ) ;
#293 = DIRECTION ( 'NONE',  ( 0.0000000000000000000, 0.0000000000000000000, 1.000000000000000000 ) ) ;
#294 = AXIS2_PLACEMENT_3D ( 'NONE', #189, #293, #132 ) ;
#295 =( NAMED_UNIT ( * ) SI_UNIT ( $, .STERADIAN. ) SOLID_ANGLE_UNIT ( ) );
#296 = LENGTH_MEASURE_WITH_UNIT ( LENGTH_MEASURE( 0.02539999999999999897 ), #136 );
#297 = EDGE_CURVE ( 'NONE', #188, #201, #254, .T. ) ;
#298 = DIRECTION ( 'NONE',  ( 1.224646799147353207E-16, 1.000000000000000000, -0.0000000000000000000 ) ) ;
#299 = DIRECTION ( 'NONE',  ( 0.0000000000000000000, 0.0000000000000000000, -1.000000000000000000 ) ) ;
#300 = SURFACE_SIDE_STYLE ('',( #165 ) ) ;
#301 = AXIS2_PLACEMENT_3D ( 'NONE', #76, #259, #25 ) ;
#302 = CARTESIAN_POINT ( 'NONE',  ( 0.0000000000000000000, 0.0000000000000000000, 1.500000000000000222 ) ) ;
#303 = CARTESIAN_POINT ( 'NONE',  ( -0.03685309999999999975, 4.513203095365732321E-18, 0.01000000000000000021 ) ) ;
#304 = EDGE_LOOP ( 'NONE', ( #147, #281, #186, #242 ) ) ;
#305 = CONICAL_SURFACE ( 'NONE', #114, 0.04750000000000064587, 0.7853981633974466137 ) ;
#306 = CARTESIAN_POINT ( 'NONE',  ( 4.592425496802576684E-17, 0.0000000000000000000, 0.3750000000000000555 ) ) ;
#307 = EDGE_LOOP ( 'NONE', ( #39, #135, #255, #36 ) ) ;
#308 = AXIS2_PLACEMENT_3D ( 'NONE', #149, #16, #90 ) ;
#309 = CARTESIAN_POINT ( 'NONE',  ( 0.04685310000000000169, 5.737849894513085128E-18, -5.737849894513087439E-18 ) ) ;
#310 = DIRECTION ( 'NONE',  ( -1.000000000000000000, 0.0000000000000000000, 0.0000000000000000000 ) ) ;
#311 = ORIENTED_EDGE ( 'NONE', *, *, #257, .F. ) ;
#312 = EDGE_CURVE ( 'NONE', #232, #201, #116, .T. ) ;
#313 = VECTOR ( 'NONE', #335, 39.37007874015748854 ) ;
#314 = UNCERTAINTY_MEASURE_WITH_UNIT (LENGTH_MEASURE( 1.000000000000000082E-05 ), #241, 'distance_accuracy_value', 'NONE');
#315 = AXIS2_PLACEMENT_3D ( 'NONE', #197, #96, #260 ) ;
#316 = DIRECTION ( 'NONE',  ( 1.000000000000000000, 0.0000000000000000000, 0.0000000000000000000 ) ) ;
#317 = FACE_OUTER_BOUND ( 'NONE', #155, .T. ) ;
#318 = CARTESIAN_POINT ( 'NONE',  ( 4.592425496802576684E-17, 0.0000000000000000000, 0.3750000000000000555 ) ) ;
#319 = CIRCLE ( 'NONE', #204, 0.04685310000000000863 ) ;
#320 = CARTESIAN_POINT ( 'NONE',  ( -0.03685309999999999975, 5.125526494939408339E-18, 0.0000000000000000000 ) ) ;
#321 = MECHANICAL_DESIGN_GEOMETRIC_PRESENTATION_REPRESENTATION (  '', ( #348 ), #172 ) ;
#322 = SURFACE_STYLE_USAGE ( .BOTH. , #300 ) ;
#323 = ADVANCED_BREP_SHAPE_REPRESENTATION ( 'Micro_GEC-093-4-010X', ( #57, #290 ), #22 ) ;
#324 = DIRECTION ( 'NONE',  ( 1.000000000000000000, 0.0000000000000000000, 0.0000000000000000000 ) ) ;
#325 = PRODUCT ( 'Micro_GEC-093-4-010X', 'Micro_GEC-093-4-010X', '', ( #243 ) ) ;
#326 = UNCERTAINTY_MEASURE_WITH_UNIT (LENGTH_MEASURE( 1.000000000000000082E-05 ), #327, 'distance_accuracy_value', 'NONE');
#327 =( CONVERSION_BASED_UNIT ( 'INCH', #296 ) LENGTH_UNIT ( ) NAMED_UNIT ( #346 ) );
#328 = LINE ( 'NONE', #276, #166 ) ;
#329 = EDGE_CURVE ( 'NONE', #253, #170, #163, .T. ) ;
#330 = DIRECTION ( 'NONE',  ( 1.224646799147353700E-16, 0.0000000000000000000, 1.000000000000000000 ) ) ;
#331 = ORIENTED_EDGE ( 'NONE', *, *, #71, .F. ) ;
#332 = AXIS2_PLACEMENT_3D ( 'NONE', #157, #258, #101 ) ;
#333 = EDGE_LOOP ( 'NONE', ( #234, #229, #275, #126 ) ) ;
#334 = CARTESIAN_POINT ( 'NONE',  ( 0.0000000000000000000, 0.0000000000000000000, 1.500000000000000222 ) ) ;
#335 = DIRECTION ( 'NONE',  ( -0.7071067811865462405, 0.0000000000000000000, -0.7071067811865486830 ) ) ;
#336 = VERTEX_POINT ( 'NONE', #137 ) ;
#337 = ORIENTED_EDGE ( 'NONE', *, *, #29, .T. ) ;
#338 = ORIENTED_EDGE ( 'NONE', *, *, #213, .F. ) ;
#339 = CIRCLE ( 'NONE', #35, 0.04685310000000000863 ) ;
#340 = CARTESIAN_POINT ( 'NONE',  ( 0.06250000000000008327, 7.654042494670966789E-18, 0.4637379795033760299 ) ) ;
#341 =( NAMED_UNIT ( * ) SI_UNIT ( $, .STERADIAN. ) SOLID_ANGLE_UNIT ( ) );
#342 = EDGE_CURVE ( 'NONE', #253, #97, #99, .T. ) ;
#343 = COLOUR_RGB ( '',0.7921568627450980005, 0.8196078431372548767, 0.9333333333333333481 ) ;
#344 = LINE ( 'NONE', #41, #123 ) ;
#345 = CARTESIAN_POINT ( 'NONE',  ( -0.04685310000000000169, 0.0000000000000000000, 0.01000000000000000194 ) ) ;
#346 = DIMENSIONAL_EXPONENTS ( 1.000000000000000000, 0.0000000000000000000, 0.0000000000000000000, 0.0000000000000000000, 0.0000000000000000000, 0.0000000000000000000, 0.0000000000000000000 ) ;
#347 = FACE_OUTER_BOUND ( 'NONE', #333, .T. ) ;
#348 = STYLED_ITEM ( 'NONE', ( #60 ), #57 ) ;
#349 = CARTESIAN_POINT ( 'NONE',  ( 1.224646799147353770E-18, 0.0000000000000000000, 0.0000000000000000000 ) ) ;
#350 = PRODUCT_DEFINITION ( 'UNKNOWN', '', #110, #112 ) ;
#351 = FILL_AREA_STYLE ('',( #26 ) ) ;
ENDSEC;
END-ISO-10303-21;
